  0
SECTION
  2
HEADER
  9
$ACADVER
  1
AC1009
  9
$INSBASE
 10
0.0
 20
0.0
 30
0.0
  9
$EXTMIN
 10
0.0
 20
-2.960436562073669
 30
0.0
  9
$EXTMAX
 10
277.0
 20
125.8564064605511
 30
0.0
  9
$LIMMIN
 10
0.0
 20
0.0
  9
$LIMMAX
 10
375.0
 20
270.0
  9
$ORTHOMODE
 70
     1
  9
$REGENMODE
 70
     1
  9
$FILLMODE
 70
     1
  9
$QTEXTMODE
 70
     0
  9
$MIRRTEXT
 70
     0
  9
$DRAGMODE
 70
     2
  9
$LTSCALE
 40
10.0
  9
$OSMODE
 70
    37
  9
$ATTMODE
 70
     1
  9
$TEXTSIZE
 40
0.2
  9
$TRACEWID
 40
0.05
  9
$TEXTSTYLE
  7
STANDARD
  9
$CLAYER
  8
0
  9
$CELTYPE
  6
BYLAYER
  9
$CECOLOR
 62
   256
  9
$DIMSCALE
 40
1.0
  9
$DIMASZ
 40
3.0
  9
$DIMEXO
 40
2.0
  9
$DIMDLI
 40
0.38
  9
$DIMRND
 40
0.0
  9
$DIMDLE
 40
0.0
  9
$DIMEXE
 40
2.0
  9
$DIMTP
 40
0.0
  9
$DIMTM
 40
0.0
  9
$DIMTXT
 40
3.2000000000000002
  9
$DIMCEN
 40
0.0
  9
$DIMTSZ
 40
0.0
  9
$DIMTOL
 70
     0
  9
$DIMLIM
 70
     0
  9
$DIMTIH
 70
     0
  9
$DIMTOH
 70
     0
  9
$DIMSE1
 70
     0
  9
$DIMSE2
 70
     0
  9
$DIMTAD
 70
     1
  9
$DIMZIN
 70
     0
  9
$DIMBLK
  1

  9
$DIMASO
 70
     0
  9
$DIMSHO
 70
     0
  9
$DIMPOST
  1

  9
$DIMAPOST
  1

  9
$DIMALT
 70
     0
  9
$DIMALTD
 70
     2
  9
$DIMALTF
 40
25.399999999999999
  9
$DIMLFAC
 40
1.0
  9
$DIMTOFL
 70
     1
  9
$DIMTVP
 40
1.6000000000000001
  9
$DIMTIX
 70
     1
  9
$DIMSOXD
 70
     0
  9
$DIMSAH
 70
     0
  9
$DIMBLK1
  1

  9
$DIMBLK2
  1

  9
$DIMSTYLE
  2
STANDARD
  9
$DIMCLRD
 70
     0
  9
$DIMCLRE
 70
     0
  9
$DIMCLRT
 70
     0
  9
$DIMTFAC
 40
1.0
  9
$DIMGAP
 40
0.09
  9
$LUNITS
 70
     2
  9
$LUPREC
 70
     4
  9
$SKETCHINC
 40
0.1
  9
$FILLETRAD
 40
0.0
  9
$AUNITS
 70
     0
  9
$AUPREC
 70
     4
  9
$MENU
  1
E:\r13\win\SUPPORT\ACAD
  9
$ELEVATION
 40
0.0
  9
$PELEVATION
 40
0.0
  9
$THICKNESS
 40
0.0
  9
$LIMCHECK
 70
     0
  9
$BLIPMODE
 70
     0
  9
$CHAMFERA
 40
0.0
  9
$CHAMFERB
 40
0.0
  9
$SKPOLY
 70
     0
  9
$TDCREATE
 40
2449839.7725462969
  9
$TDUPDATE
 40
2456923.496859144
  9
$TDINDWG
 40
0.1008451736
  9
$TDUSRTIMER
 40
0.1008451736
  9
$USRTIMER
 70
     1
  9
$ANGBASE
 50
0.0
  9
$ANGDIR
 70
     0
  9
$PDMODE
 70
     0
  9
$PDSIZE
 40
0.0
  9
$PLINEWID
 40
0.0
  9
$COORDS
 70
     1
  9
$SPLFRAME
 70
     0
  9
$SPLINETYPE
 70
     6
  9
$SPLINESEGS
 70
     8
  9
$ATTDIA
 70
     0
  9
$ATTREQ
 70
     1
  9
$HANDLING
 70
     1
  9
$HANDSEED
  5
5E9
  9
$SURFTAB1
 70
     6
  9
$SURFTAB2
 70
     6
  9
$SURFTYPE
 70
     6
  9
$SURFU
 70
     6
  9
$SURFV
 70
     6
  9
$UCSNAME
  2

  9
$UCSORG
 10
0.0
 20
0.0
 30
0.0
  9
$UCSXDIR
 10
1.0
 20
0.0
 30
0.0
  9
$UCSYDIR
 10
0.0
 20
1.0
 30
0.0
  9
$PUCSNAME
  2

  9
$PUCSORG
 10
0.0
 20
0.0
 30
0.0
  9
$PUCSXDIR
 10
1.0
 20
0.0
 30
0.0
  9
$PUCSYDIR
 10
0.0
 20
1.0
 30
0.0
  9
$USERI1
 70
     0
  9
$USERI2
 70
     1
  9
$USERI3
 70
     0
  9
$USERI4
 70
     0
  9
$USERI5
 70
     0
  9
$USERR1
 40
0.0
  9
$USERR2
 40
0.0
  9
$USERR3
 40
0.0
  9
$USERR4
 40
0.0
  9
$USERR5
 40
0.0
  9
$WORLDVIEW
 70
     1
  9
$SHADEDGE
 70
     3
  9
$SHADEDIF
 70
    70
  9
$TILEMODE
 70
     1
  9
$MAXACTVP
 70
    16
  9
$PLIMCHECK
 70
     0
  9
$PEXTMIN
 10
1.0000000000000000E+020
 20
1.0000000000000000E+020
 30
1.0000000000000000E+020
  9
$PEXTMAX
 10
-1.0000000000000000E+020
 20
-1.0000000000000000E+020
 30
-1.0000000000000000E+020
  9
$PLIMMIN
 10
0.0
 20
0.0
  9
$PLIMMAX
 10
12.0
 20
9.0
  9
$UNITMODE
 70
     0
  9
$VISRETAIN
 70
     0
  9
$PLINEGEN
 70
     0
  9
$PSLTSCALE
 70
     0
  0
ENDSEC
  0
SECTION
  2
TABLES
  0
TABLE
  2
VPORT
 70
     1
  0
VPORT
  2
*ACTIVE
 70
     0
 10
0.0
 20
0.0
 11
1.0
 21
1.0
 12
178.36731696797179
 22
61.444599531511642
 13
0.0
 23
0.0
 14
10.0
 24
10.0
 15
10.0
 25
10.0
 16
0.0
 26
0.0
 36
1.0
 17
0.0
 27
0.0
 37
0.0
 40
205.3879500832592
 41
1.7454798331015291
 42
50.0
 43
0.0
 44
0.0
 50
0.0
 51
0.0
 71
     0
 72
   500
 73
     1
 74
     0
 75
     0
 76
     0
 77
     0
 78
     2
  0
ENDTAB
  0
TABLE
  2
LTYPE
 70
     3
  0
LTYPE
  2
CONTINUOUS
 70
     0
  3
Solid Line
 72
    65
 73
     0
 40
0.0
  0
LTYPE
  2
CENTER
 70
     0
  3
____ _ ____ _ ____ _ ____ _ ____ _ ____ _ ____
 72
    65
 73
     4
 40
2.0
 49
1.25
 49
-0.25
 49
0.25
 49
-0.25
  0
LTYPE
  2
PHANTOM2
 70
     0
  3
___ _ _ ___ _ _ ___ _ _ ___ _ _
 72
    65
 73
     6
 40
1.25
 49
0.625
 49
-0.125
 49
0.125
 49
-0.125
 49
0.125
 49
-0.125
  0
ENDTAB
  0
TABLE
  2
LAYER
 70
     3
  0
LAYER
  2
0
 70
     0
 62
     7
  6
CONTINUOUS
  0
LAYER
  2
1
 70
     0
 62
     1
  6
CENTER
  0
LAYER
  2
3
 70
     0
 62
     3
  6
CONTINUOUS
  0
ENDTAB
  0
TABLE
  2
STYLE
 70
     2
  0
STYLE
  2
STANDARD
 70
     0
 40
0.0
 41
1.0
 50
0.0
 71
     0
 42
0.2
  3
TXT
  4
BIGFONT
  0
STYLE
  2
STANDARD1
 70
     0
 40
0.0
 41
1.0
 50
0.0
 71
     0
 42
3.0
  3
txt
  4

  0
ENDTAB
  0
TABLE
  2
VIEW
 70
     1
  0
VIEW
  2
ALL
 70
     0
 40
270.0
 10
220.99159663865549
 20
135.0
 41
0.0
 11
0.0
 21
0.0
 31
1.0
 12
0.0
 22
0.0
 32
0.0
 42
0.0
 43
0.0
 44
0.0
 50
0.0
 71
     0
  0
ENDTAB
  0
TABLE
  2
UCS
 70
     0
  0
ENDTAB
  0
TABLE
  2
APPID
 70
     5
  0
APPID
  2
ACAD
 70
     0
  0
APPID
  2
ACAD_MLEADERVER
 70
     0
  0
APPID
  2
ACAD_NAV_VCDISPLAY
 70
     0
  0
APPID
  2
ACAD_EXEMPT_FROM_CAD_STANDARDS
 70
     0
  0
APPID
  2
ACAD_DSTYLE_DIMRADIAL_EXTENSION
 70
     0
  0
ENDTAB
  0
TABLE
  2
DIMSTYLE
 70
     1
  0
DIMSTYLE
  2
STANDARD
 70
     0
  3

  4

  5

  6

  7

 40
1.0
 41
0.18
 42
0.0625
 43
0.38
 44
0.18
 45
0.0
 46
0.0
 47
0.0
 48
0.0
140
0.18
141
0.09
142
0.0
143
25.399999999999999
144
1.0
145
0.0
146
1.0
147
0.09
 71
     0
 72
     0
 73
     1
 74
     1
 75
     0
 76
     0
 77
     0
 78
     0
170
     0
171
     2
172
     0
173
     0
174
     0
175
     0
176
     0
177
     0
178
     0
  0
ENDTAB
  0
ENDSEC
  0
SECTION
  2
BLOCKS
  0
BLOCK
  8
0
  2
$MODEL_SPACE
 70
     0
 10
0.0
 20
0.0
 30
0.0
  3
$MODEL_SPACE
  1

  0
ENDBLK
  5
E3
  8
0
  0
BLOCK
 67
     1
  8
0
  2
$PAPER_SPACE
 70
     0
 10
0.0
 20
0.0
 30
0.0
  3
$PAPER_SPACE
  1

  0
ENDBLK
  5
E1
 67
     1
  8
0
  0
ENDSEC
  0
SECTION
  2
ENTITIES
  0
TEXT
  5
19C
  8
0
 62
     3
 10
0.0
 20
0.0
 30
0.0
 40
10.0
  1
BJ748-16150
  7
STANDARD1
  0
LINE
  5
3C3
  8
0
 10
100.29451333224139
 20
61.999999999999943
 30
0.0
 11
100.0
 21
61.5
 31
0.0
  0
LINE
  5
3C4
  8
0
 10
99.999999999999986
 20
38.499999999999943
 30
0.0
 11
100.3055208921006
 21
37.999999999999943
 31
0.0
  0
LINE
  5
3C7
  8
0
 10
263.42264973081029
 20
41.999999999999602
 30
0.0
 11
264.0
 21
42.999999999999659
 31
0.0
  0
LINE
  5
3C8
  8
0
 10
264.0
 20
56.999999999999602
 30
0.0
 11
263.42264973081029
 21
57.999999999999659
 31
0.0
  0
LINE
  5
3C9
  8
0
 10
119.9999999999999
 20
41.999999999999943
 30
0.0
 11
263.42264973081029
 21
41.999999999999602
 31
0.0
  0
LINE
  5
3CA
  8
0
 10
263.42264973081029
 20
57.999999999999659
 30
0.0
 11
120.0
 21
57.999999999999893
 31
0.0
  0
ARC
  5
3CD
  8
0
 10
264.80000000000001
 20
43.19999999999964
 30
0.0
 40
0.7999999999999972
 50
90.0
 51
180.0
  0
ARC
  5
3CE
  8
0
 10
264.80000000000013
 20
56.799999999999613
 30
0.0
 40
0.8000000000000113
 50
180.0
 51
270.0
  0
ARC
  5
3CF
  8
0
 10
258.0
 20
49.999999999999659
 30
0.0
 40
11.999999999999959
 50
330.00000000000011
 51
29.999999999999929
  0
LINE
  5
3D0
  8
0
 10
264.80000000000001
 20
43.999999999999652
 30
0.0
 11
268.39230484541332
 21
43.999999999999652
 31
0.0
  0
LINE
  5
3D1
  8
0
 10
268.39230484541332
 20
55.999999999999602
 30
0.0
 11
264.80000000000013
 21
55.999999999999652
 31
0.0
  0
LINE
  5
3D2
  8
0
 10
119.9999999999999
 20
37.999999999999893
 30
0.0
 11
120.0
 21
61.999999999999879
 31
0.0
  0
LINE
  5
3D3
  8
0
 10
101.3604719043192
 20
49.999999999999893
 30
0.0
 11
119.9999999999999
 21
49.999999999999893
 31
0.0
  0
ARC
  5
3D4
  8
0
 10
117.93697638349251
 20
55.999999999999829
 30
0.0
 40
17.628967659736901
 50
160.10186677741359
 51
199.8981332225863
  0
LINE
  5
3D6
  8
0
 10
119.9999999999999
 20
37.99999999999892
 30
0.0
 11
100.3055208921006
 21
37.999999999999943
 31
0.0
  0
LINE
  5
3D7
  8
0
 10
120.0
 20
61.999999999999943
 30
0.0
 11
100.29451333224139
 21
61.999999999999943
 31
0.0
  0
ARC
  5
3D8
  8
0
 10
118.23228626349599
 20
43.999999999999879
 30
0.0
 40
17.906929378609931
 50
160.423459445172
 51
199.576540554828
  0
LINE
  5
3D9
  8
0
 10
99.999999999999986
 20
38.499999999999943
 30
0.0
 11
100.0
 21
61.5
 31
0.0
  0
LINE
  5
3DD
  8
0
 10
263.42264973081029
 20
41.999999999999602
 30
0.0
 11
263.42264973081029
 21
57.999999999999723
 31
0.0
  0
LINE
  5
3DE
  8
0
 10
264.0
 20
56.999999999999659
 30
0.0
 11
264.0
 21
42.999999999999659
 31
0.0
  0
LINE
  5
3E0
  8
0
 10
125.0
 20
57.999999999999893
 30
0.0
 11
125.0
 21
41.999999999999879
 31
0.0
  0
LINE
  5
3E2
  8
0
 10
268.39230484541332
 20
43.999999999999602
 30
0.0
 11
268.39230484541332
 21
55.999999999999602
 31
0.0
  0
LINE
  5
3E5
  8
0
 10
264.80000000000001
 20
55.999999999999602
 30
0.0
 11
264.80000000000001
 21
43.999999999999652
 31
0.0
  0
LINE
  5
3E7
  8
0
 10
101.3604719043194
 20
125.8564064605511
 30
0.0
 11
100.0000000000001
 21
123.5
 31
0.0
  0
LINE
  5
3E8
  8
0
 10
100.0
 20
100.5
 30
0.0
 11
101.3604719043193
 21
98.143593539449014
 31
0.0
  0
LINE
  5
3EB
  8
0
 10
120.0
 20
104.0
 30
0.0
 11
263.42264973081052
 21
103.9999999999995
 31
0.0
  0
LINE
  5
3EC
  8
0
 10
263.42264973081052
 20
119.9999999999995
 30
0.0
 11
120.0000000000001
 21
119.9999999999999
 31
0.0
  0
LINE
  5
3ED
  8
0
 10
263.42264973081052
 20
103.9999999999995
 30
0.0
 11
264.00000000000011
 21
104.9999999999996
 31
0.0
  0
LINE
  5
3EE
  8
0
 10
264.00000000000011
 20
118.9999999999995
 30
0.0
 11
263.42264973081052
 21
119.9999999999995
 31
0.0
  0
ARC
  5
3F1
  8
0
 10
264.80000000000013
 20
105.19999999999951
 30
0.0
 40
0.8000000000000113
 50
89.999999999998366
 51
180.0
  0
ARC
  5
3F2
  8
0
 10
264.80000000000013
 20
118.7999999999995
 30
0.0
 40
0.8000000000000113
 50
180.0
 51
270.0
  0
LINE
  5
3F3
  8
0
 10
264.80000000000013
 20
105.9999999999995
 30
0.0
 11
268.39230484541332
 21
105.9999999999995
 31
0.0
  0
LINE
  5
3F4
  8
0
 10
268.39230484541338
 20
117.9999999999995
 30
0.0
 11
264.80000000000013
 21
117.9999999999995
 31
0.0
  0
ARC
  5
3F5
  8
0
 10
258.00000000000011
 20
111.9999999999995
 30
0.0
 40
12.000000000000011
 50
330.00000000000011
 51
29.999999999999929
  0
LINE
  5
3F7
  8
0
 10
101.3604719043194
 20
105.0717967697244
 30
0.0
 11
120.0
 21
105.0717967697244
 31
0.0
  0
ARC
  5
3F8
  8
0
 10
123.6084774171474
 20
111.9999999999999
 30
0.0
 40
23.301797125947729
 50
162.70300222123149
 51
197.29699777876851
  0
LINE
  5
3F9
  8
0
 10
101.3604719043194
 20
118.9282032302754
 30
0.0
 11
120.0000000000001
 21
118.9282032302754
 31
0.0
  0
ARC
  5
3FA
  8
0
 10
106.75942250143591
 20
122.39230484541331
 30
0.0
 40
6.4147227180997604
 50
147.3147550106512
 51
212.68524498935261
  0
ARC
  5
3FB
  8
0
 10
106.5939743161817
 20
101.60769515458659
 30
0.0
 40
6.2761092641037273
 50
146.49907175116451
 51
213.50092824883549
  0
LINE
  5
3FC
  8
0
 10
100.0
 20
100.5
 30
0.0
 11
100.0000000000001
 21
123.5
 31
0.0
  0
LINE
  5
3FD
  8
0
 10
101.3604719043194
 20
125.856406460551
 30
0.0
 11
120.0000000000001
 21
125.856406460551
 31
0.0
  0
LINE
  5
3FF
  8
0
 10
101.3604719043193
 20
98.143593539449014
 30
0.0
 11
120.0
 21
98.143593539448943
 31
0.0
  0
LINE
  5
400
  8
0
 10
120.0
 20
98.143593539448943
 30
0.0
 11
120.0000000000002
 21
125.856406460551
 31
0.0
  0
LINE
  5
401
  8
0
 10
125.0000000000001
 20
120.0
 30
0.0
 11
125.0
 21
103.9999999999999
 31
0.0
  0
LINE
  5
403
  8
0
 10
263.42264973081052
 20
103.9999999999995
 30
0.0
 11
263.42264973081052
 21
119.9999999999995
 31
0.0
  0
LINE
  5
404
  8
0
 10
264.00000000000011
 20
118.9999999999995
 30
0.0
 11
264.00000000000011
 21
104.9999999999996
 31
0.0
  0
LINE
  5
405
  8
0
 10
268.39230484541332
 20
105.9999999999995
 30
0.0
 11
268.39230484541338
 21
117.9999999999995
 31
0.0
  0
LINE
  5
407
  8
0
 10
264.80000000000013
 20
117.9999999999995
 30
0.0
 11
264.80000000000013
 21
105.9999999999995
 31
0.0
  0
CIRCLE
  5
408
  8
0
 10
50.0
 20
50.0
 30
0.0
 40
11.500000000000011
  0
LINE
  5
409
  8
0
 10
56.928203230275471
 20
37.999999999999943
 30
0.0
 11
43.071796769724472
 21
38.0
 31
0.0
  0
LINE
  5
40A
  8
0
 10
43.071796769724472
 20
38.0
 30
0.0
 11
36.143593539448972
 21
50.0
 31
0.0
  0
LINE
  5
40B
  8
0
 10
36.143593539448972
 20
50.0
 30
0.0
 11
43.0717967697245
 21
62.0
 31
0.0
  0
LINE
  5
40C
  8
0
 10
43.0717967697245
 20
62.0
 30
0.0
 11
56.928203230275528
 21
62.0
 31
0.0
  0
LINE
  5
40D
  8
0
 10
56.928203230275528
 20
62.0
 30
0.0
 11
63.856406460551028
 21
49.999999999999943
 31
0.0
  0
LINE
  5
40E
  8
0
 10
63.856406460551028
 20
49.999999999999943
 30
0.0
 11
56.928203230275471
 21
37.999999999999943
 31
0.0
  0
LINE
  5
4E7
  8
3
 10
124.9999999999999
 20
43.082499999999861
 30
0.0
 11
123.1250550008067
 21
41.999999999999879
 31
0.0
  0
LINE
  5
4E8
  8
3
 10
124.9999999999999
 20
56.917499999999897
 30
0.0
 11
123.1250550008067
 21
57.999999999999893
 31
0.0
  0
LINE
  5
4E9
  8
1
 10
93.000000000245507
 20
49.999999999999893
 30
0.0
 11
276.99999999999989
 21
49.999999999999893
 31
0.0
  0
LINE
  5
4EA
  8
3
 10
125.0000000000004
 20
43.082500000000209
 30
0.0
 11
263.99999999999989
 21
43.082500000000209
 31
0.0
  0
LINE
  5
4EB
  8
3
 10
124.9999999999999
 20
56.917499999999897
 30
0.0
 11
263.99999999999989
 21
56.917499999999897
 31
0.0
  0
LINE
  5
4ED
  8
3
 10
125.0000000000001
 20
105.0824999999999
 30
0.0
 11
123.1250550008068
 21
103.9999999999999
 31
0.0
  0
LINE
  5
4EE
  8
3
 10
125.0000000000001
 20
118.9175
 30
0.0
 11
123.1250550008068
 21
120.0
 31
0.0
  0
LINE
  5
4EF
  8
1
 10
93.000000000245663
 20
111.9999999999999
 30
0.0
 11
277.0
 21
111.9999999999999
 31
0.0
  0
LINE
  5
4F0
  8
3
 10
125.0000000000006
 20
105.08250000000029
 30
0.0
 11
264.00000000000011
 21
105.08250000000029
 31
0.0
  0
LINE
  5
4F1
  8
3
 10
125.0000000000001
 20
118.9175
 30
0.0
 11
264.00000000000011
 21
118.9175
 31
0.0
  0
LINE
  5
502
  8
1
 10
50.0
 20
69.0
 30
0.0
 11
50.0
 21
30.99999999999994
 31
0.0
  0
LINE
  5
503
  8
1
 10
29.143593539448968
 20
50.0
 30
0.0
 11
70.856406460551028
 21
50.0
 31
0.0
  0
ENDSEC
  0
EOF
