  0
SECTION
  2
HEADER
  9
$ACADVER
  1
AC1009
  9
$INSBASE
 10
0.0
 20
0.0
 30
0.0
  9
$EXTMIN
 10
0.0
 20
-2.960436562073669
 30
0.0
  9
$EXTMAX
 10
322.78460967390151
 20
176.78460965923699
 30
0.0
  9
$LIMMIN
 10
0.0
 20
0.0
  9
$LIMMAX
 10
375.0
 20
270.0
  9
$ORTHOMODE
 70
     1
  9
$REGENMODE
 70
     1
  9
$FILLMODE
 70
     1
  9
$QTEXTMODE
 70
     0
  9
$MIRRTEXT
 70
     0
  9
$DRAGMODE
 70
     2
  9
$LTSCALE
 40
10.0
  9
$OSMODE
 70
    37
  9
$ATTMODE
 70
     1
  9
$TEXTSIZE
 40
3.200000000000049
  9
$TRACEWID
 40
0.05
  9
$TEXTSTYLE
  7
STANDARD
  9
$CLAYER
  8
0
  9
$CELTYPE
  6
BYLAYER
  9
$CECOLOR
 62
   256
  9
$DIMSCALE
 40
1.0
  9
$DIMASZ
 40
3.0
  9
$DIMEXO
 40
2.0
  9
$DIMDLI
 40
10.0
  9
$DIMRND
 40
0.0
  9
$DIMDLE
 40
0.0
  9
$DIMEXE
 40
2.0
  9
$DIMTP
 40
0.0
  9
$DIMTM
 40
0.0
  9
$DIMTXT
 40
3.2000000000000002
  9
$DIMCEN
 40
0.0
  9
$DIMTSZ
 40
0.0
  9
$DIMTOL
 70
     0
  9
$DIMLIM
 70
     0
  9
$DIMTIH
 70
     0
  9
$DIMTOH
 70
     0
  9
$DIMSE1
 70
     0
  9
$DIMSE2
 70
     0
  9
$DIMTAD
 70
     1
  9
$DIMZIN
 70
     0
  9
$DIMBLK
  1

  9
$DIMASO
 70
     0
  9
$DIMSHO
 70
     0
  9
$DIMPOST
  1

  9
$DIMAPOST
  1

  9
$DIMALT
 70
     0
  9
$DIMALTD
 70
     2
  9
$DIMALTF
 40
25.399999999999999
  9
$DIMLFAC
 40
1.0
  9
$DIMTOFL
 70
     1
  9
$DIMTVP
 40
1.6000000000000001
  9
$DIMTIX
 70
     1
  9
$DIMSOXD
 70
     0
  9
$DIMSAH
 70
     0
  9
$DIMBLK1
  1

  9
$DIMBLK2
  1

  9
$DIMSTYLE
  2
STANDARD
  9
$DIMCLRD
 70
     0
  9
$DIMCLRE
 70
     0
  9
$DIMCLRT
 70
     0
  9
$DIMTFAC
 40
1.0
  9
$DIMGAP
 40
0.09
  9
$LUNITS
 70
     2
  9
$LUPREC
 70
     4
  9
$SKETCHINC
 40
0.1
  9
$FILLETRAD
 40
0.0
  9
$AUNITS
 70
     0
  9
$AUPREC
 70
     4
  9
$MENU
  1
E:\r13\win\SUPPORT\ACAD
  9
$ELEVATION
 40
0.0
  9
$PELEVATION
 40
0.0
  9
$THICKNESS
 40
0.0
  9
$LIMCHECK
 70
     0
  9
$BLIPMODE
 70
     0
  9
$CHAMFERA
 40
0.0
  9
$CHAMFERB
 40
0.0
  9
$SKPOLY
 70
     0
  9
$TDCREATE
 40
2449839.7728125001
  9
$TDUPDATE
 40
2456969.4106117482
  9
$TDINDWG
 40
0.0811533912
  9
$TDUSRTIMER
 40
0.0811533912
  9
$USRTIMER
 70
     1
  9
$ANGBASE
 50
0.0
  9
$ANGDIR
 70
     0
  9
$PDMODE
 70
    35
  9
$PDSIZE
 40
0.0
  9
$PLINEWID
 40
0.0
  9
$COORDS
 70
     1
  9
$SPLFRAME
 70
     0
  9
$SPLINETYPE
 70
     6
  9
$SPLINESEGS
 70
     8
  9
$ATTDIA
 70
     0
  9
$ATTREQ
 70
     1
  9
$HANDLING
 70
     1
  9
$HANDSEED
  5
5D4
  9
$SURFTAB1
 70
     6
  9
$SURFTAB2
 70
     6
  9
$SURFTYPE
 70
     6
  9
$SURFU
 70
     6
  9
$SURFV
 70
     6
  9
$UCSNAME
  2

  9
$UCSORG
 10
0.0
 20
0.0
 30
0.0
  9
$UCSXDIR
 10
1.0
 20
0.0
 30
0.0
  9
$UCSYDIR
 10
0.0
 20
1.0
 30
0.0
  9
$PUCSNAME
  2

  9
$PUCSORG
 10
0.0
 20
0.0
 30
0.0
  9
$PUCSXDIR
 10
1.0
 20
0.0
 30
0.0
  9
$PUCSYDIR
 10
0.0
 20
1.0
 30
0.0
  9
$USERI1
 70
     0
  9
$USERI2
 70
     1
  9
$USERI3
 70
     0
  9
$USERI4
 70
     0
  9
$USERI5
 70
     0
  9
$USERR1
 40
0.0
  9
$USERR2
 40
0.0
  9
$USERR3
 40
0.0
  9
$USERR4
 40
0.0
  9
$USERR5
 40
0.0
  9
$WORLDVIEW
 70
     1
  9
$SHADEDGE
 70
     3
  9
$SHADEDIF
 70
    70
  9
$TILEMODE
 70
     1
  9
$MAXACTVP
 70
    16
  9
$PLIMCHECK
 70
     0
  9
$PEXTMIN
 10
1.0000000000000000E+020
 20
1.0000000000000000E+020
 30
1.0000000000000000E+020
  9
$PEXTMAX
 10
-1.0000000000000000E+020
 20
-1.0000000000000000E+020
 30
-1.0000000000000000E+020
  9
$PLIMMIN
 10
0.0
 20
0.0
  9
$PLIMMAX
 10
12.0
 20
9.0
  9
$UNITMODE
 70
     0
  9
$VISRETAIN
 70
     0
  9
$PLINEGEN
 70
     0
  9
$PSLTSCALE
 70
     0
  0
ENDSEC
  0
SECTION
  2
TABLES
  0
TABLE
  2
VPORT
 70
     1
  0
VPORT
  2
*ACTIVE
 70
     0
 10
0.0
 20
0.0
 11
1.0
 21
1.0
 12
235.64523316739221
 22
135.0
 13
0.0
 23
0.0
 14
10.0
 24
10.0
 15
10.0
 25
10.0
 16
0.0
 26
0.0
 36
1.0
 17
0.0
 27
0.0
 37
0.0
 40
270.05212403129281
 41
1.7454798331015291
 42
50.0
 43
0.0
 44
0.0
 50
0.0
 51
0.0
 71
     0
 72
   500
 73
     1
 74
     0
 75
     0
 76
     0
 77
     0
 78
     2
  0
ENDTAB
  0
TABLE
  2
LTYPE
 70
     3
  0
LTYPE
  2
CONTINUOUS
 70
     0
  3
Solid Line
 72
    65
 73
     0
 40
0.0
  0
LTYPE
  2
CENTER
 70
     0
  3
____ _ ____ _ ____ _ ____ _ ____ _ ____ _ ____
 72
    65
 73
     4
 40
2.0
 49
1.25
 49
-0.25
 49
0.25
 49
-0.25
  0
LTYPE
  2
PHANTOM2
 70
     0
  3
___ _ _ ___ _ _ ___ _ _ ___ _ _
 72
    65
 73
     6
 40
1.25
 49
0.625
 49
-0.125
 49
0.125
 49
-0.125
 49
0.125
 49
-0.125
  0
ENDTAB
  0
TABLE
  2
LAYER
 70
     3
  0
LAYER
  2
0
 70
     0
 62
     7
  6
CONTINUOUS
  0
LAYER
  2
1
 70
     0
 62
     1
  6
CENTER
  0
LAYER
  2
3
 70
     0
 62
     3
  6
CONTINUOUS
  0
ENDTAB
  0
TABLE
  2
STYLE
 70
     2
  0
STYLE
  2
STANDARD
 70
     0
 40
0.0
 41
1.0
 50
0.0
 71
     0
 42
3.200000000000049
  3
TXT
  4
BIGFONT
  0
STYLE
  2
STANDARD1
 70
     0
 40
0.0
 41
1.0
 50
0.0
 71
     0
 42
3.0
  3
txt
  4

  0
ENDTAB
  0
TABLE
  2
VIEW
 70
     1
  0
VIEW
  2
ALL
 70
     0
 40
270.0
 10
220.99159663865549
 20
135.0
 41
0.0
 11
0.0
 21
0.0
 31
1.0
 12
0.0
 22
0.0
 32
0.0
 42
0.0
 43
0.0
 44
0.0
 50
0.0
 71
     0
  0
ENDTAB
  0
TABLE
  2
UCS
 70
     0
  0
ENDTAB
  0
TABLE
  2
APPID
 70
     4
  0
APPID
  2
ACAD
 70
     0
  0
APPID
  2
ACAD_MLEADERVER
 70
     0
  0
APPID
  2
ACAD_EXEMPT_FROM_CAD_STANDARDS
 70
     0
  0
APPID
  2
ACAD_NAV_VCDISPLAY
 70
     0
  0
ENDTAB
  0
TABLE
  2
DIMSTYLE
 70
     1
  0
DIMSTYLE
  2
STANDARD
 70
     0
  3

  4

  5

  6

  7

 40
1.0
 41
0.18
 42
0.0625
 43
0.38
 44
0.18
 45
0.0
 46
0.0
 47
0.0
 48
0.0
140
0.18
141
0.09
142
0.0
143
25.399999999999999
144
1.0
145
0.0
146
1.0
147
0.09
 71
     0
 72
     0
 73
     1
 74
     1
 75
     0
 76
     0
 77
     0
 78
     0
170
     0
171
     2
172
     0
173
     0
174
     0
175
     0
176
     0
177
     0
178
     0
  0
ENDTAB
  0
ENDSEC
  0
SECTION
  2
BLOCKS
  0
BLOCK
  8
0
  2
$MODEL_SPACE
 70
     0
 10
0.0
 20
0.0
 30
0.0
  3
$MODEL_SPACE
  1

  0
ENDBLK
  5
DB
  8
0
  0
BLOCK
 67
     1
  8
0
  2
$PAPER_SPACE
 70
     0
 10
0.0
 20
0.0
 30
0.0
  3
$PAPER_SPACE
  1

  0
ENDBLK
  5
D9
 67
     1
  8
0
  0
ENDSEC
  0
SECTION
  2
ENTITIES
  0
TEXT
  5
194
  8
0
 62
     3
 10
0.0
 20
0.0
 30
0.0
 40
10.0
  1
BJ748-24150
  7
STANDARD1
  0
LINE
  5
3F1
  8
0
 10
306.71651167590062
 20
167.99999998533789
 30
0.0
 11
166.58460967390141
 21
167.99999998533789
 31
0.0
  0
LINE
  5
3F2
  8
3
 10
307.65412851306468
 20
166.3759999853379
 30
0.0
 11
175.7846096739014
 21
166.3759999853379
 31
0.0
  0
LINE
  5
3F3
  8
3
 10
307.65412851306468
 20
145.6239999853378
 30
0.0
 11
175.7846096739014
 21
145.6239999853378
 31
0.0
  0
LINE
  5
3F4
  8
0
 10
307.78460967390151
 20
166.1499999853379
 30
0.0
 11
306.71651167590079
 21
167.99999998533801
 31
0.0
  0
LINE
  5
3F5
  8
0
 10
307.78460967390151
 20
145.849999985338
 30
0.0
 11
306.71651167590079
 21
143.99999998533801
 31
0.0
  0
LINE
  5
3F6
  8
0
 10
306.71651167590079
 20
143.99999998533801
 30
0.0
 11
306.71651167590062
 21
167.99999998533801
 31
0.0
  0
ARC
  5
3F7
  8
0
 10
295.7846096739014
 20
155.99999998533781
 30
0.0
 40
20.0
 50
330.82360414498419
 51
29.17639585501578
  0
LINE
  5
3F8
  8
0
 10
175.7846096739014
 20
143.99999998533801
 30
0.0
 11
175.7846096739014
 21
167.99999998533789
 31
0.0
  0
LINE
  5
3F9
  8
3
 10
175.7846096739014
 20
166.3759999853379
 30
0.0
 11
172.9717591624098
 21
167.99999998533789
 31
0.0
  0
LINE
  5
3FA
  8
3
 10
175.7846096739014
 20
145.6239999853378
 30
0.0
 11
172.97175916240951
 21
143.99999998533801
 31
0.0
  0
ARC
  5
3FB
  8
0
 10
166.58460967390141
 20
168.79999998533791
 30
0.0
 40
0.8
 50
180.0
 51
270.0
  0
ARC
  5
3FC
  8
0
 10
166.58460967390141
 20
143.19999998533791
 30
0.0
 40
0.8
 50
90.0
 51
180.0
  0
LINE
  5
3FD
  8
0
 10
306.71651167590062
 20
143.99999998533789
 30
0.0
 11
166.58460967390141
 21
143.99999998533789
 31
0.0
  0
LINE
  5
405
  8
0
 10
142.9696550879047
 20
176.78460965923699
 30
0.0
 11
165.7846096739014
 21
176.78460965923699
 31
0.0
  0
LINE
  5
406
  8
0
 10
140.7846096739012
 20
172.99999998533769
 30
0.0
 11
142.9696550879047
 21
176.78460965923699
 31
0.0
  0
ARC
  5
407
  8
0
 10
150.56292182148599
 20
171.58845724076201
 30
0.0
 40
9.2009618868538041
 50
154.38424746792759
 51
214.38424746794041
  0
ARC
  5
408
  8
0
 10
150.56292182148599
 20
140.41154272991361
 30
0.0
 40
9.2009618868538041
 50
145.6157525320595
 51
205.61575253207229
  0
ARC
  5
409
  8
0
 10
175.754264752149
 20
155.9999999853398
 30
0.0
 40
34.392304817516766
 50
162.41204622606401
 51
197.58795377393591
  0
LINE
  5
40A
  8
0
 10
142.9696550879047
 20
166.39230482229101
 30
0.0
 11
165.7846096739014
 21
166.39230482229109
 31
0.0
  0
LINE
  5
40B
  8
0
 10
142.9696550879047
 20
145.60769514838881
 30
0.0
 11
165.7846096739012
 21
145.60769514838881
 31
0.0
  0
LINE
  5
40C
  8
0
 10
140.7846096739012
 20
138.99999998533781
 30
0.0
 11
142.9696550879047
 21
135.2153903114386
 31
0.0
  0
LINE
  5
40D
  8
0
 10
142.9696550879047
 20
135.2153903114386
 30
0.0
 11
165.7846096739012
 21
135.2153903114386
 31
0.0
  0
LINE
  5
40E
  8
0
 10
140.7846096739012
 20
138.99999998533781
 30
0.0
 11
140.7846096739012
 21
172.99999998533769
 31
0.0
  0
LINE
  5
40F
  8
0
 10
165.7846096739012
 20
135.2153903114386
 30
0.0
 11
165.7846096739014
 21
176.78460965923699
 31
0.0
  0
LINE
  5
410
  8
1
 10
322.78460967390151
 20
155.99999998533781
 30
0.0
 11
133.78460967390129
 21
155.99999998533781
 31
0.0
  0
LINE
  5
450
  8
0
 10
308.477429996929
 20
165.74999998533801
 30
0.0
 11
313.24706940900148
 21
165.74999998533801
 31
0.0
  0
LINE
  5
451
  8
0
 10
308.47742999692917
 20
146.24999998533801
 30
0.0
 11
313.24706940900171
 21
146.24999998533801
 31
0.0
  0
ARC
  5
452
  8
0
 10
308.477429996929
 20
166.54999998533799
 30
0.0
 40
0.8
 50
210.00000000000051
 51
270.0
  0
ARC
  5
453
  8
0
 10
308.47742999692917
 20
145.44999998533791
 30
0.0
 40
0.8
 50
90.0
 51
149.9999999999992
  0
LINE
  5
454
  8
0
 10
313.24706940900171
 20
146.24999998533801
 30
0.0
 11
313.24706940900148
 21
165.74999998533801
 31
0.0
  0
LINE
  5
473
  8
0
 10
308.477429996929
 20
146.24999998533801
 30
0.0
 11
308.477429996929
 21
165.74999998533801
 31
0.0
  0
LINE
  5
474
  8
0
 10
307.78460967390151
 20
145.84999998533769
 30
0.0
 11
307.78460967390151
 21
166.1499999853381
 31
0.0
  0
LINE
  5
479
  8
1
 10
95.78460966772036
 20
67.99999998535921
 30
0.0
 11
45.784609697027911
 21
67.999999985333204
 31
0.0
  0
LINE
  5
47A
  8
0
 10
306.71651167590062
 20
79.999999999991573
 30
0.0
 11
166.58460967390141
 21
79.999999999991573
 31
0.0
  0
LINE
  5
47B
  8
3
 10
307.65412851306468
 20
78.375999999991663
 30
0.0
 11
175.7846096739014
 21
78.375999999991663
 31
0.0
  0
LINE
  5
47C
  8
3
 10
307.65412851306468
 20
57.623999999991611
 30
0.0
 11
175.7846096739014
 21
57.623999999991611
 31
0.0
  0
LINE
  5
47D
  8
0
 10
307.78460967390151
 20
78.149999999991678
 30
0.0
 11
306.71651167590079
 21
79.999999999991701
 31
0.0
  0
LINE
  5
47E
  8
0
 10
307.78460967390151
 20
57.849999999991716
 30
0.0
 11
306.71651167590079
 21
55.999999999991701
 31
0.0
  0
LINE
  5
47F
  8
0
 10
306.71651167590079
 20
55.999999999991701
 30
0.0
 11
306.71651167590062
 21
79.999999999991701
 31
0.0
  0
ARC
  5
480
  8
0
 10
295.7846096739014
 20
67.999999999991573
 30
0.0
 40
20.0
 50
330.82360414498419
 51
29.17639585501578
  0
LINE
  5
481
  8
0
 10
175.7846096739014
 20
55.999999999991701
 30
0.0
 11
175.7846096739014
 21
79.999999999991573
 31
0.0
  0
LINE
  5
482
  8
3
 10
175.7846096739014
 20
78.375999999991663
 30
0.0
 11
172.9717591624098
 21
79.999999999991573
 31
0.0
  0
LINE
  5
483
  8
3
 10
175.7846096739014
 20
57.623999999991611
 30
0.0
 11
172.97175916240951
 21
55.999999999991701
 31
0.0
  0
ARC
  5
484
  8
0
 10
166.58460967390141
 20
80.799999999991655
 30
0.0
 40
0.8
 50
180.0
 51
270.0
  0
ARC
  5
485
  8
0
 10
166.58460967390141
 20
55.199999999991618
 30
0.0
 40
0.8
 50
90.0
 51
180.0
  0
LINE
  5
486
  8
0
 10
306.71651167590062
 20
55.99999999999158
 30
0.0
 11
166.58460967390141
 21
55.99999999999158
 31
0.0
  0
CIRCLE
  5
487
  8
0
 10
70.784609682373571
 20
67.999999985349064
 30
0.0
 40
17.0
  0
LINE
  5
488
  8
0
 10
81.176914519333863
 20
50.0
 30
0.0
 11
60.392304828508721
 21
50.0
 31
0.0
  0
LINE
  5
489
  8
0
 10
60.39230484541622
 20
50.000000000014538
 30
0.0
 11
50.0
 21
68.0
 31
0.0
  0
LINE
  5
48A
  8
0
 10
50.000000008472853
 20
67.999999985346221
 30
0.0
 11
60.392304853881797
 21
85.999999985346221
 31
0.0
  0
LINE
  5
48B
  8
0
 10
60.392304845427127
 20
85.999999970692457
 30
0.0
 11
81.176914536252298
 21
85.999999970692457
 31
0.0
  0
LINE
  5
48C
  8
0
 10
81.176914519332058
 20
85.999999970692457
 30
0.0
 11
91.569219364748278
 21
67.999999970692443
 31
0.0
  0
LINE
  5
48D
  8
0
 10
91.569219356275426
 20
67.999999985346221
 30
0.0
 11
81.176914510866467
 21
49.999999985346207
 31
0.0
  0
LINE
  5
48F
  8
0
 10
140.7846096739012
 20
84.999999999991473
 30
0.0
 11
141.36195993463059
 21
85.999999985337794
 31
0.0
  0
ARC
  5
492
  8
0
 10
167.3571504419362
 20
76.999999992664414
 30
0.0
 40
25.99519050730397
 50
159.74384199965101
 51
200.25615800034771
  0
LINE
  5
494
  8
0
 10
142.9696550879047
 20
67.999999999991573
 30
0.0
 11
165.7846096739012
 21
67.999999999991573
 31
0.0
  0
LINE
  5
495
  8
0
 10
140.7846096739012
 20
50.99999999999158
 30
0.0
 11
141.36195993463059
 21
50.000000014645359
 31
0.0
  0
LINE
  5
497
  8
0
 10
140.7846096739012
 20
50.99999999999158
 30
0.0
 11
140.7846096739012
 21
84.999999999991473
 31
0.0
  0
LINE
  5
498
  8
0
 10
165.7846096739012
 20
50.000000014645359
 30
0.0
 11
165.7846096739014
 21
85.999999985337794
 31
0.0
  0
LINE
  5
499
  8
1
 10
322.78460967390151
 20
67.999999999991573
 30
0.0
 11
133.78460967390129
 21
67.999999999991573
 31
0.0
  0
LINE
  5
49A
  8
1
 10
70.784609682373571
 20
92.999999970692443
 30
0.0
 11
70.784609682373613
 21
42.999999999999993
 31
0.0
  0
LINE
  5
49B
  8
0
 10
308.477429996929
 20
77.749999999991701
 30
0.0
 11
313.24706940900148
 21
77.749999999991701
 31
0.0
  0
LINE
  5
49C
  8
0
 10
308.47742999692917
 20
58.249999999991687
 30
0.0
 11
313.24706940900171
 21
58.249999999991687
 31
0.0
  0
ARC
  5
49D
  8
0
 10
308.477429996929
 20
78.549999999991712
 30
0.0
 40
0.8
 50
210.00000000000051
 51
270.0
  0
ARC
  5
49E
  8
0
 10
308.47742999692917
 20
57.449999999991682
 30
0.0
 40
0.8
 50
90.0
 51
149.99999999999949
  0
LINE
  5
49F
  8
0
 10
313.24706940900171
 20
58.249999999991687
 30
0.0
 11
313.24706940900148
 21
77.749999999991701
 31
0.0
  0
LINE
  5
4A0
  8
0
 10
308.477429996929
 20
58.249999999991687
 30
0.0
 11
308.477429996929
 21
77.749999999991701
 31
0.0
  0
LINE
  5
4A1
  8
0
 10
307.78460967390151
 20
57.849999999991397
 30
0.0
 11
307.78460967390151
 21
78.149999999991792
 31
0.0
  0
LINE
  5
4A4
  8
0
 10
141.36195993463059
 20
85.999999985337794
 30
0.0
 11
165.7846096739014
 21
85.999999985337794
 31
0.0
  0
LINE
  5
4A5
  8
0
 10
165.7846096739012
 20
50.000000014645359
 30
0.0
 11
141.36195993463059
 21
50.000000014645359
 31
0.0
  0
ARC
  5
4AF
  8
0
 10
167.3571504419362
 20
59.000000007318739
 30
0.0
 40
25.99519050730397
 50
159.7438419996526
 51
200.2561580003489
  0
ENDSEC
  0
EOF
