  0
SECTION
  2
HEADER
  9
$ACADVER
  1
AC1009
  9
$INSBASE
 10
0.0
 20
0.0
 30
0.0
  9
$EXTMIN
 10
0.0
 20
-2.960436562073669
 30
0.0
  9
$EXTMAX
 10
437.14402408811191
 20
119.97747315823391
 30
0.0
  9
$LIMMIN
 10
0.0
 20
0.0
  9
$LIMMAX
 10
375.0
 20
270.0
  9
$ORTHOMODE
 70
     1
  9
$REGENMODE
 70
     1
  9
$FILLMODE
 70
     1
  9
$QTEXTMODE
 70
     0
  9
$MIRRTEXT
 70
     0
  9
$DRAGMODE
 70
     2
  9
$LTSCALE
 40
10.0
  9
$OSMODE
 70
  3071
  9
$ATTMODE
 70
     1
  9
$TEXTSIZE
 40
3.200000000000049
  9
$TRACEWID
 40
0.05
  9
$TEXTSTYLE
  7
STANDARD
  9
$CLAYER
  8
0
  9
$CELTYPE
  6
BYLAYER
  9
$CECOLOR
 62
   256
  9
$DIMSCALE
 40
1.0
  9
$DIMASZ
 40
3.0
  9
$DIMEXO
 40
2.0
  9
$DIMDLI
 40
10.0
  9
$DIMRND
 40
0.0
  9
$DIMDLE
 40
0.0
  9
$DIMEXE
 40
2.0
  9
$DIMTP
 40
0.0
  9
$DIMTM
 40
0.0
  9
$DIMTXT
 40
3.2000000000000002
  9
$DIMCEN
 40
0.0
  9
$DIMTSZ
 40
0.0
  9
$DIMTOL
 70
     0
  9
$DIMLIM
 70
     0
  9
$DIMTIH
 70
     0
  9
$DIMTOH
 70
     0
  9
$DIMSE1
 70
     0
  9
$DIMSE2
 70
     0
  9
$DIMTAD
 70
     1
  9
$DIMZIN
 70
     0
  9
$DIMBLK
  1

  9
$DIMASO
 70
     0
  9
$DIMSHO
 70
     0
  9
$DIMPOST
  1

  9
$DIMAPOST
  1

  9
$DIMALT
 70
     0
  9
$DIMALTD
 70
     2
  9
$DIMALTF
 40
25.399999999999999
  9
$DIMLFAC
 40
1.0
  9
$DIMTOFL
 70
     1
  9
$DIMTVP
 40
1.6000000000000001
  9
$DIMTIX
 70
     1
  9
$DIMSOXD
 70
     0
  9
$DIMSAH
 70
     0
  9
$DIMBLK1
  1

  9
$DIMBLK2
  1

  9
$DIMSTYLE
  2
STANDARD
  9
$DIMCLRD
 70
     0
  9
$DIMCLRE
 70
     0
  9
$DIMCLRT
 70
     0
  9
$DIMTFAC
 40
1.0
  9
$DIMGAP
 40
0.09
  9
$LUNITS
 70
     2
  9
$LUPREC
 70
     4
  9
$SKETCHINC
 40
0.1
  9
$FILLETRAD
 40
0.0
  9
$AUNITS
 70
     0
  9
$AUPREC
 70
     4
  9
$MENU
  1
E:\r13\win\SUPPORT\ACAD
  9
$ELEVATION
 40
0.0
  9
$PELEVATION
 40
0.0
  9
$THICKNESS
 40
0.0
  9
$LIMCHECK
 70
     0
  9
$BLIPMODE
 70
     0
  9
$CHAMFERA
 40
0.0
  9
$CHAMFERB
 40
0.0
  9
$SKPOLY
 70
     0
  9
$TDCREATE
 40
2449839.7726967591
  9
$TDUPDATE
 40
2456598.3674022802
  9
$TDINDWG
 40
0.0709130787
  9
$TDUSRTIMER
 40
0.0709130787
  9
$USRTIMER
 70
     1
  9
$ANGBASE
 50
0.0
  9
$ANGDIR
 70
     0
  9
$PDMODE
 70
    35
  9
$PDSIZE
 40
0.0
  9
$PLINEWID
 40
0.0
  9
$COORDS
 70
     1
  9
$SPLFRAME
 70
     0
  9
$SPLINETYPE
 70
     6
  9
$SPLINESEGS
 70
     8
  9
$ATTDIA
 70
     0
  9
$ATTREQ
 70
     1
  9
$HANDLING
 70
     1
  9
$HANDSEED
  5
702
  9
$SURFTAB1
 70
     6
  9
$SURFTAB2
 70
     6
  9
$SURFTYPE
 70
     6
  9
$SURFU
 70
     6
  9
$SURFV
 70
     6
  9
$UCSNAME
  2

  9
$UCSORG
 10
0.0
 20
0.0
 30
0.0
  9
$UCSXDIR
 10
1.0
 20
0.0
 30
0.0
  9
$UCSYDIR
 10
0.0
 20
1.0
 30
0.0
  9
$PUCSNAME
  2

  9
$PUCSORG
 10
0.0
 20
0.0
 30
0.0
  9
$PUCSXDIR
 10
1.0
 20
0.0
 30
0.0
  9
$PUCSYDIR
 10
0.0
 20
1.0
 30
0.0
  9
$USERI1
 70
     0
  9
$USERI2
 70
     1
  9
$USERI3
 70
     0
  9
$USERI4
 70
     0
  9
$USERI5
 70
     0
  9
$USERR1
 40
0.0
  9
$USERR2
 40
0.0
  9
$USERR3
 40
0.0
  9
$USERR4
 40
0.0
  9
$USERR5
 40
0.0
  9
$WORLDVIEW
 70
     1
  9
$SHADEDGE
 70
     3
  9
$SHADEDIF
 70
    70
  9
$TILEMODE
 70
     1
  9
$MAXACTVP
 70
    16
  9
$PLIMCHECK
 70
     0
  9
$PEXTMIN
 10
1.0000000000000000E+020
 20
1.0000000000000000E+020
 30
1.0000000000000000E+020
  9
$PEXTMAX
 10
-1.0000000000000000E+020
 20
-1.0000000000000000E+020
 30
-1.0000000000000000E+020
  9
$PLIMMIN
 10
0.0
 20
0.0
  9
$PLIMMAX
 10
12.0
 20
9.0
  9
$UNITMODE
 70
     0
  9
$VISRETAIN
 70
     0
  9
$PLINEGEN
 70
     0
  9
$PSLTSCALE
 70
     0
  0
ENDSEC
  0
SECTION
  2
TABLES
  0
TABLE
  2
VPORT
 70
     1
  0
VPORT
  2
*ACTIVE
 70
     0
 10
0.0
 20
0.0
 11
1.0
 21
1.0
 12
226.13584300329629
 22
133.5127261426681
 13
0.0
 23
0.0
 14
10.0
 24
10.0
 15
10.0
 25
10.0
 16
0.0
 26
0.0
 36
1.0
 17
0.0
 27
0.0
 37
0.0
 40
275.42274993631997
 41
1.831871345029239
 42
50.0
 43
0.0
 44
0.0
 50
0.0
 51
0.0
 71
     0
 72
   500
 73
     1
 74
     0
 75
     0
 76
     0
 77
     0
 78
     2
  0
ENDTAB
  0
TABLE
  2
LTYPE
 70
     3
  0
LTYPE
  2
CONTINUOUS
 70
     0
  3
Solid Line
 72
    65
 73
     0
 40
0.0
  0
LTYPE
  2
CENTER
 70
     0
  3
____ _ ____ _ ____ _ ____ _ ____ _ ____ _ ____
 72
    65
 73
     4
 40
2.0
 49
1.25
 49
-0.25
 49
0.25
 49
-0.25
  0
LTYPE
  2
PHANTOM2
 70
     0
  3
___ _ _ ___ _ _ ___ _ _ ___ _ _
 72
    65
 73
     6
 40
1.25
 49
0.625
 49
-0.125
 49
0.125
 49
-0.125
 49
0.125
 49
-0.125
  0
ENDTAB
  0
TABLE
  2
LAYER
 70
     3
  0
LAYER
  2
0
 70
     0
 62
     7
  6
CONTINUOUS
  0
LAYER
  2
1
 70
     0
 62
     1
  6
CENTER
  0
LAYER
  2
3
 70
     0
 62
     3
  6
CONTINUOUS
  0
ENDTAB
  0
TABLE
  2
STYLE
 70
     2
  0
STYLE
  2
STANDARD
 70
     0
 40
0.0
 41
1.0
 50
0.0
 71
     0
 42
3.200000000000049
  3
TXT
  4
BIGFONT
  0
STYLE
  2
STANDARD1
 70
     0
 40
0.0
 41
1.0
 50
0.0
 71
     0
 42
3.0
  3
txt
  4

  0
ENDTAB
  0
TABLE
  2
VIEW
 70
     1
  0
VIEW
  2
ALL
 70
     0
 40
175.0
 10
143.23529411764699
 20
87.5
 41
0.0
 11
0.0
 21
0.0
 31
1.0
 12
0.0
 22
0.0
 32
0.0
 42
0.0
 43
0.0
 44
0.0
 50
0.0
 71
     0
  0
ENDTAB
  0
TABLE
  2
UCS
 70
     0
  0
ENDTAB
  0
TABLE
  2
APPID
 70
     3
  0
APPID
  2
ACAD
 70
     0
  0
APPID
  2
ACAD_MLEADERVER
 70
     0
  0
APPID
  2
ACAD_NAV_VCDISPLAY
 70
     0
  0
ENDTAB
  0
TABLE
  2
DIMSTYLE
 70
     1
  0
DIMSTYLE
  2
STANDARD
 70
     0
  3

  4

  5

  6

  7

 40
1.0
 41
0.18
 42
0.0625
 43
0.38
 44
0.18
 45
0.0
 46
0.0
 47
0.0
 48
0.0
140
0.18
141
0.09
142
0.0
143
25.399999999999999
144
1.0
145
0.0
146
1.0
147
0.09
 71
     0
 72
     0
 73
     1
 74
     1
 75
     0
 76
     0
 77
     0
 78
     0
170
     0
171
     2
172
     0
173
     0
174
     0
175
     0
176
     0
177
     0
178
     0
  0
ENDTAB
  0
ENDSEC
  0
SECTION
  2
BLOCKS
  0
BLOCK
  8
0
  2
$MODEL_SPACE
 70
     0
 10
0.0
 20
0.0
 30
0.0
  3
$MODEL_SPACE
  1

  0
ENDBLK
  5
DA
  8
0
  0
BLOCK
 67
     1
  8
0
  2
$PAPER_SPACE
 70
     0
 10
0.0
 20
0.0
 30
0.0
  3
$PAPER_SPACE
  1

  0
ENDBLK
  5
D8
 67
     1
  8
0
  0
ENDSEC
  0
SECTION
  2
ENTITIES
  0
ARC
  5
42F
  8
0
 10
114.8171682543321
 20
52.868766297526989
 30
0.0
 40
14.00000000000002
 50
28.825449160412852
 51
39.208396190015478
  0
ARC
  5
430
  8
0
 10
114.8171682543321
 20
52.868766297526989
 30
0.0
 40
14.000000000000011
 50
320.79160380998491
 51
331.17455083958782
  0
LINE
  5
431
  8
0
 10
214.8171682543321
 20
60.868766297526911
 30
0.0
 11
212.65210474487111
 21
59.618766297526918
 31
0.0
  0
LINE
  5
432
  8
0
 10
212.65210474487111
 20
46.118766297526911
 30
0.0
 11
214.8171682543321
 21
44.868766297526918
 31
0.0
  0
LINE
  5
433
  8
0
 10
363.59016825433218
 20
44.868766297526918
 30
0.0
 11
364.8171682543321
 21
46.095766297526907
 31
0.0
  0
LINE
  5
434
  8
0
 10
364.8171682543321
 20
59.641766297526921
 30
0.0
 11
363.59016825433218
 21
60.868766297526911
 31
0.0
  0
LINE
  5
435
  8
0
 10
363.59016825433218
 20
60.868766297526911
 30
0.0
 11
214.8171682543321
 21
60.868766297526911
 31
0.0
  0
LINE
  5
436
  8
0
 10
214.8171682543321
 20
44.868766297526918
 30
0.0
 11
363.59016825433218
 21
44.868766297526918
 31
0.0
  0
LINE
  5
437
  8
0
 10
212.65210474487111
 20
59.618766297526918
 30
0.0
 11
127.0824648263682
 21
59.618766297527003
 31
0.0
  0
LINE
  5
438
  8
0
 10
127.0824648263682
 20
46.118766297526989
 30
0.0
 11
212.65210474487111
 21
46.118766297526911
 31
0.0
  0
LINE
  5
439
  8
0
 10
104.8171682543321
 20
66.868766297526989
 30
0.0
 11
104.8171682543321
 21
38.86876629752701
 31
0.0
  0
LINE
  5
43A
  8
0
 10
110.4171682543322
 20
66.868766297526989
 30
0.0
 11
110.4171682543322
 21
66.78521699445399
 31
0.0
  0
LINE
  5
43D
  8
0
 10
110.4171682543322
 20
38.952315600599988
 30
0.0
 11
110.4171682543322
 21
38.868766297526989
 31
0.0
  0
LINE
  5
441
  8
0
 10
127.0824648263682
 20
59.618766297527003
 30
0.0
 11
127.0824648263682
 21
46.118766297526989
 31
0.0
  0
LINE
  5
442
  8
0
 10
114.8171682543321
 20
61.71876629752699
 30
0.0
 11
125.6650943234018
 21
61.71876629752699
 31
0.0
  0
LINE
  5
443
  8
0
 10
125.6650943234018
 20
44.018766297526987
 30
0.0
 11
114.8171682543321
 21
44.018766297526987
 31
0.0
  0
LINE
  5
444
  8
0
 10
114.8171682543321
 20
66.78521699445399
 30
0.0
 11
110.4171682543322
 21
66.78521699445399
 31
0.0
  0
LINE
  5
446
  8
0
 10
104.8171682543321
 20
66.868766297526989
 30
0.0
 11
114.8171682543321
 21
66.868766297526989
 31
0.0
  0
LINE
  5
447
  8
0
 10
110.4171682543322
 20
38.952315600599988
 30
0.0
 11
114.8171682543321
 21
38.952315600599988
 31
0.0
  0
LINE
  5
449
  8
0
 10
114.8171682543321
 20
38.868766297526989
 30
0.0
 11
104.8171682543321
 21
38.868766297526989
 31
0.0
  0
LINE
  5
44B
  8
0
 10
114.8171682543321
 20
38.86876629752701
 30
0.0
 11
114.8171682543322
 21
66.868766297527003
 31
0.0
  0
LINE
  5
44D
  8
0
 10
214.8171682543321
 20
60.868766297526911
 30
0.0
 11
214.8171682543321
 21
44.868766297526918
 31
0.0
  0
LINE
  5
44E
  8
0
 10
212.65210474487111
 20
59.618766297526918
 30
0.0
 11
212.65210474487111
 21
46.118766297526911
 31
0.0
  0
LINE
  5
44F
  8
0
 10
364.8171682543321
 20
59.641766297526921
 30
0.0
 11
364.8171682543321
 21
46.095766297526929
 31
0.0
  0
LINE
  5
450
  8
0
 10
363.59016825433218
 20
60.868766297526911
 30
0.0
 11
363.59016825433218
 21
44.868766297526918
 31
0.0
  0
LINE
  5
451
  8
3
 10
364.8171682543321
 20
46.095766297526907
 30
0.0
 11
214.8171682543321
 21
46.095766297526907
 31
0.0
  0
LINE
  5
452
  8
3
 10
364.8171682543321
 20
59.641766297526921
 30
0.0
 11
214.8171682543321
 21
59.641766297526921
 31
0.0
  0
ARC
  5
454
  8
0
 10
114.8171682543321
 20
105.97747315823391
 30
0.0
 40
14.000000000000011
 50
28.825449160412852
 51
90.0
  0
ARC
  5
455
  8
0
 10
114.8171682543321
 20
105.97747315823391
 30
0.0
 40
14.00000000000005
 50
270.0
 51
331.17455083958771
  0
LINE
  5
456
  8
0
 10
363.59016825433218
 20
97.977473158233749
 30
0.0
 11
364.8171682543321
 21
99.204473158233753
 31
0.0
  0
LINE
  5
457
  8
0
 10
364.8171682543321
 20
112.7504731582337
 30
0.0
 11
363.59016825433218
 21
113.97747315823381
 31
0.0
  0
LINE
  5
458
  8
0
 10
363.59016825433218
 20
113.97747315823381
 30
0.0
 11
214.8171682543321
 21
113.97747315823381
 31
0.0
  0
LINE
  5
459
  8
0
 10
214.8171682543321
 20
97.977473158233749
 30
0.0
 11
363.59016825433218
 21
97.977473158233749
 31
0.0
  0
LINE
  5
45A
  8
0
 10
214.8171682543321
 20
113.97747315823381
 30
0.0
 11
212.65210474487111
 21
112.72747315823371
 31
0.0
  0
LINE
  5
45B
  8
0
 10
212.65210474487111
 20
99.227473158233749
 30
0.0
 11
214.8171682543321
 21
97.977473158233749
 31
0.0
  0
LINE
  5
45C
  8
0
 10
212.65210474487111
 20
112.72747315823371
 30
0.0
 11
127.0824648263682
 21
112.72747315823381
 31
0.0
  0
LINE
  5
45D
  8
0
 10
127.0824648263682
 20
99.227473158233835
 30
0.0
 11
212.65210474487111
 21
99.227473158233749
 31
0.0
  0
LINE
  5
45E
  8
0
 10
110.4171682543322
 20
119.97747315823381
 30
0.0
 11
110.4171682543322
 21
119.89392385516081
 31
0.0
  0
LINE
  5
462
  8
0
 10
104.8171682543321
 20
119.97747315823381
 30
0.0
 11
104.8171682543321
 21
91.977473158233835
 31
0.0
  0
LINE
  5
464
  8
0
 10
110.4171682543322
 20
92.061022461306806
 30
0.0
 11
110.4171682543322
 21
91.977473158233806
 31
0.0
  0
LINE
  5
467
  8
0
 10
114.8171682543321
 20
119.89392385516081
 30
0.0
 11
110.4171682543322
 21
119.89392385516081
 31
0.0
  0
LINE
  5
468
  8
0
 10
114.8171682543321
 20
91.977473158233792
 30
0.0
 11
114.8171682543322
 21
119.97747315823381
 31
0.0
  0
LINE
  5
469
  8
0
 10
110.4171682543322
 20
92.061022461306806
 30
0.0
 11
114.8171682543321
 21
92.061022461306806
 31
0.0
  0
LINE
  5
46B
  8
0
 10
104.8171682543321
 20
119.97747315823371
 30
0.0
 11
114.8171682543321
 21
119.97747315823381
 31
0.0
  0
LINE
  5
46D
  8
0
 10
114.8171682543321
 20
91.977473158233806
 30
0.0
 11
104.8171682543322
 21
91.977473158233835
 31
0.0
  0
LINE
  5
46E
  8
0
 10
127.0824648263682
 20
112.72747315823381
 30
0.0
 11
127.0824648263682
 21
99.227473158233835
 31
0.0
  0
ARC
  5
470
  8
0
 10
114.8171682543321
 20
105.97747315823381
 30
0.0
 40
10.84792606906967
 50
270.0
 51
90.0
  0
LINE
  5
471
  8
0
 10
364.8171682543321
 20
112.7504731582337
 30
0.0
 11
364.8171682543321
 21
99.204473158233753
 31
0.0
  0
LINE
  5
473
  8
0
 10
363.59016825433218
 20
113.97747315823371
 30
0.0
 11
363.59016825433218
 21
97.977473158233749
 31
0.0
  0
LINE
  5
477
  8
0
 10
212.65210474487111
 20
112.72747315823371
 30
0.0
 11
212.65210474487111
 21
99.227473158233749
 31
0.0
  0
LINE
  5
479
  8
3
 10
364.8171682543321
 20
99.204473158233753
 30
0.0
 11
214.8171682543321
 21
99.204473158233753
 31
0.0
  0
LINE
  5
47A
  8
3
 10
364.8171682543321
 20
112.7504731582337
 30
0.0
 11
214.8171682543321
 21
112.7504731582337
 31
0.0
  0
LINE
  5
47B
  8
0
 10
214.8171682543321
 20
113.97747315823381
 30
0.0
 11
214.8171682543321
 21
97.977473158233749
 31
0.0
  0
ARC
  5
49F
  8
0
 10
47.094884794972643
 20
52.868766297526989
 30
0.0
 40
19.739999999999998
 50
224.8285237544406
 51
225.17147624556131
  0
ARC
  5
4A1
  8
0
 10
47.094884794972643
 20
52.868766297526989
 30
0.0
 40
14.13999999999999
 50
188.06930115939451
 51
261.93069884061049
  0
ARC
  5
4A3
  8
0
 10
47.094884794972643
 20
52.868766297526989
 30
0.0
 40
19.739999999999998
 50
134.82852375443909
 51
135.1714762455598
  0
ARC
  5
4A5
  8
0
 10
47.094884794972643
 20
52.868766297526989
 30
0.0
 40
14.13999999999999
 50
98.069301159392765
 51
171.93069884060861
  0
ARC
  5
4A7
  8
0
 10
47.094884794972643
 20
52.868766297526989
 30
0.0
 40
14.13999999999999
 50
8.0693011593938166
 51
81.930698840607278
  0
ARC
  5
4A8
  8
0
 10
47.094884794972643
 20
52.868766297526989
 30
0.0
 40
19.739999999999998
 50
44.828523754440127
 51
45.171476245560882
  0
ARC
  5
4AB
  8
0
 10
47.094884794972643
 20
52.868766297526989
 30
0.0
 40
19.739999999999998
 50
314.82852375443957
 51
315.17147624556031
  0
ARC
  5
4AC
  8
0
 10
47.094884794972643
 20
52.868766297526989
 30
0.0
 40
14.13999999999999
 50
278.06930115939599
 51
351.93069884060941
  0
CIRCLE
  5
4B4
  8
3
 10
418.14402408811168
 20
52.868766297527031
 30
0.0
 40
6.7730000000000103
  0
CIRCLE
  5
4B5
  8
0
 10
418.14402408811168
 20
52.868766297527031
 30
0.0
 40
8.0
  0
ARC
  5
4B6
  8
0
 10
418.14402408811179
 20
52.868766297527031
 30
0.0
 40
14.0
 50
179.9999999999998
 51
219.20839619001589
  0
ARC
  5
4B7
  8
0
 10
418.14402408811179
 20
52.868766297527031
 30
0.0
 40
14.0
 50
140.79160380998451
 51
179.9999999999998
  0
LINE
  5
4B8
  8
0
 10
407.29609801904229
 20
61.718766297527019
 30
0.0
 11
428.99195015718152
 21
61.718766297527019
 31
0.0
  0
ARC
  5
4B9
  8
0
 10
418.14402408811179
 20
52.868766297527031
 30
0.0
 40
14.000000000000041
 50
0.0000000000002036
 51
39.208396190015399
  0
ARC
  5
4BA
  8
0
 10
418.14402408811179
 20
52.868766297527031
 30
0.0
 40
14.000000000000041
 50
320.79160380998491
 51
0.0000000000002036
  0
LINE
  5
4BB
  8
0
 10
428.99195015718152
 20
44.01876629752703
 30
0.0
 11
407.29609801904229
 21
44.01876629752703
 31
0.0
  0
LINE
  5
4BC
  8
0
 10
432.14402408811191
 20
66.785216994454046
 30
0.0
 11
432.14402408811191
 21
38.952315600600031
 31
0.0
  0
ARC
  5
4BD
  8
0
 10
418.14402408811179
 20
52.868766297527031
 30
0.0
 40
19.739999999999998
 50
314.82852375443957
 51
315.17147624556031
  0
LINE
  5
4BE
  8
0
 10
432.06047478503888
 20
38.868766297527031
 30
0.0
 11
404.22757339118488
 21
38.868766297527031
 31
0.0
  0
ARC
  5
4BF
  8
0
 10
418.14402408811179
 20
52.868766297527031
 30
0.0
 40
19.739999999999998
 50
224.8285237544406
 51
225.17147624556131
  0
LINE
  5
4C0
  8
0
 10
404.14402408811191
 20
38.952315600600031
 30
0.0
 11
404.14402408811191
 21
66.785216994454046
 31
0.0
  0
ARC
  5
4C2
  8
0
 10
418.14402408811179
 20
52.868766297527031
 30
0.0
 40
19.739999999999998
 50
134.82852375443909
 51
135.1714762455598
  0
LINE
  5
4C3
  8
0
 10
404.22757339118488
 20
66.868766297527031
 30
0.0
 11
432.06047478503888
 21
66.868766297527031
 31
0.0
  0
ARC
  5
4C4
  8
0
 10
418.14402408811179
 20
52.868766297527031
 30
0.0
 40
19.739999999999998
 50
44.828523754440127
 51
45.171476245560882
  0
LINE
  5
4C8
  8
0
 10
33.178434098045621
 20
66.868766297526989
 30
0.0
 11
61.011335491899501
 21
66.868766297527145
 31
0.0
  0
LINE
  5
4C9
  8
0
 10
61.094884794972529
 20
66.785216994454089
 30
0.0
 11
61.094884794972643
 21
38.952315600600002
 31
0.0
  0
LINE
  5
4CA
  8
0
 10
61.011335491899608
 20
38.868766297526989
 30
0.0
 11
33.178434098045898
 21
38.86876629752674
 31
0.0
  0
LINE
  5
4CB
  8
0
 10
33.094884794972643
 20
38.952315600599988
 30
0.0
 11
33.094884794972643
 21
66.78521699445399
 31
0.0
  0
POLYLINE
  5
4CC
  8
0
 66
     1
 10
0.0
 20
0.0
 30
0.0
 70
     2
  0
VERTEX
  5
4CD
  8
0
 10
104.8171682543321
 20
107.9623157212598
 30
0.0
 42
-0.0029013044541862
  0
VERTEX
  5
4D9
  8
0
 10
104.8171667074126
 20
108.94296451881389
 30
0.0
 42
-0.0036778982292508
 70
     1
  0
VERTEX
  5
4CE
  8
0
 10
104.8273443301608
 20
109.7164848384153
 30
0.0
 42
-0.0000293525730009
  0
VERTEX
  5
4DA
  8
0
 10
104.8364648845031
 20
110.15978649200051
 30
0.0
 42
-0.0002964275792439
 70
     1
  0
VERTEX
  5
4CF
  8
0
 10
104.8373966123617
 20
110.2036820974711
 30
0.0
 42
-0.0068873344405482
  0
VERTEX
  5
4DB
  8
0
 10
104.85555928083789
 20
110.713795651449
 30
0.0
 42
-0.0027438081099457
 70
     1
  0
VERTEX
  5
4D0
  8
0
 10
104.92580147409519
 20
111.99308388741051
 30
0.0
 42
-0.0207177863205814
  0
VERTEX
  5
4DC
  8
0
 10
105.03963994090491
 20
113.1078115904821
 30
0.0
 42
-0.0166634814969975
 70
     1
  0
VERTEX
  5
4D1
  8
0
 10
105.2842514216202
 20
114.47910906106139
 30
0.0
 42
-0.0221328997084659
  0
VERTEX
  5
4DD
  8
0
 10
105.4991857914916
 20
115.3066722211321
 30
0.0
 42
-0.0210379126402262
 70
     1
  0
VERTEX
  5
4D2
  8
0
 10
105.79951801101051
 20
116.154529926652
 30
0.0
 42
-0.0237629134731326
  0
VERTEX
  5
4DE
  8
0
 10
106.12369523573869
 20
116.8613445349034
 30
0.0
 42
-0.0234108150256289
 70
     1
  0
VERTEX
  5
4D3
  8
0
 10
106.5188548770158
 20
117.5445951569174
 30
0.0
 42
-0.0257715006162328
  0
VERTEX
  5
4DF
  8
0
 10
106.8365296162069
 20
117.9870483303917
 30
0.0
 42
-0.0216198957779096
 70
     1
  0
VERTEX
  5
4D4
  8
0
 10
107.2633291481589
 20
118.4761703793969
 30
0.0
 42
-0.0434946580100211
  0
VERTEX
  5
4E0
  8
0
 10
107.90796785081289
 20
119.0451871293007
 30
0.0
 42
-0.0471399420668077
 70
     1
  0
VERTEX
  5
4D5
  8
0
 10
108.5878339961392
 20
119.4545924501017
 30
0.0
 42
-0.0247600678920706
  0
VERTEX
  5
4E2
  8
0
 10
108.9012471457612
 20
119.58647548820321
 30
0.0
 42
-0.0133074518196509
 70
     1
  0
VERTEX
  5
4D6
  8
0
 10
109.5011000643069
 20
119.7867135231168
 30
0.0
 42
-0.0447961028777328
  0
VERTEX
  5
4E1
  8
0
 10
109.8516457938215
 20
119.8599780450245
 30
0.0
 42
-0.0282822981354157
 70
     1
  0
VERTEX
  5
4D7
  8
0
 10
110.4171682543322
 20
119.89392385516081
 30
0.0
  0
SEQEND
  5
4D8
  8
0
  0
POLYLINE
  5
4E3
  8
0
 66
     1
 10
0.0
 20
0.0
 30
0.0
 70
     2
  0
VERTEX
  5
4E4
  8
0
 10
104.8171682543321
 20
103.9926305952077
 30
0.0
 42
0.0029013044541862
  0
VERTEX
  5
4E5
  8
0
 10
104.8171667074126
 20
103.0119817976536
 30
0.0
 42
0.0036778982292508
 70
     1
  0
VERTEX
  5
4E6
  8
0
 10
104.8273443301608
 20
102.2384614780523
 30
0.0
 42
0.0000293525730009
  0
VERTEX
  5
4E7
  8
0
 10
104.8364648845031
 20
101.79515982446701
 30
0.0
 42
0.0002964275792439
 70
     1
  0
VERTEX
  5
4E8
  8
0
 10
104.8373966123617
 20
101.7512642189965
 30
0.0
 42
0.0068873344405482
  0
VERTEX
  5
4E9
  8
0
 10
104.85555928083789
 20
101.24115066501859
 30
0.0
 42
0.0027438081099457
 70
     1
  0
VERTEX
  5
4EA
  8
0
 10
104.92580147409519
 20
99.961862429057064
 30
0.0
 42
0.0207177863205814
  0
VERTEX
  5
4EB
  8
0
 10
105.03963994090491
 20
98.847134725985484
 30
0.0
 42
0.0166634814969975
 70
     1
  0
VERTEX
  5
4EC
  8
0
 10
105.2842514216202
 20
97.475837255406162
 30
0.0
 42
0.0221328997084659
  0
VERTEX
  5
4ED
  8
0
 10
105.4991857914916
 20
96.648274095335523
 30
0.0
 42
0.0210379126402262
 70
     1
  0
VERTEX
  5
4EE
  8
0
 10
105.79951801101051
 20
95.800416389815595
 30
0.0
 42
0.0237629134731326
  0
VERTEX
  5
4EF
  8
0
 10
106.12369523573869
 20
95.093601781564175
 30
0.0
 42
0.0234108150256289
 70
     1
  0
VERTEX
  5
4F0
  8
0
 10
106.5188548770158
 20
94.410351159550203
 30
0.0
 42
0.0257715006162328
  0
VERTEX
  5
4F1
  8
0
 10
106.8365296162069
 20
93.967897986075855
 30
0.0
 42
0.0216198957779096
 70
     1
  0
VERTEX
  5
4F2
  8
0
 10
107.2633291481589
 20
93.478775937070708
 30
0.0
 42
0.0434946580100211
  0
VERTEX
  5
4F3
  8
0
 10
107.90796785081289
 20
92.909759187166912
 30
0.0
 42
0.0471399420668077
 70
     1
  0
VERTEX
  5
4F4
  8
0
 10
108.5878339961392
 20
92.500353866365884
 30
0.0
 42
0.0247600678920706
  0
VERTEX
  5
4F5
  8
0
 10
108.9012471457612
 20
92.368470828264378
 30
0.0
 42
0.0133074518196509
 70
     1
  0
VERTEX
  5
4F6
  8
0
 10
109.5011000643069
 20
92.168232793350825
 30
0.0
 42
0.0447961028777328
  0
VERTEX
  5
4F7
  8
0
 10
109.8516457938215
 20
92.094968271443037
 30
0.0
 42
0.0282822981354157
 70
     1
  0
VERTEX
  5
4F8
  8
0
 10
110.4171682543322
 20
92.061022461306806
 30
0.0
  0
SEQEND
  5
4F9
  8
0
  0
POLYLINE
  5
4FA
  8
0
 66
     1
 10
0.0
 20
0.0
 30
0.0
 70
     2
  0
VERTEX
  5
4FB
  8
0
 10
104.8171682543321
 20
50.883923734500918
 30
0.0
 42
0.0029013044541862
  0
VERTEX
  5
4FC
  8
0
 10
104.8171667074126
 20
49.90327493694685
 30
0.0
 42
0.0036778982292508
 70
     1
  0
VERTEX
  5
4FD
  8
0
 10
104.8273443301608
 20
49.129754617345512
 30
0.0
 42
0.0000293525730009
  0
VERTEX
  5
4FE
  8
0
 10
104.8364648845031
 20
48.68645296376026
 30
0.0
 42
0.0002964275792439
 70
     1
  0
VERTEX
  5
4FF
  8
0
 10
104.8373966123617
 20
48.642557358289693
 30
0.0
 42
0.0068873344405482
  0
VERTEX
  5
500
  8
0
 10
104.85555928083789
 20
48.132443804311791
 30
0.0
 42
0.0027438081099457
 70
     1
  0
VERTEX
  5
501
  8
0
 10
104.92580147409519
 20
46.85315556835026
 30
0.0
 42
0.0207177863205814
  0
VERTEX
  5
502
  8
0
 10
105.03963994090491
 20
45.738427865278659
 30
0.0
 42
0.0166634814969975
 70
     1
  0
VERTEX
  5
503
  8
0
 10
105.2842514216202
 20
44.367130394699352
 30
0.0
 42
0.0221328997084659
  0
VERTEX
  5
504
  8
0
 10
105.4991857914916
 20
43.539567234628713
 30
0.0
 42
0.0210379126402262
 70
     1
  0
VERTEX
  5
505
  8
0
 10
105.79951801101051
 20
42.691709529108792
 30
0.0
 42
0.0237629134731326
  0
VERTEX
  5
506
  8
0
 10
106.12369523573869
 20
41.984894920857357
 30
0.0
 42
0.0234108150256289
 70
     1
  0
VERTEX
  5
507
  8
0
 10
106.5188548770158
 20
41.301644298843378
 30
0.0
 42
0.0257715006162328
  0
VERTEX
  5
508
  8
0
 10
106.8365296162069
 20
40.85919112536903
 30
0.0
 42
0.0216198957779096
 70
     1
  0
VERTEX
  5
509
  8
0
 10
107.2633291481589
 20
40.37006907636389
 30
0.0
 42
0.0434946580100211
  0
VERTEX
  5
50A
  8
0
 10
107.90796785081289
 20
39.801052326460102
 30
0.0
 42
0.0471399420668077
 70
     1
  0
VERTEX
  5
50B
  8
0
 10
108.5878339961392
 20
39.391647005659067
 30
0.0
 42
0.0247600678920706
  0
VERTEX
  5
50C
  8
0
 10
108.9012471457612
 20
39.259763967557561
 30
0.0
 42
0.0133074518196509
 70
     1
  0
VERTEX
  5
50D
  8
0
 10
109.5011000643069
 20
39.059525932644007
 30
0.0
 42
0.0447961028777328
  0
VERTEX
  5
50E
  8
0
 10
109.8516457938215
 20
38.986261410736219
 30
0.0
 42
0.0282822981354157
 70
     1
  0
VERTEX
  5
50F
  8
0
 10
110.4171682543322
 20
38.952315600599988
 30
0.0
  0
SEQEND
  5
510
  8
0
  0
POLYLINE
  5
511
  8
0
 66
     1
 10
0.0
 20
0.0
 30
0.0
 70
     2
  0
VERTEX
  5
512
  8
0
 10
104.8171682543321
 20
54.853608860553052
 30
0.0
 42
-0.0029013044541862
  0
VERTEX
  5
513
  8
0
 10
104.8171667074126
 20
55.83425765810712
 30
0.0
 42
-0.0036778982292508
 70
     1
  0
VERTEX
  5
514
  8
0
 10
104.8273443301608
 20
56.607777977708473
 30
0.0
 42
-0.0000293525730009
  0
VERTEX
  5
515
  8
0
 10
104.8364648845031
 20
57.05107963129371
 30
0.0
 42
-0.0002964275792439
 70
     1
  0
VERTEX
  5
516
  8
0
 10
104.8373966123617
 20
57.094975236764292
 30
0.0
 42
-0.0068873344405482
  0
VERTEX
  5
517
  8
0
 10
104.85555928083789
 20
57.605088790742187
 30
0.0
 42
-0.0027438081099457
 70
     1
  0
VERTEX
  5
518
  8
0
 10
104.92580147409519
 20
58.884377026703717
 30
0.0
 42
-0.0207177863205814
  0
VERTEX
  5
519
  8
0
 10
105.03963994090491
 20
59.999104729775311
 30
0.0
 42
-0.0166634814969975
 70
     1
  0
VERTEX
  5
51A
  8
0
 10
105.2842514216202
 20
61.370402200354633
 30
0.0
 42
-0.0221328997084659
  0
VERTEX
  5
51B
  8
0
 10
105.4991857914916
 20
62.197965360425272
 30
0.0
 42
-0.0210379126402262
 70
     1
  0
VERTEX
  5
51C
  8
0
 10
105.79951801101051
 20
63.045823065945179
 30
0.0
 42
-0.0237629134731326
  0
VERTEX
  5
51D
  8
0
 10
106.12369523573869
 20
63.752637674196599
 30
0.0
 42
-0.0234108150256289
 70
     1
  0
VERTEX
  5
51E
  8
0
 10
106.5188548770158
 20
64.435888296210592
 30
0.0
 42
-0.0257715006162328
  0
VERTEX
  5
51F
  8
0
 10
106.8365296162069
 20
64.878341469684941
 30
0.0
 42
-0.0216198957779096
 70
     1
  0
VERTEX
  5
520
  8
0
 10
107.2633291481589
 20
65.367463518690087
 30
0.0
 42
-0.0434946580100211
  0
VERTEX
  5
521
  8
0
 10
107.90796785081289
 20
65.936480268593883
 30
0.0
 42
-0.0471399420668077
 70
     1
  0
VERTEX
  5
522
  8
0
 10
108.5878339961392
 20
66.345885589394911
 30
0.0
 42
-0.0247600678920706
  0
VERTEX
  5
523
  8
0
 10
108.9012471457612
 20
66.477768627496417
 30
0.0
 42
-0.0133074518196509
 70
     1
  0
VERTEX
  5
524
  8
0
 10
109.5011000643069
 20
66.67800666240997
 30
0.0
 42
-0.0447961028777328
  0
VERTEX
  5
525
  8
0
 10
109.8516457938215
 20
66.751271184317758
 30
0.0
 42
-0.0282822981354157
 70
     1
  0
VERTEX
  5
526
  8
0
 10
110.4171682543322
 20
66.78521699445399
 30
0.0
  0
SEQEND
  5
527
  8
0
  0
LINE
  5
529
  8
1
 10
437.14402408811191
 20
52.868766297527038
 30
0.0
 11
399.14402408811191
 21
52.868766297527038
 31
0.0
  0
LINE
  5
52A
  8
1
 10
47.094884794972643
 20
33.868766297526861
 30
0.0
 11
47.094884794972643
 21
71.86876629752706
 31
0.0
  0
LINE
  5
52B
  8
1
 10
418.14402408811168
 20
33.868766297527031
 30
0.0
 11
418.14402408811168
 21
71.868766297527031
 31
0.0
  0
LINE
  5
52C
  8
1
 10
369.81716825433222
 20
105.97747315823371
 30
0.0
 11
99.817168254332174
 21
105.97747315823381
 31
0.0
  0
LINE
  5
537
  8
1
 10
369.81716825433222
 20
52.868766297526932
 30
0.0
 11
99.817168254332174
 21
52.86876629752701
 31
0.0
  0
LINE
  5
538
  8
1
 10
66.094884794972586
 20
52.86876629752701
 30
0.0
 11
28.094884794972639
 21
52.86876629752701
 31
0.0
  0
TEXT
  5
671
  8
0
 62
     3
 10
0.0
 20
0.0
 30
0.0
 40
10.0
  1
BJ755-18250
  7
STANDARD1
  0
ENDSEC
  0
EOF
