  0
SECTION
  2
HEADER
  9
$ACADVER
  1
AC1009
  9
$INSBASE
 10
0.0
 20
0.0
 30
0.0
  9
$EXTMIN
 10
0.0
 20
-2.960436562073669
 30
0.0
  9
$EXTMAX
 10
353.39683262874638
 20
141.21424436538379
 30
0.0
  9
$LIMMIN
 10
0.0
 20
0.0
  9
$LIMMAX
 10
375.0
 20
270.0
  9
$ORTHOMODE
 70
     1
  9
$REGENMODE
 70
     1
  9
$FILLMODE
 70
     1
  9
$QTEXTMODE
 70
     0
  9
$MIRRTEXT
 70
     0
  9
$DRAGMODE
 70
     2
  9
$LTSCALE
 40
10.0
  9
$OSMODE
 70
  3071
  9
$ATTMODE
 70
     1
  9
$TEXTSIZE
 40
3.200000000000049
  9
$TRACEWID
 40
0.05
  9
$TEXTSTYLE
  7
STANDARD
  9
$CLAYER
  8
0
  9
$CELTYPE
  6
BYLAYER
  9
$CECOLOR
 62
   256
  9
$DIMSCALE
 40
1.0
  9
$DIMASZ
 40
3.0
  9
$DIMEXO
 40
2.0
  9
$DIMDLI
 40
10.0
  9
$DIMRND
 40
0.0
  9
$DIMDLE
 40
0.0
  9
$DIMEXE
 40
2.0
  9
$DIMTP
 40
0.0
  9
$DIMTM
 40
0.0
  9
$DIMTXT
 40
3.2000000000000002
  9
$DIMCEN
 40
0.0
  9
$DIMTSZ
 40
0.0
  9
$DIMTOL
 70
     0
  9
$DIMLIM
 70
     0
  9
$DIMTIH
 70
     0
  9
$DIMTOH
 70
     0
  9
$DIMSE1
 70
     0
  9
$DIMSE2
 70
     0
  9
$DIMTAD
 70
     1
  9
$DIMZIN
 70
     0
  9
$DIMBLK
  1

  9
$DIMASO
 70
     0
  9
$DIMSHO
 70
     0
  9
$DIMPOST
  1

  9
$DIMAPOST
  1

  9
$DIMALT
 70
     0
  9
$DIMALTD
 70
     2
  9
$DIMALTF
 40
25.399999999999999
  9
$DIMLFAC
 40
1.0
  9
$DIMTOFL
 70
     1
  9
$DIMTVP
 40
1.6000000000000001
  9
$DIMTIX
 70
     1
  9
$DIMSOXD
 70
     0
  9
$DIMSAH
 70
     0
  9
$DIMBLK1
  1

  9
$DIMBLK2
  1

  9
$DIMSTYLE
  2
STANDARD
  9
$DIMCLRD
 70
     0
  9
$DIMCLRE
 70
     0
  9
$DIMCLRT
 70
     0
  9
$DIMTFAC
 40
1.0
  9
$DIMGAP
 40
0.09
  9
$LUNITS
 70
     2
  9
$LUPREC
 70
     4
  9
$SKETCHINC
 40
0.1
  9
$FILLETRAD
 40
0.0
  9
$AUNITS
 70
     0
  9
$AUPREC
 70
     4
  9
$MENU
  1
E:\r13\win\SUPPORT\ACAD
  9
$ELEVATION
 40
0.0
  9
$PELEVATION
 40
0.0
  9
$THICKNESS
 40
0.0
  9
$LIMCHECK
 70
     0
  9
$BLIPMODE
 70
     0
  9
$CHAMFERA
 40
0.0
  9
$CHAMFERB
 40
0.0
  9
$SKPOLY
 70
     0
  9
$TDCREATE
 40
2449839.7726967591
  9
$TDUPDATE
 40
2456598.3675104282
  9
$TDINDWG
 40
0.1048433565
  9
$TDUSRTIMER
 40
0.1048433565
  9
$USRTIMER
 70
     1
  9
$ANGBASE
 50
0.0
  9
$ANGDIR
 70
     0
  9
$PDMODE
 70
    35
  9
$PDSIZE
 40
0.0
  9
$PLINEWID
 40
0.0
  9
$COORDS
 70
     1
  9
$SPLFRAME
 70
     0
  9
$SPLINETYPE
 70
     6
  9
$SPLINESEGS
 70
     8
  9
$ATTDIA
 70
     0
  9
$ATTREQ
 70
     1
  9
$HANDLING
 70
     1
  9
$HANDSEED
  5
6D0
  9
$SURFTAB1
 70
     6
  9
$SURFTAB2
 70
     6
  9
$SURFTYPE
 70
     6
  9
$SURFU
 70
     6
  9
$SURFV
 70
     6
  9
$UCSNAME
  2

  9
$UCSORG
 10
0.0
 20
0.0
 30
0.0
  9
$UCSXDIR
 10
1.0
 20
0.0
 30
0.0
  9
$UCSYDIR
 10
0.0
 20
1.0
 30
0.0
  9
$PUCSNAME
  2

  9
$PUCSORG
 10
0.0
 20
0.0
 30
0.0
  9
$PUCSXDIR
 10
1.0
 20
0.0
 30
0.0
  9
$PUCSYDIR
 10
0.0
 20
1.0
 30
0.0
  9
$USERI1
 70
     0
  9
$USERI2
 70
     1
  9
$USERI3
 70
     0
  9
$USERI4
 70
     0
  9
$USERI5
 70
     0
  9
$USERR1
 40
0.0
  9
$USERR2
 40
0.0
  9
$USERR3
 40
0.0
  9
$USERR4
 40
0.0
  9
$USERR5
 40
0.0
  9
$WORLDVIEW
 70
     1
  9
$SHADEDGE
 70
     3
  9
$SHADEDIF
 70
    70
  9
$TILEMODE
 70
     1
  9
$MAXACTVP
 70
    16
  9
$PLIMCHECK
 70
     0
  9
$PEXTMIN
 10
1.0000000000000000E+020
 20
1.0000000000000000E+020
 30
1.0000000000000000E+020
  9
$PEXTMAX
 10
-1.0000000000000000E+020
 20
-1.0000000000000000E+020
 30
-1.0000000000000000E+020
  9
$PLIMMIN
 10
0.0
 20
0.0
  9
$PLIMMAX
 10
12.0
 20
9.0
  9
$UNITMODE
 70
     0
  9
$VISRETAIN
 70
     0
  9
$PLINEGEN
 70
     0
  9
$PSLTSCALE
 70
     0
  0
ENDSEC
  0
SECTION
  2
TABLES
  0
TABLE
  2
VPORT
 70
     1
  0
VPORT
  2
*ACTIVE
 70
     0
 10
0.0
 20
0.0
 11
1.0
 21
1.0
 12
195.0581083320873
 22
133.5127261426681
 13
0.0
 23
0.0
 14
10.0
 24
10.0
 15
10.0
 25
10.0
 16
0.0
 26
0.0
 36
1.0
 17
0.0
 27
0.0
 37
0.0
 40
275.42274993631997
 41
1.831871345029239
 42
50.0
 43
0.0
 44
0.0
 50
0.0
 51
0.0
 71
     0
 72
   500
 73
     1
 74
     0
 75
     0
 76
     0
 77
     0
 78
     2
  0
ENDTAB
  0
TABLE
  2
LTYPE
 70
     3
  0
LTYPE
  2
CONTINUOUS
 70
     0
  3
Solid Line
 72
    65
 73
     0
 40
0.0
  0
LTYPE
  2
CENTER
 70
     0
  3
____ _ ____ _ ____ _ ____ _ ____ _ ____ _ ____
 72
    65
 73
     4
 40
2.0
 49
1.25
 49
-0.25
 49
0.25
 49
-0.25
  0
LTYPE
  2
PHANTOM2
 70
     0
  3
___ _ _ ___ _ _ ___ _ _ ___ _ _
 72
    65
 73
     6
 40
1.25
 49
0.625
 49
-0.125
 49
0.125
 49
-0.125
 49
0.125
 49
-0.125
  0
ENDTAB
  0
TABLE
  2
LAYER
 70
     3
  0
LAYER
  2
0
 70
     0
 62
     7
  6
CONTINUOUS
  0
LAYER
  2
1
 70
     0
 62
     1
  6
CENTER
  0
LAYER
  2
3
 70
     0
 62
     3
  6
CONTINUOUS
  0
ENDTAB
  0
TABLE
  2
STYLE
 70
     2
  0
STYLE
  2
STANDARD
 70
     0
 40
0.0
 41
1.0
 50
0.0
 71
     0
 42
3.200000000000049
  3
TXT
  4
BIGFONT
  0
STYLE
  2
STANDARD1
 70
     0
 40
0.0
 41
1.0
 50
0.0
 71
     0
 42
3.0
  3
txt
  4

  0
ENDTAB
  0
TABLE
  2
VIEW
 70
     1
  0
VIEW
  2
ALL
 70
     0
 40
175.0
 10
143.23529411764699
 20
87.5
 41
0.0
 11
0.0
 21
0.0
 31
1.0
 12
0.0
 22
0.0
 32
0.0
 42
0.0
 43
0.0
 44
0.0
 50
0.0
 71
     0
  0
ENDTAB
  0
TABLE
  2
UCS
 70
     0
  0
ENDTAB
  0
TABLE
  2
APPID
 70
     3
  0
APPID
  2
ACAD
 70
     0
  0
APPID
  2
ACAD_MLEADERVER
 70
     0
  0
APPID
  2
ACAD_NAV_VCDISPLAY
 70
     0
  0
ENDTAB
  0
TABLE
  2
DIMSTYLE
 70
     1
  0
DIMSTYLE
  2
STANDARD
 70
     0
  3

  4

  5

  6

  7

 40
1.0
 41
0.18
 42
0.0625
 43
0.38
 44
0.18
 45
0.0
 46
0.0
 47
0.0
 48
0.0
140
0.18
141
0.09
142
0.0
143
25.399999999999999
144
1.0
145
0.0
146
1.0
147
0.09
 71
     0
 72
     0
 73
     1
 74
     1
 75
     0
 76
     0
 77
     0
 78
     0
170
     0
171
     2
172
     0
173
     0
174
     0
175
     0
176
     0
177
     0
178
     0
  0
ENDTAB
  0
ENDSEC
  0
SECTION
  2
BLOCKS
  0
BLOCK
  8
0
  2
$MODEL_SPACE
 70
     0
 10
0.0
 20
0.0
 30
0.0
  3
$MODEL_SPACE
  1

  0
ENDBLK
  5
DA
  8
0
  0
BLOCK
 67
     1
  8
0
  2
$PAPER_SPACE
 70
     0
 10
0.0
 20
0.0
 30
0.0
  3
$PAPER_SPACE
  1

  0
ENDBLK
  5
D8
 67
     1
  8
0
  0
ENDSEC
  0
SECTION
  2
ENTITIES
  0
ARC
  5
437
  8
0
 10
116.7157295724884
 20
51.027200706340167
 30
0.0
 40
17.5
 50
28.312853141686642
 51
38.316134473665102
  0
ARC
  5
438
  8
0
 10
116.7157295724884
 20
51.027200706340167
 30
0.0
 40
17.499999999999989
 50
321.6838655263353
 51
331.68714685831389
  0
LINE
  5
439
  8
0
 10
166.71572957248841
 20
61.027200706340167
 30
0.0
 11
163.7712431996213
 21
59.327200706340179
 31
0.0
  0
LINE
  5
43A
  8
0
 10
163.7712431996213
 20
42.72720070634017
 30
0.0
 11
166.71572957248841
 21
41.027200706340182
 31
0.0
  0
LINE
  5
43B
  8
0
 10
275.18222957248838
 20
41.027200706340182
 30
0.0
 11
276.7157295724885
 21
42.560700706340171
 31
0.0
  0
LINE
  5
43C
  8
0
 10
276.7157295724885
 20
59.493700706340171
 30
0.0
 11
275.18222957248838
 21
61.027200706340167
 31
0.0
  0
LINE
  5
43D
  8
0
 10
275.18222957248838
 20
61.027200706340167
 30
0.0
 11
166.71572957248841
 21
61.027200706340167
 31
0.0
  0
LINE
  5
43E
  8
0
 10
166.71572957248841
 20
41.027200706340182
 30
0.0
 11
275.18222957248838
 21
41.027200706340182
 31
0.0
  0
LINE
  5
43F
  8
0
 10
163.7712431996213
 20
59.327200706340179
 30
0.0
 11
132.12222171054489
 21
59.327200706340179
 31
0.0
  0
LINE
  5
440
  8
0
 10
132.12222171054489
 20
42.72720070634017
 30
0.0
 11
163.7712431996213
 21
42.72720070634017
 31
0.0
  0
LINE
  5
442
  8
0
 10
109.7157295724884
 20
68.527200706340182
 30
0.0
 11
109.7157295724884
 21
68.42276407749894
 31
0.0
  0
LINE
  5
445
  8
0
 10
109.7157295724884
 20
33.631637335181409
 30
0.0
 11
109.7157295724884
 21
33.527200706340167
 31
0.0
  0
LINE
  5
447
  8
0
 10
102.7157295724883
 20
68.527200706340167
 30
0.0
 11
102.7157295724884
 21
33.527200706340167
 31
0.0
  0
LINE
  5
449
  8
0
 10
116.7157295724884
 20
68.422764077498925
 30
0.0
 11
109.7157295724884
 21
68.42276407749894
 31
0.0
  0
LINE
  5
44B
  8
0
 10
102.7157295724884
 20
68.527200706340182
 30
0.0
 11
116.7157295724884
 21
68.527200706340182
 31
0.0
  0
LINE
  5
44C
  8
0
 10
109.7157295724884
 20
33.631637335181409
 30
0.0
 11
116.7157295724884
 21
33.631637335181424
 31
0.0
  0
LINE
  5
44D
  8
0
 10
116.7157295724884
 20
33.52720070634016
 30
0.0
 11
116.7157295724884
 21
68.527200706340196
 31
0.0
  0
LINE
  5
451
  8
0
 10
116.7157295724884
 20
33.527200706340167
 30
0.0
 11
102.7157295724883
 21
33.527200706340167
 31
0.0
  0
LINE
  5
452
  8
0
 10
132.12222171054489
 20
59.327200706340179
 30
0.0
 11
132.12222171054489
 21
42.72720070634017
 31
0.0
  0
LINE
  5
453
  8
0
 10
116.7157295724884
 20
61.877200706340183
 30
0.0
 11
130.44626124464151
 21
61.877200706340183
 31
0.0
  0
LINE
  5
454
  8
0
 10
130.44626124464151
 20
40.177200706340173
 30
0.0
 11
116.7157295724884
 21
40.177200706340173
 31
0.0
  0
LINE
  5
455
  8
0
 10
166.71572957248841
 20
61.027200706340167
 30
0.0
 11
166.71572957248841
 21
41.027200706340182
 31
0.0
  0
LINE
  5
456
  8
0
 10
163.7712431996213
 20
59.327200706340179
 30
0.0
 11
163.7712431996213
 21
42.72720070634017
 31
0.0
  0
LINE
  5
457
  8
0
 10
276.7157295724885
 20
59.493700706340171
 30
0.0
 11
276.7157295724885
 21
42.560700706340171
 31
0.0
  0
LINE
  5
458
  8
0
 10
275.18222957248838
 20
61.027200706340167
 30
0.0
 11
275.18222957248838
 21
41.027200706340182
 31
0.0
  0
LINE
  5
459
  8
3
 10
276.7157295724885
 20
42.560700706340171
 30
0.0
 11
166.71572957248841
 21
42.560700706340171
 31
0.0
  0
LINE
  5
45A
  8
3
 10
276.7157295724885
 20
59.493700706340171
 30
0.0
 11
166.71572957248841
 21
59.493700706340171
 31
0.0
  0
ARC
  5
45C
  8
0
 10
116.7157295724884
 20
123.71424436538381
 30
0.0
 40
17.5
 50
28.312853141686642
 51
90.0
  0
ARC
  5
45D
  8
0
 10
116.7157295724884
 20
123.71424436538381
 30
0.0
 40
17.5
 50
270.0
 51
331.68714685831389
  0
LINE
  5
45E
  8
0
 10
275.18222957248838
 20
113.71424436538381
 30
0.0
 11
276.7157295724885
 21
115.2477443653838
 31
0.0
  0
LINE
  5
45F
  8
0
 10
276.7157295724885
 20
132.18074436538379
 30
0.0
 11
275.18222957248838
 21
133.71424436538379
 31
0.0
  0
LINE
  5
460
  8
0
 10
275.18222957248838
 20
133.71424436538379
 30
0.0
 11
166.71572957248841
 21
133.71424436538379
 31
0.0
  0
LINE
  5
461
  8
0
 10
166.71572957248841
 20
113.71424436538381
 30
0.0
 11
275.18222957248838
 21
113.71424436538381
 31
0.0
  0
LINE
  5
462
  8
0
 10
166.71572957248841
 20
133.71424436538379
 30
0.0
 11
163.7712431996213
 21
132.0142443653838
 31
0.0
  0
LINE
  5
463
  8
0
 10
163.7712431996213
 20
115.41424436538379
 30
0.0
 11
166.71572957248841
 21
113.71424436538381
 31
0.0
  0
LINE
  5
464
  8
0
 10
163.7712431996213
 20
132.0142443653838
 30
0.0
 11
132.12222171054489
 21
132.0142443653838
 31
0.0
  0
LINE
  5
465
  8
0
 10
132.12222171054489
 20
115.41424436538379
 30
0.0
 11
163.7712431996213
 21
115.41424436538379
 31
0.0
  0
LINE
  5
466
  8
0
 10
109.7157295724884
 20
141.21424436538371
 30
0.0
 11
109.7157295724884
 21
141.10980773654251
 31
0.0
  0
LINE
  5
46A
  8
0
 10
102.7157295724884
 20
141.21424436538379
 30
0.0
 11
102.7157295724884
 21
106.21424436538381
 31
0.0
  0
LINE
  5
46C
  8
0
 10
109.7157295724884
 20
106.31868099422501
 30
0.0
 11
109.7157295724884
 21
106.21424436538371
 31
0.0
  0
LINE
  5
46F
  8
0
 10
116.7157295724884
 20
141.10980773654251
 30
0.0
 11
109.7157295724884
 21
141.10980773654251
 31
0.0
  0
LINE
  5
470
  8
0
 10
109.7157295724884
 20
106.31868099422501
 30
0.0
 11
116.7157295724884
 21
106.31868099422501
 31
0.0
  0
LINE
  5
471
  8
0
 10
116.7157295724884
 20
106.21424436538381
 30
0.0
 11
116.7157295724884
 21
141.21424436538379
 31
0.0
  0
LINE
  5
473
  8
0
 10
102.7157295724884
 20
141.21424436538379
 30
0.0
 11
116.7157295724884
 21
141.21424436538371
 31
0.0
  0
LINE
  5
475
  8
0
 10
116.7157295724884
 20
106.21424436538371
 30
0.0
 11
102.7157295724884
 21
106.21424436538381
 31
0.0
  0
LINE
  5
477
  8
0
 10
132.12222171054489
 20
132.0142443653838
 30
0.0
 11
132.12222171054489
 21
115.41424436538379
 31
0.0
  0
ARC
  5
478
  8
0
 10
116.7157295724884
 20
123.71424436538381
 30
0.0
 40
13.73053167215312
 50
270.0
 51
90.0
  0
LINE
  5
479
  8
0
 10
276.7157295724885
 20
132.18074436538379
 30
0.0
 11
276.7157295724885
 21
115.2477443653838
 31
0.0
  0
LINE
  5
47B
  8
0
 10
275.18222957248838
 20
133.71424436538379
 30
0.0
 11
275.18222957248838
 21
113.71424436538381
 31
0.0
  0
LINE
  5
480
  8
0
 10
163.7712431996213
 20
132.0142443653838
 30
0.0
 11
163.7712431996213
 21
115.41424436538379
 31
0.0
  0
LINE
  5
481
  8
3
 10
276.7157295724885
 20
115.2477443653838
 30
0.0
 11
166.71572957248841
 21
115.2477443653838
 31
0.0
  0
LINE
  5
482
  8
3
 10
276.7157295724885
 20
132.18074436538379
 30
0.0
 11
166.71572957248841
 21
132.18074436538379
 31
0.0
  0
LINE
  5
483
  8
0
 10
166.71572957248841
 20
133.71424436538379
 30
0.0
 11
166.71572957248841
 21
113.71424436538381
 31
0.0
  0
ARC
  5
4A7
  8
0
 10
48.534346142259892
 20
51.027200706340167
 30
0.0
 40
24.675000000000011
 50
224.8285237544406
 51
225.17147624556131
  0
ARC
  5
4A9
  8
0
 10
48.534346142259892
 20
51.027200706340167
 30
0.0
 40
17.674999999999979
 50
188.06930115939431
 51
261.93069884061049
  0
ARC
  5
4AB
  8
0
 10
48.534346142259892
 20
51.027200706340167
 30
0.0
 40
24.675000000000018
 50
134.82852375443909
 51
135.1714762455598
  0
ARC
  5
4AD
  8
0
 10
48.534346142259892
 20
51.027200706340167
 30
0.0
 40
17.675000000000001
 50
98.069301159392765
 51
171.9306988406087
  0
ARC
  5
4AF
  8
0
 10
48.534346142259892
 20
51.027200706340167
 30
0.0
 40
17.67499999999999
 50
8.0693011593935147
 51
81.930698840610503
  0
ARC
  5
4B0
  8
0
 10
48.534346142259892
 20
51.027200706340167
 30
0.0
 40
24.675000000000018
 50
44.828523754440127
 51
45.171476245560882
  0
ARC
  5
4B3
  8
0
 10
48.534346142259892
 20
51.027200706340167
 30
0.0
 40
24.675000000000011
 50
314.82852375443957
 51
315.17147624556031
  0
ARC
  5
4B4
  8
0
 10
48.534346142259892
 20
51.027200706340167
 30
0.0
 40
17.67499999999999
 50
278.06930115939269
 51
351.93069884060952
  0
LINE
  5
4B7
  8
0
 10
66.034346142259892
 20
68.422764077498954
 30
0.0
 11
66.034346142259892
 21
33.631637335181402
 31
0.0
  0
LINE
  5
4B8
  8
0
 10
31.034346142259889
 20
33.631637335181402
 30
0.0
 11
31.034346142259889
 21
68.422764077498925
 31
0.0
  0
LINE
  5
4B9
  8
0
 10
31.138782771101148
 20
68.527200706340182
 30
0.0
 11
65.929909513418636
 21
68.527200706340182
 31
0.0
  0
LINE
  5
4BA
  8
0
 10
65.929909513418636
 20
33.52720070634016
 30
0.0
 11
31.138782771101148
 21
33.527200706340182
 31
0.0
  0
CIRCLE
  5
4BC
  8
3
 10
330.89683262874621
 20
51.027200706340167
 30
0.0
 40
8.4665000000000106
  0
CIRCLE
  5
4BD
  8
0
 10
330.89683262874621
 20
51.027200706340167
 30
0.0
 40
10.0
  0
ARC
  5
4BE
  8
0
 10
330.89683262874638
 20
51.027200706340167
 30
0.0
 40
17.499999999999972
 50
179.9999999999998
 51
218.31613447366561
  0
ARC
  5
4BF
  8
0
 10
330.89683262874638
 20
51.027200706340167
 30
0.0
 40
17.499999999999979
 50
141.6838655263349
 51
179.9999999999998
  0
LINE
  5
4C0
  8
0
 10
317.16630095659332
 20
61.877200706340183
 30
0.0
 11
344.6273643008995
 21
61.877200706340183
 31
0.0
  0
ARC
  5
4C1
  8
0
 10
330.89683262874638
 20
51.027200706340167
 30
0.0
 40
17.500000000000028
 50
0.0000000000002036
 51
38.316134473665102
  0
ARC
  5
4C2
  8
0
 10
330.89683262874638
 20
51.027200706340167
 30
0.0
 40
17.500000000000028
 50
321.6838655263353
 51
0.0000000000002036
  0
LINE
  5
4C3
  8
0
 10
344.6273643008995
 20
40.177200706340173
 30
0.0
 11
317.16630095659332
 21
40.177200706340173
 31
0.0
  0
ARC
  5
4C4
  8
0
 10
330.89683262874638
 20
51.027200706340167
 30
0.0
 40
24.675000000000018
 50
314.82852375443957
 51
315.17147624556031
  0
ARC
  5
4C5
  8
0
 10
330.89683262874638
 20
51.027200706340167
 30
0.0
 40
24.67499999999999
 50
224.8285237544406
 51
225.17147624556131
  0
LINE
  5
4C6
  8
0
 10
313.39683262874638
 20
33.631637335181424
 30
0.0
 11
313.39683262874638
 21
68.422764077498925
 31
0.0
  0
LINE
  5
4C7
  8
0
 10
348.39683262874638
 20
68.422764077498954
 30
0.0
 11
348.39683262874638
 21
33.631637335181424
 31
0.0
  0
LINE
  5
4C8
  8
0
 10
348.29239599990512
 20
33.527200706340167
 30
0.0
 11
313.50126925758758
 21
33.527200706340167
 31
0.0
  0
ARC
  5
4CA
  8
0
 10
330.89683262874638
 20
51.027200706340167
 30
0.0
 40
24.675000000000011
 50
134.82852375443909
 51
135.1714762455598
  0
ARC
  5
4CB
  8
0
 10
330.89683262874638
 20
51.027200706340167
 30
0.0
 40
24.675000000000029
 50
44.828523754440127
 51
45.171476245560882
  0
LINE
  5
4CD
  8
0
 10
313.50126925758758
 20
68.527200706340182
 30
0.0
 11
348.29239599990512
 21
68.527200706340182
 31
0.0
  0
POLYLINE
  5
4D8
  8
0
 66
     1
 10
0.0
 20
0.0
 30
0.0
 70
     2
  0
VERTEX
  5
4D9
  8
0
 10
102.7157295724884
 20
126.1952975691663
 30
0.0
 42
-0.0024764256209024
  0
VERTEX
  5
4EA
  8
0
 10
102.7169453501742
 20
127.3142373270706
 30
0.0
 42
-0.0027068872596966
 70
     1
  0
VERTEX
  5
4DA
  8
0
 10
102.7286694070449
 20
128.33784637533819
 30
0.0
 42
-0.0000080840301667
  0
VERTEX
  5
4EB
  8
0
 10
102.7318296364096
 20
128.52501186295859
 30
0.0
 42
-0.000078822300611
 70
     1
  0
VERTEX
  5
4DB
  8
0
 10
102.7321570865693
 20
128.544207533703
 30
0.0
 42
-0.0076735279305816
  0
VERTEX
  5
4EC
  8
0
 10
102.7801826100895
 20
130.01861330111331
 30
0.0
 42
-0.0076046696186936
 70
     1
  0
VERTEX
  5
4DC
  8
0
 10
102.8740727787491
 20
131.50419287944959
 30
0.0
 42
-0.01081720602043
  0
VERTEX
  5
4ED
  8
0
 10
102.9503582851987
 20
132.26481196187831
 30
0.0
 42
-0.0085914536195922
 70
     1
  0
VERTEX
  5
4DD
  8
0
 10
103.08349228041349
 20
133.21799166521129
 30
0.0
 42
-0.0103473094477554
  0
VERTEX
  5
4EE
  8
0
 10
103.19587708129031
 20
133.8475529527762
 30
0.0
 42
-0.0087523749218935
 70
     1
  0
VERTEX
  5
4DE
  8
0
 10
103.3570632362855
 20
134.5861990425978
 30
0.0
 42
-0.0187311186506708
  0
VERTEX
  5
4EF
  8
0
 10
103.6313362077628
 20
135.5779429523958
 30
0.0
 42
-0.0210501856417584
 70
     1
  0
VERTEX
  5
4DF
  8
0
 10
103.94477942646149
 20
136.43832160784279
 30
0.0
 42
-0.0080701421414099
  0
VERTEX
  5
4F0
  8
0
 10
104.14851817583251
 20
136.9101803679408
 30
0.0
 42
-0.0113042695862678
 70
     1
  0
VERTEX
  5
4E0
  8
0
 10
104.3069177120712
 20
137.24117483764351
 30
0.0
 42
-0.0119537967907268
  0
VERTEX
  5
4F1
  8
0
 10
104.536166548864
 20
137.6680277040472
 30
0.0
 42
-0.0116239040634836
 70
     1
  0
VERTEX
  5
4E1
  8
0
 10
104.7923486017342
 20
138.0953911590544
 30
0.0
 42
-0.0159713627090758
  0
VERTEX
  5
4F2
  8
0
 10
105.0257203228138
 20
138.4400479626905
 30
0.0
 42
-0.0125770080924398
 70
     1
  0
VERTEX
  5
4E2
  8
0
 10
105.3465362453568
 20
138.86005835108131
 30
0.0
 42
-0.020710881549144
  0
VERTEX
  5
4F3
  8
0
 10
105.669950692336
 20
139.22965150060361
 30
0.0
 42
-0.0173450161743705
 70
     1
  0
VERTEX
  5
4E3
  8
0
 10
106.088506238912
 20
139.6402752442774
 30
0.0
 42
-0.0225714140948451
  0
VERTEX
  5
4F4
  8
0
 10
106.50056056398159
 20
139.98454333453759
 30
0.0
 42
-0.024055224599304
 70
     1
  0
VERTEX
  5
4E4
  8
0
 10
106.9156220722262
 20
140.27019602242819
 30
0.0
 42
-0.0208892077102482
  0
VERTEX
  5
4F5
  8
0
 10
107.44720970636691
 20
140.56957216507311
 30
0.0
 42
-0.0274282193021892
 70
     1
  0
VERTEX
  5
4E5
  8
0
 10
107.8723048800622
 20
140.75751747182539
 30
0.0
 42
-0.006112318071825
  0
VERTEX
  5
4F6
  8
0
 10
108.0794881146422
 20
140.8329618996917
 30
0.0
 42
-0.0084961455132958
 70
     1
  0
VERTEX
  5
4E6
  8
0
 10
108.23006755779279
 20
140.88286274489681
 30
0.0
 42
-0.0198372837852598
  0
VERTEX
  5
4F8
  8
0
 10
108.3612011345989
 20
140.91821667363649
 30
0.0
 42
-0.0041357554173914
 70
     1
  0
VERTEX
  5
4E7
  8
0
 10
108.9973519427663
 20
141.0574031247944
 30
0.0
 42
-0.0335899651427326
  0
VERTEX
  5
4F7
  8
0
 10
109.2468506301642
 20
141.09255640095591
 30
0.0
 42
-0.0180236667302006
 70
     1
  0
VERTEX
  5
4E8
  8
0
 10
109.7157295724884
 20
141.10980773654251
 30
0.0
  0
SEQEND
  5
4E9
  8
0
  0
POLYLINE
  5
4F9
  8
0
 66
     1
 10
0.0
 20
0.0
 30
0.0
 70
     2
  0
VERTEX
  5
4FA
  8
0
 10
102.7157295724884
 20
121.2331911616013
 30
0.0
 42
0.0024764256209024
  0
VERTEX
  5
4FB
  8
0
 10
102.7169453501742
 20
120.114251403697
 30
0.0
 42
0.0027068872596966
 70
     1
  0
VERTEX
  5
4FC
  8
0
 10
102.7286694070449
 20
119.0906423554294
 30
0.0
 42
0.0000080840301667
  0
VERTEX
  5
4FD
  8
0
 10
102.7318296364096
 20
118.903476867809
 30
0.0
 42
0.000078822300611
 70
     1
  0
VERTEX
  5
4FE
  8
0
 10
102.7321570865693
 20
118.8842811970646
 30
0.0
 42
0.0076735279305816
  0
VERTEX
  5
4FF
  8
0
 10
102.7801826100895
 20
117.40987542965431
 30
0.0
 42
0.0076046696186936
 70
     1
  0
VERTEX
  5
500
  8
0
 10
102.8740727787491
 20
115.92429585131789
 30
0.0
 42
0.01081720602043
  0
VERTEX
  5
501
  8
0
 10
102.9503582851987
 20
115.1636767688893
 30
0.0
 42
0.0085914536195922
 70
     1
  0
VERTEX
  5
502
  8
0
 10
103.08349228041349
 20
114.2104970655563
 30
0.0
 42
0.0103473094477554
  0
VERTEX
  5
503
  8
0
 10
103.19587708129031
 20
113.5809357779914
 30
0.0
 42
0.0087523749218935
 70
     1
  0
VERTEX
  5
504
  8
0
 10
103.3570632362855
 20
112.8422896881698
 30
0.0
 42
0.0187311186506708
  0
VERTEX
  5
505
  8
0
 10
103.6313362077628
 20
111.8505457783718
 30
0.0
 42
0.0210501856417584
 70
     1
  0
VERTEX
  5
506
  8
0
 10
103.94477942646149
 20
110.9901671229248
 30
0.0
 42
0.0080701421414099
  0
VERTEX
  5
507
  8
0
 10
104.14851817583251
 20
110.5183083628268
 30
0.0
 42
0.0113042695862678
 70
     1
  0
VERTEX
  5
508
  8
0
 10
104.3069177120712
 20
110.1873138931241
 30
0.0
 42
0.0119537967907268
  0
VERTEX
  5
509
  8
0
 10
104.536166548864
 20
109.76046102672041
 30
0.0
 42
0.0116239040634836
 70
     1
  0
VERTEX
  5
50A
  8
0
 10
104.7923486017342
 20
109.3330975717132
 30
0.0
 42
0.0159713627090758
  0
VERTEX
  5
50B
  8
0
 10
105.0257203228138
 20
108.9884407680771
 30
0.0
 42
0.0125770080924398
 70
     1
  0
VERTEX
  5
50C
  8
0
 10
105.3465362453568
 20
108.5684303796863
 30
0.0
 42
0.020710881549144
  0
VERTEX
  5
50D
  8
0
 10
105.669950692336
 20
108.198837230164
 30
0.0
 42
0.0173450161743705
 70
     1
  0
VERTEX
  5
50E
  8
0
 10
106.088506238912
 20
107.78821348649021
 30
0.0
 42
0.0225714140948451
  0
VERTEX
  5
50F
  8
0
 10
106.50056056398159
 20
107.44394539623001
 30
0.0
 42
0.024055224599304
 70
     1
  0
VERTEX
  5
510
  8
0
 10
106.9156220722262
 20
107.1582927083394
 30
0.0
 42
0.0208892077102482
  0
VERTEX
  5
511
  8
0
 10
107.44720970636691
 20
106.8589165656945
 30
0.0
 42
0.0274282193021892
 70
     1
  0
VERTEX
  5
512
  8
0
 10
107.8723048800622
 20
106.6709712589422
 30
0.0
 42
0.006112318071825
  0
VERTEX
  5
513
  8
0
 10
108.0794881146422
 20
106.5955268310759
 30
0.0
 42
0.0084961455132958
 70
     1
  0
VERTEX
  5
514
  8
0
 10
108.23006755779279
 20
106.5456259858708
 30
0.0
 42
0.0198372837852598
  0
VERTEX
  5
515
  8
0
 10
108.3612011345989
 20
106.5102720571311
 30
0.0
 42
0.0041357554173914
 70
     1
  0
VERTEX
  5
516
  8
0
 10
108.9973519427663
 20
106.37108560597321
 30
0.0
 42
0.0335899651427326
  0
VERTEX
  5
517
  8
0
 10
109.2468506301642
 20
106.3359323298117
 30
0.0
 42
0.0180236667302006
 70
     1
  0
VERTEX
  5
518
  8
0
 10
109.7157295724884
 20
106.3186809942251
 30
0.0
  0
SEQEND
  5
519
  8
0
  0
POLYLINE
  5
51A
  8
0
 66
     1
 10
0.0
 20
0.0
 30
0.0
 70
     2
  0
VERTEX
  5
51B
  8
0
 10
102.7157295724884
 20
48.546147502557702
 30
0.0
 42
0.0024764256209024
  0
VERTEX
  5
51C
  8
0
 10
102.7169453501742
 20
47.427207744653387
 30
0.0
 42
0.0027068872596966
 70
     1
  0
VERTEX
  5
51D
  8
0
 10
102.7286694070449
 20
46.403598696385792
 30
0.0
 42
0.0000080840301667
  0
VERTEX
  5
51E
  8
0
 10
102.7318296364096
 20
46.216433208765331
 30
0.0
 42
0.000078822300611
 70
     1
  0
VERTEX
  5
51F
  8
0
 10
102.7321570865693
 20
46.197237538020929
 30
0.0
 42
0.0076735279305816
  0
VERTEX
  5
520
  8
0
 10
102.7801826100895
 20
44.722831770610682
 30
0.0
 42
0.0076046696186936
 70
     1
  0
VERTEX
  5
521
  8
0
 10
102.8740727787491
 20
43.237252192274312
 30
0.0
 42
0.01081720602043
  0
VERTEX
  5
522
  8
0
 10
102.9503582851987
 20
42.476633109845679
 30
0.0
 42
0.0085914536195922
 70
     1
  0
VERTEX
  5
523
  8
0
 10
103.08349228041349
 20
41.523453406512672
 30
0.0
 42
0.0103473094477554
  0
VERTEX
  5
524
  8
0
 10
103.19587708129031
 20
40.893892118947733
 30
0.0
 42
0.0087523749218935
 70
     1
  0
VERTEX
  5
525
  8
0
 10
103.3570632362855
 20
40.155246029126189
 30
0.0
 42
0.0187311186506708
  0
VERTEX
  5
526
  8
0
 10
103.6313362077628
 20
39.163502119328193
 30
0.0
 42
0.0210501856417584
 70
     1
  0
VERTEX
  5
527
  8
0
 10
103.94477942646149
 20
38.303123463881171
 30
0.0
 42
0.0080701421414099
  0
VERTEX
  5
528
  8
0
 10
104.14851817583251
 20
37.831264703783162
 30
0.0
 42
0.0113042695862678
 70
     1
  0
VERTEX
  5
529
  8
0
 10
104.3069177120712
 20
37.500270234080453
 30
0.0
 42
0.0119537967907268
  0
VERTEX
  5
52A
  8
0
 10
104.536166548864
 20
37.073417367676811
 30
0.0
 42
0.0116239040634836
 70
     1
  0
VERTEX
  5
52B
  8
0
 10
104.7923486017342
 20
36.646053912669529
 30
0.0
 42
0.0159713627090758
  0
VERTEX
  5
52C
  8
0
 10
105.0257203228138
 20
36.301397109033459
 30
0.0
 42
0.0125770080924398
 70
     1
  0
VERTEX
  5
52D
  8
0
 10
105.3465362453568
 20
35.881386720642681
 30
0.0
 42
0.020710881549144
  0
VERTEX
  5
52E
  8
0
 10
105.669950692336
 20
35.511793571120378
 30
0.0
 42
0.0173450161743705
 70
     1
  0
VERTEX
  5
52F
  8
0
 10
106.088506238912
 20
35.101169827446533
 30
0.0
 42
0.0225714140948451
  0
VERTEX
  5
530
  8
0
 10
106.50056056398159
 20
34.75690173718634
 30
0.0
 42
0.024055224599304
 70
     1
  0
VERTEX
  5
531
  8
0
 10
106.9156220722262
 20
34.471249049295771
 30
0.0
 42
0.0208892077102482
  0
VERTEX
  5
532
  8
0
 10
107.44720970636691
 20
34.171872906650819
 30
0.0
 42
0.0274282193021892
 70
     1
  0
VERTEX
  5
533
  8
0
 10
107.8723048800622
 20
33.983927599898571
 30
0.0
 42
0.006112318071825
  0
VERTEX
  5
534
  8
0
 10
108.0794881146422
 20
33.908483172032241
 30
0.0
 42
0.0084961455132958
 70
     1
  0
VERTEX
  5
535
  8
0
 10
108.23006755779279
 20
33.858582326827182
 30
0.0
 42
0.0198372837852598
  0
VERTEX
  5
536
  8
0
 10
108.3612011345989
 20
33.823228398087487
 30
0.0
 42
0.0041357554173914
 70
     1
  0
VERTEX
  5
537
  8
0
 10
108.9973519427663
 20
33.68404194692959
 30
0.0
 42
0.0335899651427326
  0
VERTEX
  5
538
  8
0
 10
109.2468506301642
 20
33.648888670768073
 30
0.0
 42
0.0180236667302006
 70
     1
  0
VERTEX
  5
539
  8
0
 10
109.7157295724884
 20
33.631637335181452
 30
0.0
  0
SEQEND
  5
53A
  8
0
  0
POLYLINE
  5
53B
  8
0
 66
     1
 10
0.0
 20
0.0
 30
0.0
 70
     2
  0
VERTEX
  5
53C
  8
0
 10
102.7157295724884
 20
53.508253910122633
 30
0.0
 42
-0.0024764256209024
  0
VERTEX
  5
53D
  8
0
 10
102.7169453501742
 20
54.627193668026941
 30
0.0
 42
-0.0027068872596966
 70
     1
  0
VERTEX
  5
53E
  8
0
 10
102.7286694070449
 20
55.650802716294542
 30
0.0
 42
-0.0000080840301667
  0
VERTEX
  5
53F
  8
0
 10
102.7318296364096
 20
55.837968203914997
 30
0.0
 42
-0.000078822300611
 70
     1
  0
VERTEX
  5
540
  8
0
 10
102.7321570865693
 20
55.857163874659399
 30
0.0
 42
-0.0076735279305816
  0
VERTEX
  5
541
  8
0
 10
102.7801826100895
 20
57.331569642069653
 30
0.0
 42
-0.0076046696186936
 70
     1
  0
VERTEX
  5
542
  8
0
 10
102.8740727787491
 20
58.817149220406023
 30
0.0
 42
-0.01081720602043
  0
VERTEX
  5
543
  8
0
 10
102.9503582851987
 20
59.577768302834649
 30
0.0
 42
-0.0085914536195922
 70
     1
  0
VERTEX
  5
544
  8
0
 10
103.08349228041349
 20
60.530948006167662
 30
0.0
 42
-0.0103473094477554
  0
VERTEX
  5
545
  8
0
 10
103.19587708129031
 20
61.160509293732602
 30
0.0
 42
-0.0087523749218935
 70
     1
  0
VERTEX
  5
546
  8
0
 10
103.3570632362855
 20
61.899155383554138
 30
0.0
 42
-0.0187311186506708
  0
VERTEX
  5
547
  8
0
 10
103.6313362077628
 20
62.890899293352149
 30
0.0
 42
-0.0210501856417584
 70
     1
  0
VERTEX
  5
548
  8
0
 10
103.94477942646149
 20
63.751277948799171
 30
0.0
 42
-0.0080701421414099
  0
VERTEX
  5
549
  8
0
 10
104.14851817583251
 20
64.223136708897172
 30
0.0
 42
-0.0113042695862678
 70
     1
  0
VERTEX
  5
54A
  8
0
 10
104.3069177120712
 20
64.554131178599889
 30
0.0
 42
-0.0119537967907268
  0
VERTEX
  5
54B
  8
0
 10
104.536166548864
 20
64.980984045003524
 30
0.0
 42
-0.0116239040634836
 70
     1
  0
VERTEX
  5
54C
  8
0
 10
104.7923486017342
 20
65.408347500010805
 30
0.0
 42
-0.0159713627090758
  0
VERTEX
  5
54D
  8
0
 10
105.0257203228138
 20
65.753004303646875
 30
0.0
 42
-0.0125770080924398
 70
     1
  0
VERTEX
  5
54E
  8
0
 10
105.3465362453568
 20
66.173014692037654
 30
0.0
 42
-0.020710881549144
  0
VERTEX
  5
54F
  8
0
 10
105.669950692336
 20
66.542607841559956
 30
0.0
 42
-0.0173450161743705
 70
     1
  0
VERTEX
  5
550
  8
0
 10
106.088506238912
 20
66.953231585233809
 30
0.0
 42
-0.0225714140948451
  0
VERTEX
  5
551
  8
0
 10
106.50056056398159
 20
67.297499675493995
 30
0.0
 42
-0.024055224599304
 70
     1
  0
VERTEX
  5
552
  8
0
 10
106.9156220722262
 20
67.583152363384571
 30
0.0
 42
-0.0208892077102482
  0
VERTEX
  5
553
  8
0
 10
107.44720970636691
 20
67.882528506029516
 30
0.0
 42
-0.0274282193021892
 70
     1
  0
VERTEX
  5
554
  8
0
 10
107.8723048800622
 20
68.070473812781771
 30
0.0
 42
-0.006112318071825
  0
VERTEX
  5
555
  8
0
 10
108.0794881146422
 20
68.145918240648101
 30
0.0
 42
-0.0084961455132958
 70
     1
  0
VERTEX
  5
556
  8
0
 10
108.23006755779279
 20
68.195819085853159
 30
0.0
 42
-0.0198372837852598
  0
VERTEX
  5
557
  8
0
 10
108.3612011345989
 20
68.231173014592841
 30
0.0
 42
-0.0041357554173914
 70
     1
  0
VERTEX
  5
558
  8
0
 10
108.9973519427663
 20
68.370359465750752
 30
0.0
 42
-0.0335899651427326
  0
VERTEX
  5
559
  8
0
 10
109.2468506301642
 20
68.405512741912261
 30
0.0
 42
-0.0180236667302006
 70
     1
  0
VERTEX
  5
55A
  8
0
 10
109.7157295724884
 20
68.422764077498883
 30
0.0
  0
SEQEND
  5
55B
  8
0
  0
LINE
  5
55C
  8
1
 10
353.39683262874638
 20
51.027200706340167
 30
0.0
 11
308.39683262874638
 21
51.027200706340167
 31
0.0
  0
LINE
  5
55D
  8
1
 10
48.534346142259892
 20
28.527200706340171
 30
0.0
 11
48.534346142259892
 21
73.527200706340182
 31
0.0
  0
LINE
  5
55E
  8
1
 10
281.71572957248839
 20
123.71424436538381
 30
0.0
 11
97.715729572488286
 21
123.71424436538381
 31
0.0
  0
LINE
  5
55F
  8
1
 10
330.89683262874621
 20
73.527200706340182
 30
0.0
 11
330.89683262874621
 21
28.527200706340171
 31
0.0
  0
LINE
  5
56A
  8
1
 10
71.034346142259892
 20
51.027200706340167
 30
0.0
 11
26.034346142259889
 21
51.027200706340167
 31
0.0
  0
LINE
  5
56B
  8
1
 10
281.71572957248861
 20
51.027200706340167
 30
0.0
 11
97.715729572488286
 21
51.027200706340167
 31
0.0
  0
TEXT
  5
63F
  8
0
 62
     3
 10
0.0
 20
0.0
 30
0.0
 40
10.0
  1
BJ755-22160
  7
STANDARD1
  0
ENDSEC
  0
EOF
