  0
SECTION
  2
HEADER
  9
$ACADVER
  1
AC1009
  9
$INSBASE
 10
0.0
 20
0.0
 30
0.0
  9
$EXTMIN
 10
0.0
 20
-2.960436562073669
 30
0.0
  9
$EXTMAX
 10
83.110504774897677
 20
89.997894708599503
 30
0.0
  9
$LIMMIN
 10
0.0
 20
0.0
  9
$LIMMAX
 10
187.5
 20
135.0
  9
$ORTHOMODE
 70
     1
  9
$REGENMODE
 70
     1
  9
$FILLMODE
 70
     1
  9
$QTEXTMODE
 70
     0
  9
$MIRRTEXT
 70
     0
  9
$DRAGMODE
 70
     2
  9
$LTSCALE
 40
5.0
  9
$OSMODE
 70
  3071
  9
$ATTMODE
 70
     1
  9
$TEXTSIZE
 40
2.5000000000000488
  9
$TRACEWID
 40
0.05
  9
$TEXTSTYLE
  7
STANDARD
  9
$CLAYER
  8
0
  9
$CELTYPE
  6
BYLAYER
  9
$CECOLOR
 62
   256
  9
$DIMSCALE
 40
0.5
  9
$DIMASZ
 40
3.0
  9
$DIMEXO
 40
2.0
  9
$DIMDLI
 40
10.0
  9
$DIMRND
 40
0.0
  9
$DIMDLE
 40
0.0
  9
$DIMEXE
 40
2.0
  9
$DIMTP
 40
0.0
  9
$DIMTM
 40
0.0
  9
$DIMTXT
 40
3.2000000000000002
  9
$DIMCEN
 40
0.0
  9
$DIMTSZ
 40
0.0
  9
$DIMTOL
 70
     0
  9
$DIMLIM
 70
     0
  9
$DIMTIH
 70
     0
  9
$DIMTOH
 70
     0
  9
$DIMSE1
 70
     0
  9
$DIMSE2
 70
     0
  9
$DIMTAD
 70
     1
  9
$DIMZIN
 70
     0
  9
$DIMBLK
  1

  9
$DIMASO
 70
     1
  9
$DIMSHO
 70
     0
  9
$DIMPOST
  1

  9
$DIMAPOST
  1

  9
$DIMALT
 70
     0
  9
$DIMALTD
 70
     2
  9
$DIMALTF
 40
25.399999999999999
  9
$DIMLFAC
 40
1.0
  9
$DIMTOFL
 70
     1
  9
$DIMTVP
 40
1.6000000000000001
  9
$DIMTIX
 70
     1
  9
$DIMSOXD
 70
     0
  9
$DIMSAH
 70
     0
  9
$DIMBLK1
  1

  9
$DIMBLK2
  1

  9
$DIMSTYLE
  2
STANDARD
  9
$DIMCLRD
 70
     0
  9
$DIMCLRE
 70
     0
  9
$DIMCLRT
 70
     0
  9
$DIMTFAC
 40
1.0
  9
$DIMGAP
 40
0.09
  9
$LUNITS
 70
     2
  9
$LUPREC
 70
     4
  9
$SKETCHINC
 40
0.1
  9
$FILLETRAD
 40
0.0
  9
$AUNITS
 70
     0
  9
$AUPREC
 70
     4
  9
$MENU
  1
E:\r13\win\SUPPORT\ACAD
  9
$ELEVATION
 40
0.0
  9
$PELEVATION
 40
0.0
  9
$THICKNESS
 40
0.0
  9
$LIMCHECK
 70
     0
  9
$BLIPMODE
 70
     0
  9
$CHAMFERA
 40
0.0
  9
$CHAMFERB
 40
0.0
  9
$SKPOLY
 70
     0
  9
$TDCREATE
 40
2449839.7731481479
  9
$TDUPDATE
 40
2456602.6160685071
  9
$TDINDWG
 40
0.1052952894
  9
$TDUSRTIMER
 40
2456598.40914765
  9
$USRTIMER
 70
     1
  9
$ANGBASE
 50
0.0
  9
$ANGDIR
 70
     0
  9
$PDMODE
 70
    35
  9
$PDSIZE
 40
0.0
  9
$PLINEWID
 40
0.0
  9
$COORDS
 70
     1
  9
$SPLFRAME
 70
     0
  9
$SPLINETYPE
 70
     6
  9
$SPLINESEGS
 70
     8
  9
$ATTDIA
 70
     0
  9
$ATTREQ
 70
     1
  9
$HANDLING
 70
     1
  9
$HANDSEED
  5
819
  9
$SURFTAB1
 70
     6
  9
$SURFTAB2
 70
     6
  9
$SURFTYPE
 70
     6
  9
$SURFU
 70
     6
  9
$SURFV
 70
     6
  9
$UCSNAME
  2

  9
$UCSORG
 10
0.0
 20
0.0
 30
0.0
  9
$UCSXDIR
 10
1.0
 20
0.0
 30
0.0
  9
$UCSYDIR
 10
0.0
 20
1.0
 30
0.0
  9
$PUCSNAME
  2

  9
$PUCSORG
 10
0.0
 20
0.0
 30
0.0
  9
$PUCSXDIR
 10
1.0
 20
0.0
 30
0.0
  9
$PUCSYDIR
 10
0.0
 20
1.0
 30
0.0
  9
$USERI1
 70
     0
  9
$USERI2
 70
     1
  9
$USERI3
 70
     1
  9
$USERI4
 70
     0
  9
$USERI5
 70
     0
  9
$USERR1
 40
0.0
  9
$USERR2
 40
0.0
  9
$USERR3
 40
0.0
  9
$USERR4
 40
0.0
  9
$USERR5
 40
0.0
  9
$WORLDVIEW
 70
     1
  9
$SHADEDGE
 70
     3
  9
$SHADEDIF
 70
    70
  9
$TILEMODE
 70
     1
  9
$MAXACTVP
 70
    16
  9
$PLIMCHECK
 70
     0
  9
$PEXTMIN
 10
1.0000000000000000E+020
 20
1.0000000000000000E+020
 30
1.0000000000000000E+020
  9
$PEXTMAX
 10
-1.0000000000000000E+020
 20
-1.0000000000000000E+020
 30
-1.0000000000000000E+020
  9
$PLIMMIN
 10
0.0
 20
0.0
  9
$PLIMMAX
 10
12.0
 20
9.0
  9
$UNITMODE
 70
     0
  9
$VISRETAIN
 70
     0
  9
$PLINEGEN
 70
     0
  9
$PSLTSCALE
 70
     0
  0
ENDSEC
  0
SECTION
  2
TABLES
  0
TABLE
  2
VPORT
 70
     1
  0
VPORT
  2
*ACTIVE
 70
     0
 10
0.0
 20
0.0
 11
1.0
 21
1.0
 12
97.570150770051072
 22
66.014785922033241
 13
0.0
 23
0.0
 14
5.0
 24
5.0
 15
5.0
 25
5.0
 16
0.0
 26
0.0
 36
1.0
 17
0.0
 27
0.0
 37
0.0
 40
139.20783109903601
 41
1.831871345029239
 42
50.0
 43
0.0
 44
0.0
 50
0.0
 51
0.0
 71
     0
 72
   500
 73
     1
 74
     0
 75
     0
 76
     0
 77
     0
 78
     2
  0
ENDTAB
  0
TABLE
  2
LTYPE
 70
     4
  0
LTYPE
  2
CONTINUOUS
 70
     0
  3
Solid Line
 72
    65
 73
     0
 40
0.0
  0
LTYPE
  2
CENTER
 70
     0
  3
____ _ ____ _ ____ _ ____ _ ____ _ ____ _ ____
 72
    65
 73
     4
 40
2.0
 49
1.25
 49
-0.25
 49
0.25
 49
-0.25
  0
LTYPE
  2
HIDDEN
 70
     0
  3
_ _ _ _ _ _ _ _ _ _ _ _ _ _ _ _ _ _ _ _ _ _ _
 72
    65
 73
     2
 40
0.375
 49
0.25
 49
-0.125
  0
LTYPE
  2
PHANTOM2
 70
     0
  3
___ _ _ ___ _ _ ___ _ _ ___ _ _
 72
    65
 73
     6
 40
1.25
 49
0.625
 49
-0.125
 49
0.125
 49
-0.125
 49
0.125
 49
-0.125
  0
ENDTAB
  0
TABLE
  2
LAYER
 70
     5
  0
LAYER
  2
0
 70
     0
 62
     7
  6
CONTINUOUS
  0
LAYER
  2
1
 70
     0
 62
     1
  6
CENTER
  0
LAYER
  2
3
 70
     0
 62
     3
  6
CONTINUOUS
  0
LAYER
  2
2
 70
     0
 62
     2
  6
HIDDEN
  0
LAYER
  2
DEFPOINTS
 70
     0
 62
     7
  6
CONTINUOUS
  0
ENDTAB
  0
TABLE
  2
STYLE
 70
     2
  0
STYLE
  2
STANDARD
 70
     0
 40
0.0
 41
1.0
 50
0.0
 71
     0
 42
2.5000000000000488
  3
TXT
  4
BIGFONT
  0
STYLE
  2
STANDARD1
 70
     0
 40
0.0
 41
1.0
 50
0.0
 71
     0
 42
3.0
  3
txt
  4

  0
ENDTAB
  0
TABLE
  2
VIEW
 70
     1
  0
VIEW
  2
ALL
 70
     0
 40
135.0
 10
106.6284453781512
 20
67.5
 41
0.0
 11
0.0
 21
0.0
 31
1.0
 12
0.0
 22
0.0
 32
0.0
 42
0.0
 43
0.0
 44
0.0
 50
0.0
 71
     0
  0
ENDTAB
  0
TABLE
  2
UCS
 70
     0
  0
ENDTAB
  0
TABLE
  2
APPID
 70
     3
  0
APPID
  2
ACAD
 70
     0
  0
APPID
  2
ACAD_MLEADERVER
 70
     0
  0
APPID
  2
ACAD_NAV_VCDISPLAY
 70
     0
  0
ENDTAB
  0
TABLE
  2
DIMSTYLE
 70
     1
  0
DIMSTYLE
  2
STANDARD
 70
     0
  3

  4

  5

  6

  7

 40
1.0
 41
0.18
 42
0.0625
 43
0.38
 44
0.18
 45
0.0
 46
0.0
 47
0.0
 48
0.0
140
0.18
141
0.09
142
0.0
143
25.399999999999999
144
1.0
145
0.0
146
1.0
147
0.09
 71
     0
 72
     0
 73
     1
 74
     1
 75
     0
 76
     0
 77
     0
 78
     0
170
     0
171
     2
172
     0
173
     0
174
     0
175
     0
176
     0
177
     0
178
     0
  0
ENDTAB
  0
ENDSEC
  0
SECTION
  2
BLOCKS
  0
BLOCK
  8
0
  2
$MODEL_SPACE
 70
     0
 10
0.0
 20
0.0
 30
0.0
  3
$MODEL_SPACE
  1

  0
ENDBLK
  5
E9
  8
0
  0
BLOCK
 67
     1
  8
0
  2
$PAPER_SPACE
 70
     0
 10
0.0
 20
0.0
 30
0.0
  3
$PAPER_SPACE
  1

  0
ENDBLK
  5
E7
 67
     1
  8
0
  0
ENDSEC
  0
SECTION
  2
ENTITIES
  0
CIRCLE
  5
3C7
  8
0
 10
34.922827745392837
 20
74.997894708599503
 30
0.0
 40
12.0
  0
CIRCLE
  5
3C8
  8
0
 10
34.922827745392837
 20
74.997894708599503
 30
0.0
 40
11.4
  0
LINE
  5
3D9
  8
1
 10
34.922827745392837
 20
59.99789470859951
 30
0.0
 11
34.922827745392837
 21
89.997894708599503
 31
0.0
  0
LINE
  5
3DA
  8
1
 10
49.92282774539283
 20
74.997894708599503
 30
0.0
 11
19.92282774539283
 21
74.997894708599503
 31
0.0
  0
LINE
  5
3EC
  8
0
 10
46.922827745392851
 20
44.946163613359332
 30
0.0
 11
46.322827745392857
 21
45.546163613359333
 31
0.0
  0
LINE
  5
3ED
  8
0
 10
23.522827745392838
 20
45.546163613359333
 30
0.0
 11
22.922827745392851
 21
44.946163613359339
 31
0.0
  0
LINE
  5
3EE
  8
0
 10
46.922827745392851
 20
36.146163613359327
 30
0.0
 11
46.922827745392851
 21
44.946163613359332
 31
0.0
  0
LINE
  5
3EF
  8
0
 10
22.922827745392851
 20
44.946163613359339
 30
0.0
 11
22.922827745392851
 21
36.146163613359327
 31
0.0
  0
LINE
  5
3F0
  8
0
 10
46.322827745392857
 20
35.54616361335934
 30
0.0
 11
46.922827745392851
 21
36.146163613359327
 31
0.0
  0
LINE
  5
3F1
  8
0
 10
22.922827745392851
 20
36.146163613359327
 30
0.0
 11
23.522827745392838
 21
35.54616361335934
 31
0.0
  0
ARC
  5
3F2
  8
0
 10
26.322827745392861
 20
34.946163613359353
 30
0.0
 40
0.5999999999999961
 50
0.0
 51
90.0
  0
ARC
  5
3F3
  8
0
 10
43.522827745392838
 20
34.946163613359339
 30
0.0
 40
0.5999999999999961
 50
90.0
 51
180.0
  0
LINE
  5
3F4
  8
0
 10
42.922827745392851
 20
32.146163613359327
 30
0.0
 11
42.922827745392851
 21
34.946163613359332
 31
0.0
  0
LINE
  5
3F5
  8
0
 10
26.922827745392851
 20
34.946163613359339
 30
0.0
 11
26.922827745392851
 21
32.146163613359342
 31
0.0
  0
LINE
  5
3F6
  8
0
 10
42.322827745392843
 20
31.54616361335933
 30
0.0
 11
42.922827745392851
 21
32.146163613359327
 31
0.0
  0
LINE
  5
3F7
  8
0
 10
26.922827745392851
 20
32.146163613359327
 30
0.0
 11
27.522827745392849
 21
31.54616361335934
 31
0.0
  0
LINE
  5
3FC
  8
0
 10
46.922827745392851
 20
44.946163613359332
 30
0.0
 11
22.922827745392851
 21
44.946163613359339
 31
0.0
  0
LINE
  5
3FD
  8
0
 10
46.922827745392851
 20
36.146163613359327
 30
0.0
 11
22.922827745392851
 21
36.146163613359327
 31
0.0
  0
LINE
  5
3FE
  8
0
 10
46.322827745392857
 20
35.546163613359333
 30
0.0
 11
23.522827745392838
 21
35.54616361335934
 31
0.0
  0
LINE
  5
400
  8
0
 10
42.922827745392851
 20
34.946163613359332
 30
0.0
 11
26.922827745392851
 21
34.946163613359339
 31
0.0
  0
LINE
  5
401
  8
0
 10
42.922827745392851
 20
32.146163613359327
 30
0.0
 11
26.922827745392851
 21
32.146163613359327
 31
0.0
  0
LINE
  5
402
  8
0
 10
42.322827745392843
 20
31.54616361335933
 30
0.0
 11
27.522827745392849
 21
31.54616361335934
 31
0.0
  0
LINE
  5
405
  8
0
 10
46.322827745392857
 20
45.546163613359333
 30
0.0
 11
23.522827745392838
 21
45.546163613359333
 31
0.0
  0
LINE
  5
411
  8
1
 10
34.922827745392851
 20
48.54616361335934
 30
0.0
 11
34.922827745392837
 21
28.54616361335934
 31
0.0
  0
LINE
  5
412
  8
1
 10
32.243335821081587
 20
48.54616361335934
 30
0.0
 11
37.602319669704052
 21
28.54616361335934
 31
0.0
  0
CIRCLE
  5
443
  8
3
 10
34.922827745392837
 20
74.997894708599503
 30
0.0
 40
3.0
  0
CIRCLE
  5
444
  8
0
 10
34.922827745392837
 20
74.997894708599503
 30
0.0
 40
2.458499999999999
  0
LINE
  5
445
  8
2
 10
31.922827745392841
 20
37.764835790081548
 30
0.0
 11
31.922827745392841
 21
31.54616361335934
 31
0.0
  0
LINE
  5
446
  8
2
 10
32.464327745392843
 20
35.743930277783022
 30
0.0
 11
32.464327745392843
 21
31.54616361335934
 31
0.0
  0
LINE
  5
447
  8
2
 10
37.381327745392838
 20
45.546163613359333
 30
0.0
 11
37.381327745392838
 21
41.348396948935772
 31
0.0
  0
LINE
  5
448
  8
2
 10
37.922827745392837
 20
45.546163613359333
 30
0.0
 11
37.92282774539283
 21
39.327491436637303
 31
0.0
  0
LINE
  5
4AF
  8
3
 10
46.885835750190353
 20
44.946163613359332
 30
0.0
 11
46.885835750190353
 21
36.146163613359327
 31
0.0
  0
LINE
  5
4B0
  8
3
 10
46.77508783253446
 20
44.946163613359332
 30
0.0
 11
46.775087832534503
 21
36.146163613359327
 31
0.0
  0
LINE
  5
4B1
  8
3
 10
46.591266790164951
 20
44.946163613359332
 30
0.0
 11
46.591266790164937
 21
36.146163613359327
 31
0.0
  0
LINE
  5
4B2
  8
3
 10
46.335505940934659
 20
44.946163613359332
 30
0.0
 11
46.335505940934659
 21
36.146163613359327
 31
0.0
  0
LINE
  5
4B3
  8
3
 10
46.009382135528249
 20
44.946163613359332
 30
0.0
 11
46.009382135528249
 21
36.146163613359327
 31
0.0
  0
LINE
  5
4B4
  8
3
 10
45.614906035653227
 20
44.946163613359332
 30
0.0
 11
45.614906035653227
 21
36.146163613359327
 31
0.0
  0
LINE
  5
4B5
  8
3
 10
45.154509717641929
 20
44.946163613359332
 30
0.0
 11
45.154509717641929
 21
36.146163613359327
 31
0.0
  0
LINE
  5
4B6
  8
3
 10
44.631031677892203
 20
44.946163613359332
 30
0.0
 11
44.631031677892203
 21
36.146163613359327
 31
0.0
  0
LINE
  5
4B7
  8
3
 10
44.04769933259319
 20
44.946163613359332
 30
0.0
 11
44.047699332593147
 21
36.146163613359327
 31
0.0
  0
LINE
  5
4B8
  8
3
 10
43.408109119631398
 20
44.946163613359332
 30
0.0
 11
43.408109119631433
 21
36.146163613359327
 31
0.0
  0
LINE
  5
4B9
  8
3
 10
42.716204325355022
 20
44.946163613359332
 30
0.0
 11
42.716204325355022
 21
36.146163613359327
 31
0.0
  0
LINE
  5
4BA
  8
3
 10
41.976250772902489
 20
44.946163613359332
 30
0.0
 11
41.976250772902489
 21
36.146163613359327
 31
0.0
  0
LINE
  5
4BB
  8
3
 10
41.192810521984192
 20
44.946163613359332
 30
0.0
 11
41.192810521984178
 21
36.146163613359327
 31
0.0
  0
LINE
  5
4BC
  8
3
 10
40.370713742267377
 20
44.946163613359332
 30
0.0
 11
40.370713742267377
 21
36.146163613359327
 31
0.0
  0
LINE
  5
4BD
  8
3
 10
39.515028933773891
 20
44.946163613359332
 30
0.0
 11
39.515028933773891
 21
36.146163613359327
 31
0.0
  0
LINE
  5
4BE
  8
3
 10
38.631031677892189
 20
44.946163613359332
 30
0.0
 11
38.631031677892189
 21
36.146163613359327
 31
0.0
  0
LINE
  5
4BF
  8
3
 10
37.724172111663677
 20
44.946163613359332
 30
0.0
 11
37.724172111663677
 21
36.146163613359327
 31
0.0
  0
LINE
  5
4C0
  8
3
 10
36.800041325875583
 20
44.946163613359332
 30
0.0
 11
36.800041325875547
 21
36.146163613359327
 31
0.0
  0
LINE
  5
4C1
  8
3
 10
35.86433689412695
 20
44.946163613359332
 30
0.0
 11
35.86433689412695
 21
36.146163613359327
 31
0.0
  0
LINE
  5
4C2
  8
3
 10
33.98131859665876
 20
44.946163613359332
 30
0.0
 11
33.98131859665876
 21
36.146163613359327
 31
0.0
  0
LINE
  5
4C3
  8
3
 10
33.04561416491012
 20
44.946163613359332
 30
0.0
 11
33.045614164910148
 21
36.146163613359327
 31
0.0
  0
LINE
  5
4C4
  8
3
 10
32.121483379122033
 20
44.946163613359332
 30
0.0
 11
32.121483379122012
 21
36.146163613359327
 31
0.0
  0
LINE
  5
4C5
  8
3
 10
31.21462381289351
 20
44.946163613359332
 30
0.0
 11
31.2146238128935
 21
36.146163613359327
 31
0.0
  0
LINE
  5
4C6
  8
3
 10
30.330626557011811
 20
44.946163613359332
 30
0.0
 11
30.330626557011801
 21
36.146163613359327
 31
0.0
  0
LINE
  5
4C7
  8
3
 10
29.474941748518319
 20
44.946163613359332
 30
0.0
 11
29.474941748518312
 21
36.146163613359327
 31
0.0
  0
LINE
  5
4C8
  8
3
 10
28.652844968801499
 20
44.946163613359332
 30
0.0
 11
28.652844968801499
 21
36.146163613359327
 31
0.0
  0
LINE
  5
4C9
  8
3
 10
27.869404717883221
 20
44.946163613359332
 30
0.0
 11
27.869404717883221
 21
36.146163613359327
 31
0.0
  0
LINE
  5
4CA
  8
3
 10
27.12945116543068
 20
44.946163613359332
 30
0.0
 11
27.12945116543067
 21
36.146163613359327
 31
0.0
  0
LINE
  5
4CB
  8
3
 10
26.437546371154301
 20
44.946163613359332
 30
0.0
 11
26.437546371154269
 21
36.146163613359327
 31
0.0
  0
LINE
  5
4CC
  8
3
 10
25.797956158192498
 20
44.946163613359332
 30
0.0
 11
25.79795615819252
 21
36.146163613359327
 31
0.0
  0
LINE
  5
4CD
  8
3
 10
25.21462381289351
 20
44.946163613359332
 30
0.0
 11
25.214623812893489
 21
36.146163613359327
 31
0.0
  0
LINE
  5
4CE
  8
3
 10
24.69114577314377
 20
44.946163613359339
 30
0.0
 11
24.69114577314377
 21
36.146163613359327
 31
0.0
  0
LINE
  5
4CF
  8
3
 10
24.230749455132472
 20
44.946163613359339
 30
0.0
 11
24.230749455132472
 21
36.146163613359327
 31
0.0
  0
LINE
  5
4D0
  8
3
 10
23.83627335525745
 20
44.946163613359339
 30
0.0
 11
23.83627335525745
 21
36.146163613359327
 31
0.0
  0
LINE
  5
4D1
  8
3
 10
23.51014954985104
 20
44.946163613359339
 30
0.0
 11
23.51014954985104
 21
36.146163613359327
 31
0.0
  0
LINE
  5
4D2
  8
3
 10
23.254388700620751
 20
44.946163613359339
 30
0.0
 11
23.254388700620751
 21
36.146163613359327
 31
0.0
  0
LINE
  5
4D3
  8
3
 10
23.070567658251228
 20
44.946163613359339
 30
0.0
 11
23.070567658251189
 21
36.146163613359327
 31
0.0
  0
LINE
  5
4D4
  8
3
 10
22.95981974059535
 20
44.946163613359339
 30
0.0
 11
22.959819740595339
 21
36.146163613359327
 31
0.0
  0
POLYLINE
  5
582
  8
2
 10
35.675520931764908
 20
72.09385390875029
 30
0.0
 66
     1
 70
     8
  0
VERTEX
  8
2
  5
715
 10
35.6755
 20
72.0939
 30
0.000000
  70
    32
  0
VERTEX
  8
2
  5
716
 10
35.7666
 20
72.0625
 30
0.000000
  70
    32
  0
VERTEX
  8
2
  5
717
 10
35.8586
 20
72.0338
 30
0.000000
  70
    32
  0
VERTEX
  8
2
  5
718
 10
35.9515
 20
72.0078
 30
0.000000
  70
    32
  0
VERTEX
  8
2
  5
719
 10
36.0451
 20
71.9845
 30
0.000000
  70
    32
  0
VERTEX
  8
2
  5
71A
 10
36.1394
 20
71.9640
 30
0.000000
  70
    32
  0
VERTEX
  8
2
  5
71B
 10
36.2344
 20
71.9462
 30
0.000000
  70
    32
  0
VERTEX
  8
2
  5
71C
 10
36.3298
 20
71.9311
 30
0.000000
  70
    32
  0
VERTEX
  8
2
  5
71D
 10
36.4256
 20
71.9189
 30
0.000000
  70
    32
  0
VERTEX
  8
2
  5
71E
 10
36.5218
 20
71.9094
 30
0.000000
  70
    32
  0
VERTEX
  8
2
  5
71F
 10
36.6183
 20
71.9028
 30
0.000000
  70
    32
  0
VERTEX
  8
2
  5
720
 10
36.7149
 20
71.8989
 30
0.000000
  70
    32
  0
VERTEX
  8
2
  5
721
 10
36.8116
 20
71.8979
 30
0.000000
  70
    32
  0
VERTEX
  8
2
  5
722
 10
36.9083
 20
71.8997
 30
0.000000
  70
    32
  0
VERTEX
  8
2
  5
723
 10
37.0048
 20
71.9043
 30
0.000000
  70
    32
  0
VERTEX
  8
2
  5
724
 10
37.1012
 20
71.9117
 30
0.000000
  70
    32
  0
VERTEX
  8
2
  5
725
 10
37.1973
 20
71.9219
 30
0.000000
  70
    32
  0
VERTEX
  8
2
  5
726
 10
37.2931
 20
71.9349
 30
0.000000
  70
    32
  0
VERTEX
  8
2
  5
727
 10
37.3884
 20
71.9507
 30
0.000000
  70
    32
  0
VERTEX
  8
2
  5
728
 10
37.4831
 20
71.9693
 30
0.000000
  70
    32
  0
VERTEX
  8
2
  5
729
 10
37.5773
 20
71.9906
 30
0.000000
  70
    32
  0
VERTEX
  8
2
  5
72A
 10
37.6707
 20
72.0146
 30
0.000000
  70
    32
  0
VERTEX
  8
2
  5
72B
 10
37.7634
 20
72.0413
 30
0.000000
  70
    32
  0
VERTEX
  8
2
  5
72C
 10
37.8551
 20
72.0707
 30
0.000000
  70
    32
  0
VERTEX
  8
2
  5
72D
 10
37.9459
 20
72.1028
 30
0.000000
  70
    32
  0
VERTEX
  8
2
  5
72E
 10
38.0357
 20
72.1375
 30
0.000000
  70
    32
  0
VERTEX
  8
2
  5
72F
 10
38.1244
 20
72.1748
 30
0.000000
  70
    32
  0
VERTEX
  8
2
  5
730
 10
38.2118
 20
72.2147
 30
0.000000
  70
    32
  0
VERTEX
  8
2
  5
731
 10
38.2980
 20
72.2571
 30
0.000000
  70
    32
  0
VERTEX
  8
2
  5
732
 10
38.3828
 20
72.3019
 30
0.000000
  70
    32
  0
VERTEX
  8
2
  5
733
 10
38.4661
 20
72.3493
 30
0.000000
  70
    32
  0
VERTEX
  8
2
  5
734
 10
38.5480
 20
72.3990
 30
0.000000
  70
    32
  0
VERTEX
  8
2
  5
735
 10
38.6282
 20
72.4511
 30
0.000000
  70
    32
  0
VERTEX
  8
2
  5
736
 10
38.7068
 20
72.5055
 30
0.000000
  70
    32
  0
VERTEX
  8
2
  5
737
 10
38.7837
 20
72.5621
 30
0.000000
  70
    32
  0
VERTEX
  8
2
  5
738
 10
38.8588
 20
72.6210
 30
0.000000
  70
    32
  0
VERTEX
  8
2
  5
739
 10
38.9319
 20
72.6820
 30
0.000000
  70
    32
  0
VERTEX
  8
2
  5
73A
 10
39.0032
 20
72.7452
 30
0.000000
  70
    32
  0
VERTEX
  8
2
  5
73B
 10
39.0725
 20
72.8103
 30
0.000000
  70
    32
  0
VERTEX
  8
2
  5
73C
 10
39.1397
 20
72.8775
 30
0.000000
  70
    32
  0
VERTEX
  8
2
  5
73D
 10
39.2047
 20
72.9466
 30
0.000000
  70
    32
  0
VERTEX
  8
2
  5
73E
 10
39.2676
 20
73.0175
 30
0.000000
  70
    32
  0
VERTEX
  8
2
  5
73F
 10
39.3282
 20
73.0903
 30
0.000000
  70
    32
  0
VERTEX
  8
2
  5
740
 10
39.3866
 20
73.1648
 30
0.000000
  70
    32
  0
VERTEX
  8
2
  5
741
 10
39.4426
 20
73.2409
 30
0.000000
  70
    32
  0
VERTEX
  8
2
  5
742
 10
39.4962
 20
73.3186
 30
0.000000
  70
    32
  0
VERTEX
  8
2
  5
743
 10
39.5473
 20
73.3979
 30
0.000000
  70
    32
  0
VERTEX
  8
2
  5
744
 10
39.5960
 20
73.4786
 30
0.000000
  70
    32
  0
VERTEX
  8
2
  5
745
 10
39.6421
 20
73.5607
 30
0.000000
  70
    32
  0
VERTEX
  8
2
  5
746
 10
39.6856
 20
73.6441
 30
0.000000
  70
    32
  0
VERTEX
  8
2
  5
747
 10
39.7265
 20
73.7287
 30
0.000000
  70
    32
  0
VERTEX
  8
2
  5
748
 10
39.7648
 20
73.8145
 30
0.000000
  70
    32
  0
VERTEX
  8
2
  5
749
 10
39.8003
 20
73.9014
 30
0.000000
  70
    32
  0
VERTEX
  8
2
  5
74A
 10
39.8332
 20
73.9892
 30
0.000000
  70
    32
  0
VERTEX
  8
2
  5
74B
 10
39.8633
 20
74.0780
 30
0.000000
  70
    32
  0
VERTEX
  8
2
  5
74C
 10
39.8906
 20
74.1676
 30
0.000000
  70
    32
  0
VERTEX
  8
2
  5
74D
 10
39.9151
 20
74.2579
 30
0.000000
  70
    32
  0
VERTEX
  8
2
  5
74E
 10
39.9367
 20
74.3489
 30
0.000000
  70
    32
  0
VERTEX
  8
2
  5
74F
 10
39.9555
 20
74.4405
 30
0.000000
  70
    32
  0
VERTEX
  8
2
  5
750
 10
39.9715
 20
74.5327
 30
0.000000
  70
    32
  0
VERTEX
  8
2
  5
751
 10
39.9845
 20
74.6252
 30
0.000000
  70
    32
  0
VERTEX
  8
2
  5
752
 10
39.9947
 20
74.7181
 30
0.000000
  70
    32
  0
VERTEX
  8
2
  5
753
 10
40.0020
 20
74.8112
 30
0.000000
  70
    32
  0
VERTEX
  8
2
  5
754
 10
40.0064
 20
74.9045
 30
0.000000
  70
    32
  0
VERTEX
  8
2
  5
755
 10
40.0078
 20
74.9979
 30
0.000000
  70
    32
  0
VERTEX
  8
2
  5
756
 10
40.0064
 20
75.0913
 30
0.000000
  70
    32
  0
VERTEX
  8
2
  5
757
 10
40.0020
 20
75.1846
 30
0.000000
  70
    32
  0
VERTEX
  8
2
  5
758
 10
39.9947
 20
75.2777
 30
0.000000
  70
    32
  0
VERTEX
  8
2
  5
759
 10
39.9845
 20
75.3706
 30
0.000000
  70
    32
  0
VERTEX
  8
2
  5
75A
 10
39.9715
 20
75.4631
 30
0.000000
  70
    32
  0
VERTEX
  8
2
  5
75B
 10
39.9555
 20
75.5552
 30
0.000000
  70
    32
  0
VERTEX
  8
2
  5
75C
 10
39.9367
 20
75.6469
 30
0.000000
  70
    32
  0
VERTEX
  8
2
  5
75D
 10
39.9151
 20
75.7379
 30
0.000000
  70
    32
  0
VERTEX
  8
2
  5
75E
 10
39.8906
 20
75.8282
 30
0.000000
  70
    32
  0
VERTEX
  8
2
  5
75F
 10
39.8633
 20
75.9178
 30
0.000000
  70
    32
  0
VERTEX
  8
2
  5
760
 10
39.8332
 20
76.0066
 30
0.000000
  70
    32
  0
VERTEX
  8
2
  5
761
 10
39.8003
 20
76.0944
 30
0.000000
  70
    32
  0
VERTEX
  8
2
  5
762
 10
39.7648
 20
76.1813
 30
0.000000
  70
    32
  0
VERTEX
  8
2
  5
763
 10
39.7265
 20
76.2671
 30
0.000000
  70
    32
  0
VERTEX
  8
2
  5
764
 10
39.6856
 20
76.3517
 30
0.000000
  70
    32
  0
VERTEX
  8
2
  5
765
 10
39.6421
 20
76.4351
 30
0.000000
  70
    32
  0
VERTEX
  8
2
  5
766
 10
39.5960
 20
76.5172
 30
0.000000
  70
    32
  0
VERTEX
  8
2
  5
767
 10
39.5473
 20
76.5979
 30
0.000000
  70
    32
  0
VERTEX
  8
2
  5
768
 10
39.4962
 20
76.6771
 30
0.000000
  70
    32
  0
VERTEX
  8
2
  5
769
 10
39.4426
 20
76.7549
 30
0.000000
  70
    32
  0
VERTEX
  8
2
  5
76A
 10
39.3866
 20
76.8310
 30
0.000000
  70
    32
  0
VERTEX
  8
2
  5
76B
 10
39.3282
 20
76.9055
 30
0.000000
  70
    32
  0
VERTEX
  8
2
  5
76C
 10
39.2676
 20
76.9782
 30
0.000000
  70
    32
  0
VERTEX
  8
2
  5
76D
 10
39.2047
 20
77.0492
 30
0.000000
  70
    32
  0
VERTEX
  8
2
  5
76E
 10
39.1397
 20
77.1183
 30
0.000000
  70
    32
  0
VERTEX
  8
2
  5
76F
 10
39.0725
 20
77.1854
 30
0.000000
  70
    32
  0
VERTEX
  8
2
  5
770
 10
39.0032
 20
77.2506
 30
0.000000
  70
    32
  0
VERTEX
  8
2
  5
771
 10
38.9319
 20
77.3138
 30
0.000000
  70
    32
  0
VERTEX
  8
2
  5
772
 10
38.8588
 20
77.3748
 30
0.000000
  70
    32
  0
VERTEX
  8
2
  5
773
 10
38.7837
 20
77.4337
 30
0.000000
  70
    32
  0
VERTEX
  8
2
  5
774
 10
38.7068
 20
77.4903
 30
0.000000
  70
    32
  0
VERTEX
  8
2
  5
775
 10
38.6282
 20
77.5447
 30
0.000000
  70
    32
  0
VERTEX
  8
2
  5
776
 10
38.5480
 20
77.5968
 30
0.000000
  70
    32
  0
VERTEX
  8
2
  5
777
 10
38.4661
 20
77.6465
 30
0.000000
  70
    32
  0
VERTEX
  8
2
  5
778
 10
38.3828
 20
77.6938
 30
0.000000
  70
    32
  0
VERTEX
  8
2
  5
779
 10
38.2980
 20
77.7387
 30
0.000000
  70
    32
  0
VERTEX
  8
2
  5
77A
 10
38.2118
 20
77.7811
 30
0.000000
  70
    32
  0
VERTEX
  8
2
  5
77B
 10
38.1244
 20
77.8210
 30
0.000000
  70
    32
  0
VERTEX
  8
2
  5
77C
 10
38.0357
 20
77.8583
 30
0.000000
  70
    32
  0
VERTEX
  8
2
  5
77D
 10
37.9459
 20
77.8930
 30
0.000000
  70
    32
  0
VERTEX
  8
2
  5
77E
 10
37.8551
 20
77.9251
 30
0.000000
  70
    32
  0
VERTEX
  8
2
  5
77F
 10
37.7634
 20
77.9545
 30
0.000000
  70
    32
  0
VERTEX
  8
2
  5
780
 10
37.6707
 20
77.9812
 30
0.000000
  70
    32
  0
VERTEX
  8
2
  5
781
 10
37.5773
 20
78.0052
 30
0.000000
  70
    32
  0
VERTEX
  8
2
  5
782
 10
37.4831
 20
78.0265
 30
0.000000
  70
    32
  0
VERTEX
  8
2
  5
783
 10
37.3884
 20
78.0451
 30
0.000000
  70
    32
  0
VERTEX
  8
2
  5
784
 10
37.2931
 20
78.0609
 30
0.000000
  70
    32
  0
VERTEX
  8
2
  5
785
 10
37.1973
 20
78.0739
 30
0.000000
  70
    32
  0
VERTEX
  8
2
  5
786
 10
37.1012
 20
78.0841
 30
0.000000
  70
    32
  0
VERTEX
  8
2
  5
787
 10
37.0048
 20
78.0915
 30
0.000000
  70
    32
  0
VERTEX
  8
2
  5
788
 10
36.9083
 20
78.0961
 30
0.000000
  70
    32
  0
VERTEX
  8
2
  5
789
 10
36.8116
 20
78.0979
 30
0.000000
  70
    32
  0
VERTEX
  8
2
  5
78A
 10
36.7149
 20
78.0968
 30
0.000000
  70
    32
  0
VERTEX
  8
2
  5
78B
 10
36.6183
 20
78.0930
 30
0.000000
  70
    32
  0
VERTEX
  8
2
  5
78C
 10
36.5218
 20
78.0864
 30
0.000000
  70
    32
  0
VERTEX
  8
2
  5
78D
 10
36.4256
 20
78.0769
 30
0.000000
  70
    32
  0
VERTEX
  8
2
  5
78E
 10
36.3298
 20
78.0647
 30
0.000000
  70
    32
  0
VERTEX
  8
2
  5
78F
 10
36.2344
 20
78.0496
 30
0.000000
  70
    32
  0
VERTEX
  8
2
  5
790
 10
36.1394
 20
78.0318
 30
0.000000
  70
    32
  0
VERTEX
  8
2
  5
791
 10
36.0451
 20
78.0113
 30
0.000000
  70
    32
  0
VERTEX
  8
2
  5
792
 10
35.9515
 20
77.9880
 30
0.000000
  70
    32
  0
VERTEX
  8
2
  5
793
 10
35.8586
 20
77.9620
 30
0.000000
  70
    32
  0
VERTEX
  8
2
  5
794
 10
35.7666
 20
77.9333
 30
0.000000
  70
    32
  0
VERTEX
  8
2
  5
795
 10
35.6755
 20
77.9019
 30
0.000000
  70
    32
  0
SEQEND
  8
2
  5
796
  0
LINE
  5
583
  8
2
 10
36.798472092410641
 20
78.097894708599583
 30
0.0
 11
33.047183398374933
 21
78.097894708599526
 31
0.0
  0
LINE
  5
584
  8
2
 10
33.047183398375012
 20
71.897894708599495
 30
0.0
 11
36.798472092410719
 21
71.897894708599551
 31
0.0
  0
POLYLINE
  5
585
  8
0
 10
34.170134559020774
 20
77.901935508448759
 30
0.0
 66
     1
 70
     8
  0
VERTEX
  8
0
  5
797
 10
34.1701
 20
77.9019
 30
0.000000
  70
    32
  0
VERTEX
  8
0
  5
798
 10
34.0791
 20
77.9333
 30
0.000000
  70
    32
  0
VERTEX
  8
0
  5
799
 10
33.9870
 20
77.9620
 30
0.000000
  70
    32
  0
VERTEX
  8
0
  5
79A
 10
33.8942
 20
77.9880
 30
0.000000
  70
    32
  0
VERTEX
  8
0
  5
79B
 10
33.8005
 20
78.0113
 30
0.000000
  70
    32
  0
VERTEX
  8
0
  5
79C
 10
33.7062
 20
78.0318
 30
0.000000
  70
    32
  0
VERTEX
  8
0
  5
79D
 10
33.6113
 20
78.0496
 30
0.000000
  70
    32
  0
VERTEX
  8
0
  5
79E
 10
33.5159
 20
78.0647
 30
0.000000
  70
    32
  0
VERTEX
  8
0
  5
79F
 10
33.4200
 20
78.0769
 30
0.000000
  70
    32
  0
VERTEX
  8
0
  5
7A0
 10
33.3238
 20
78.0864
 30
0.000000
  70
    32
  0
VERTEX
  8
0
  5
7A1
 10
33.2274
 20
78.0930
 30
0.000000
  70
    32
  0
VERTEX
  8
0
  5
7A2
 10
33.1308
 20
78.0968
 30
0.000000
  70
    32
  0
VERTEX
  8
0
  5
7A3
 10
33.0341
 20
78.0979
 30
0.000000
  70
    32
  0
VERTEX
  8
0
  5
7A4
 10
32.9374
 20
78.0961
 30
0.000000
  70
    32
  0
VERTEX
  8
0
  5
7A5
 10
32.8408
 20
78.0915
 30
0.000000
  70
    32
  0
VERTEX
  8
0
  5
7A6
 10
32.7444
 20
78.0841
 30
0.000000
  70
    32
  0
VERTEX
  8
0
  5
7A7
 10
32.6483
 20
78.0739
 30
0.000000
  70
    32
  0
VERTEX
  8
0
  5
7A8
 10
32.5526
 20
78.0609
 30
0.000000
  70
    32
  0
VERTEX
  8
0
  5
7A9
 10
32.4573
 20
78.0451
 30
0.000000
  70
    32
  0
VERTEX
  8
0
  5
7AA
 10
32.3625
 20
78.0265
 30
0.000000
  70
    32
  0
VERTEX
  8
0
  5
7AB
 10
32.2684
 20
78.0052
 30
0.000000
  70
    32
  0
VERTEX
  8
0
  5
7AC
 10
32.1749
 20
77.9812
 30
0.000000
  70
    32
  0
VERTEX
  8
0
  5
7AD
 10
32.0823
 20
77.9545
 30
0.000000
  70
    32
  0
VERTEX
  8
0
  5
7AE
 10
31.9905
 20
77.9251
 30
0.000000
  70
    32
  0
VERTEX
  8
0
  5
7AF
 10
31.8997
 20
77.8930
 30
0.000000
  70
    32
  0
VERTEX
  8
0
  5
7B0
 10
31.8099
 20
77.8583
 30
0.000000
  70
    32
  0
VERTEX
  8
0
  5
7B1
 10
31.7213
 20
77.8210
 30
0.000000
  70
    32
  0
VERTEX
  8
0
  5
7B2
 10
31.6338
 20
77.7811
 30
0.000000
  70
    32
  0
VERTEX
  8
0
  5
7B3
 10
31.5477
 20
77.7387
 30
0.000000
  70
    32
  0
VERTEX
  8
0
  5
7B4
 10
31.4629
 20
77.6938
 30
0.000000
  70
    32
  0
VERTEX
  8
0
  5
7B5
 10
31.3795
 20
77.6465
 30
0.000000
  70
    32
  0
VERTEX
  8
0
  5
7B6
 10
31.2977
 20
77.5968
 30
0.000000
  70
    32
  0
VERTEX
  8
0
  5
7B7
 10
31.2174
 20
77.5447
 30
0.000000
  70
    32
  0
VERTEX
  8
0
  5
7B8
 10
31.1388
 20
77.4903
 30
0.000000
  70
    32
  0
VERTEX
  8
0
  5
7B9
 10
31.0620
 20
77.4337
 30
0.000000
  70
    32
  0
VERTEX
  8
0
  5
7BA
 10
30.9869
 20
77.3748
 30
0.000000
  70
    32
  0
VERTEX
  8
0
  5
7BB
 10
30.9137
 20
77.3138
 30
0.000000
  70
    32
  0
VERTEX
  8
0
  5
7BC
 10
30.8425
 20
77.2506
 30
0.000000
  70
    32
  0
VERTEX
  8
0
  5
7BD
 10
30.7732
 20
77.1854
 30
0.000000
  70
    32
  0
VERTEX
  8
0
  5
7BE
 10
30.7060
 20
77.1183
 30
0.000000
  70
    32
  0
VERTEX
  8
0
  5
7BF
 10
30.6409
 20
77.0492
 30
0.000000
  70
    32
  0
VERTEX
  8
0
  5
7C0
 10
30.5781
 20
76.9782
 30
0.000000
  70
    32
  0
VERTEX
  8
0
  5
7C1
 10
30.5174
 20
76.9055
 30
0.000000
  70
    32
  0
VERTEX
  8
0
  5
7C2
 10
30.4591
 20
76.8310
 30
0.000000
  70
    32
  0
VERTEX
  8
0
  5
7C3
 10
30.4031
 20
76.7549
 30
0.000000
  70
    32
  0
VERTEX
  8
0
  5
7C4
 10
30.3495
 20
76.6771
 30
0.000000
  70
    32
  0
VERTEX
  8
0
  5
7C5
 10
30.2983
 20
76.5979
 30
0.000000
  70
    32
  0
VERTEX
  8
0
  5
7C6
 10
30.2497
 20
76.5172
 30
0.000000
  70
    32
  0
VERTEX
  8
0
  5
7C7
 10
30.2036
 20
76.4351
 30
0.000000
  70
    32
  0
VERTEX
  8
0
  5
7C8
 10
30.1600
 20
76.3517
 30
0.000000
  70
    32
  0
VERTEX
  8
0
  5
7C9
 10
30.1191
 20
76.2671
 30
0.000000
  70
    32
  0
VERTEX
  8
0
  5
7CA
 10
30.0809
 20
76.1813
 30
0.000000
  70
    32
  0
VERTEX
  8
0
  5
7CB
 10
30.0453
 20
76.0944
 30
0.000000
  70
    32
  0
VERTEX
  8
0
  5
7CC
 10
30.0125
 20
76.0066
 30
0.000000
  70
    32
  0
VERTEX
  8
0
  5
7CD
 10
29.9824
 20
75.9178
 30
0.000000
  70
    32
  0
VERTEX
  8
0
  5
7CE
 10
29.9551
 20
75.8282
 30
0.000000
  70
    32
  0
VERTEX
  8
0
  5
7CF
 10
29.9306
 20
75.7379
 30
0.000000
  70
    32
  0
VERTEX
  8
0
  5
7D0
 10
29.9089
 20
75.6469
 30
0.000000
  70
    32
  0
VERTEX
  8
0
  5
7D1
 10
29.8901
 20
75.5552
 30
0.000000
  70
    32
  0
VERTEX
  8
0
  5
7D2
 10
29.8742
 20
75.4631
 30
0.000000
  70
    32
  0
VERTEX
  8
0
  5
7D3
 10
29.8611
 20
75.3706
 30
0.000000
  70
    32
  0
VERTEX
  8
0
  5
7D4
 10
29.8509
 20
75.2777
 30
0.000000
  70
    32
  0
VERTEX
  8
0
  5
7D5
 10
29.8437
 20
75.1846
 30
0.000000
  70
    32
  0
VERTEX
  8
0
  5
7D6
 10
29.8393
 20
75.0913
 30
0.000000
  70
    32
  0
VERTEX
  8
0
  5
7D7
 10
29.8378
 20
74.9979
 30
0.000000
  70
    32
  0
VERTEX
  8
0
  5
7D8
 10
29.8393
 20
74.9045
 30
0.000000
  70
    32
  0
VERTEX
  8
0
  5
7D9
 10
29.8437
 20
74.8112
 30
0.000000
  70
    32
  0
VERTEX
  8
0
  5
7DA
 10
29.8509
 20
74.7181
 30
0.000000
  70
    32
  0
VERTEX
  8
0
  5
7DB
 10
29.8611
 20
74.6252
 30
0.000000
  70
    32
  0
VERTEX
  8
0
  5
7DC
 10
29.8742
 20
74.5327
 30
0.000000
  70
    32
  0
VERTEX
  8
0
  5
7DD
 10
29.8901
 20
74.4405
 30
0.000000
  70
    32
  0
VERTEX
  8
0
  5
7DE
 10
29.9089
 20
74.3489
 30
0.000000
  70
    32
  0
VERTEX
  8
0
  5
7DF
 10
29.9306
 20
74.2579
 30
0.000000
  70
    32
  0
VERTEX
  8
0
  5
7E0
 10
29.9551
 20
74.1676
 30
0.000000
  70
    32
  0
VERTEX
  8
0
  5
7E1
 10
29.9824
 20
74.0780
 30
0.000000
  70
    32
  0
VERTEX
  8
0
  5
7E2
 10
30.0125
 20
73.9892
 30
0.000000
  70
    32
  0
VERTEX
  8
0
  5
7E3
 10
30.0453
 20
73.9014
 30
0.000000
  70
    32
  0
VERTEX
  8
0
  5
7E4
 10
30.0809
 20
73.8145
 30
0.000000
  70
    32
  0
VERTEX
  8
0
  5
7E5
 10
30.1191
 20
73.7287
 30
0.000000
  70
    32
  0
VERTEX
  8
0
  5
7E6
 10
30.1600
 20
73.6441
 30
0.000000
  70
    32
  0
VERTEX
  8
0
  5
7E7
 10
30.2036
 20
73.5607
 30
0.000000
  70
    32
  0
VERTEX
  8
0
  5
7E8
 10
30.2497
 20
73.4786
 30
0.000000
  70
    32
  0
VERTEX
  8
0
  5
7E9
 10
30.2983
 20
73.3979
 30
0.000000
  70
    32
  0
VERTEX
  8
0
  5
7EA
 10
30.3495
 20
73.3186
 30
0.000000
  70
    32
  0
VERTEX
  8
0
  5
7EB
 10
30.4031
 20
73.2409
 30
0.000000
  70
    32
  0
VERTEX
  8
0
  5
7EC
 10
30.4591
 20
73.1648
 30
0.000000
  70
    32
  0
VERTEX
  8
0
  5
7ED
 10
30.5174
 20
73.0903
 30
0.000000
  70
    32
  0
VERTEX
  8
0
  5
7EE
 10
30.5781
 20
73.0175
 30
0.000000
  70
    32
  0
VERTEX
  8
0
  5
7EF
 10
30.6409
 20
72.9466
 30
0.000000
  70
    32
  0
VERTEX
  8
0
  5
7F0
 10
30.7060
 20
72.8775
 30
0.000000
  70
    32
  0
VERTEX
  8
0
  5
7F1
 10
30.7732
 20
72.8103
 30
0.000000
  70
    32
  0
VERTEX
  8
0
  5
7F2
 10
30.8425
 20
72.7452
 30
0.000000
  70
    32
  0
VERTEX
  8
0
  5
7F3
 10
30.9137
 20
72.6820
 30
0.000000
  70
    32
  0
VERTEX
  8
0
  5
7F4
 10
30.9869
 20
72.6210
 30
0.000000
  70
    32
  0
VERTEX
  8
0
  5
7F5
 10
31.0620
 20
72.5621
 30
0.000000
  70
    32
  0
VERTEX
  8
0
  5
7F6
 10
31.1388
 20
72.5055
 30
0.000000
  70
    32
  0
VERTEX
  8
0
  5
7F7
 10
31.2174
 20
72.4511
 30
0.000000
  70
    32
  0
VERTEX
  8
0
  5
7F8
 10
31.2977
 20
72.3990
 30
0.000000
  70
    32
  0
VERTEX
  8
0
  5
7F9
 10
31.3795
 20
72.3493
 30
0.000000
  70
    32
  0
VERTEX
  8
0
  5
7FA
 10
31.4629
 20
72.3019
 30
0.000000
  70
    32
  0
VERTEX
  8
0
  5
7FB
 10
31.5477
 20
72.2571
 30
0.000000
  70
    32
  0
VERTEX
  8
0
  5
7FC
 10
31.6338
 20
72.2147
 30
0.000000
  70
    32
  0
VERTEX
  8
0
  5
7FD
 10
31.7213
 20
72.1748
 30
0.000000
  70
    32
  0
VERTEX
  8
0
  5
7FE
 10
31.8099
 20
72.1375
 30
0.000000
  70
    32
  0
VERTEX
  8
0
  5
7FF
 10
31.8997
 20
72.1028
 30
0.000000
  70
    32
  0
VERTEX
  8
0
  5
800
 10
31.9905
 20
72.0707
 30
0.000000
  70
    32
  0
VERTEX
  8
0
  5
801
 10
32.0823
 20
72.0413
 30
0.000000
  70
    32
  0
VERTEX
  8
0
  5
802
 10
32.1749
 20
72.0146
 30
0.000000
  70
    32
  0
VERTEX
  8
0
  5
803
 10
32.2684
 20
71.9906
 30
0.000000
  70
    32
  0
VERTEX
  8
0
  5
804
 10
32.3625
 20
71.9693
 30
0.000000
  70
    32
  0
VERTEX
  8
0
  5
805
 10
32.4573
 20
71.9507
 30
0.000000
  70
    32
  0
VERTEX
  8
0
  5
806
 10
32.5526
 20
71.9349
 30
0.000000
  70
    32
  0
VERTEX
  8
0
  5
807
 10
32.6483
 20
71.9219
 30
0.000000
  70
    32
  0
VERTEX
  8
0
  5
808
 10
32.7444
 20
71.9117
 30
0.000000
  70
    32
  0
VERTEX
  8
0
  5
809
 10
32.8408
 20
71.9043
 30
0.000000
  70
    32
  0
VERTEX
  8
0
  5
80A
 10
32.9374
 20
71.8997
 30
0.000000
  70
    32
  0
VERTEX
  8
0
  5
80B
 10
33.0341
 20
71.8979
 30
0.000000
  70
    32
  0
VERTEX
  8
0
  5
80C
 10
33.1308
 20
71.8989
 30
0.000000
  70
    32
  0
VERTEX
  8
0
  5
80D
 10
33.2274
 20
71.9028
 30
0.000000
  70
    32
  0
VERTEX
  8
0
  5
80E
 10
33.3238
 20
71.9094
 30
0.000000
  70
    32
  0
VERTEX
  8
0
  5
80F
 10
33.4200
 20
71.9189
 30
0.000000
  70
    32
  0
VERTEX
  8
0
  5
810
 10
33.5159
 20
71.9311
 30
0.000000
  70
    32
  0
VERTEX
  8
0
  5
811
 10
33.6113
 20
71.9462
 30
0.000000
  70
    32
  0
VERTEX
  8
0
  5
812
 10
33.7062
 20
71.9640
 30
0.000000
  70
    32
  0
VERTEX
  8
0
  5
813
 10
33.8005
 20
71.9845
 30
0.000000
  70
    32
  0
VERTEX
  8
0
  5
814
 10
33.8942
 20
72.0078
 30
0.000000
  70
    32
  0
VERTEX
  8
0
  5
815
 10
33.9870
 20
72.0338
 30
0.000000
  70
    32
  0
VERTEX
  8
0
  5
816
 10
34.0791
 20
72.0625
 30
0.000000
  70
    32
  0
VERTEX
  8
0
  5
817
 10
34.1701
 20
72.0939
 30
0.000000
  70
    32
  0
SEQEND
  8
0
  5
818
  0
LINE
  5
586
  8
2
 10
29.837827239103721
 20
45.546163613359347
 30
0.0
 11
32.464327745392858
 21
35.743930277782901
 31
0.0
  0
LINE
  5
587
  8
2
 10
40.007828251681957
 20
31.546163613359351
 30
0.0
 11
37.381327745392852
 21
41.348396948935743
 31
0.0
  0
TEXT
  5
675
  8
0
 62
     3
 10
0.0
 20
0.0
 30
0.0
 40
10.0
  1
BJ757-06001
  7
STANDARD1
  0
ENDSEC
  0
EOF
