  0
SECTION
  2
HEADER
  9
$ACADVER
  1
AC1009
  9
$INSBASE
 10
0.0
 20
0.0
 30
0.0
  9
$EXTMIN
 10
0.0
 20
-2.960436562073669
 30
0.0
  9
$EXTMAX
 10
135.78590875453239
 20
104.2653060613808
 30
0.0
  9
$LIMMIN
 10
0.0
 20
0.0
  9
$LIMMAX
 10
192.5
 20
135.0
  9
$ORTHOMODE
 70
     1
  9
$REGENMODE
 70
     1
  9
$FILLMODE
 70
     1
  9
$QTEXTMODE
 70
     0
  9
$MIRRTEXT
 70
     0
  9
$DRAGMODE
 70
     2
  9
$LTSCALE
 40
5.0
  9
$OSMODE
 70
  3071
  9
$ATTMODE
 70
     1
  9
$TEXTSIZE
 40
1.6000000000000489
  9
$TRACEWID
 40
0.05
  9
$TEXTSTYLE
  7
STANDARD
  9
$CLAYER
  8
0
  9
$CELTYPE
  6
BYLAYER
  9
$CECOLOR
 62
   256
  9
$DIMSCALE
 40
0.5
  9
$DIMASZ
 40
3.0
  9
$DIMEXO
 40
2.0
  9
$DIMDLI
 40
0.38
  9
$DIMRND
 40
0.0
  9
$DIMDLE
 40
0.0
  9
$DIMEXE
 40
2.0
  9
$DIMTP
 40
0.0
  9
$DIMTM
 40
0.0
  9
$DIMTXT
 40
3.0
  9
$DIMCEN
 40
0.0
  9
$DIMTSZ
 40
0.0
  9
$DIMTOL
 70
     0
  9
$DIMLIM
 70
     0
  9
$DIMTIH
 70
     0
  9
$DIMTOH
 70
     0
  9
$DIMSE1
 70
     0
  9
$DIMSE2
 70
     0
  9
$DIMTAD
 70
     1
  9
$DIMZIN
 70
     0
  9
$DIMBLK
  1

  9
$DIMASO
 70
     1
  9
$DIMSHO
 70
     0
  9
$DIMPOST
  1

  9
$DIMAPOST
  1

  9
$DIMALT
 70
     0
  9
$DIMALTD
 70
     2
  9
$DIMALTF
 40
25.399999999999999
  9
$DIMLFAC
 40
1.0
  9
$DIMTOFL
 70
     1
  9
$DIMTVP
 40
1.6000000000000001
  9
$DIMTIX
 70
     1
  9
$DIMSOXD
 70
     0
  9
$DIMSAH
 70
     0
  9
$DIMBLK1
  1

  9
$DIMBLK2
  1

  9
$DIMSTYLE
  2
STANDARD
  9
$DIMCLRD
 70
     0
  9
$DIMCLRE
 70
     0
  9
$DIMCLRT
 70
     0
  9
$DIMTFAC
 40
1.0
  9
$DIMGAP
 40
0.09
  9
$LUNITS
 70
     2
  9
$LUPREC
 70
     4
  9
$SKETCHINC
 40
0.1
  9
$FILLETRAD
 40
0.3
  9
$AUNITS
 70
     0
  9
$AUPREC
 70
     4
  9
$MENU
  1
E:\r13\win\SUPPORT\ACAD
  9
$ELEVATION
 40
0.0
  9
$PELEVATION
 40
0.0
  9
$THICKNESS
 40
0.0
  9
$LIMCHECK
 70
     0
  9
$BLIPMODE
 70
     0
  9
$CHAMFERA
 40
0.5
  9
$CHAMFERB
 40
0.5
  9
$SKPOLY
 70
     0
  9
$TDCREATE
 40
2448328.489641204
  9
$TDUPDATE
 40
2456598.3688227078
  9
$TDINDWG
 40
0.1226241551
  9
$TDUSRTIMER
 40
0.1226241551
  9
$USRTIMER
 70
     1
  9
$ANGBASE
 50
0.0
  9
$ANGDIR
 70
     0
  9
$PDMODE
 70
    35
  9
$PDSIZE
 40
0.0
  9
$PLINEWID
 40
0.0
  9
$COORDS
 70
     1
  9
$SPLFRAME
 70
     0
  9
$SPLINETYPE
 70
     6
  9
$SPLINESEGS
 70
     8
  9
$ATTDIA
 70
     0
  9
$ATTREQ
 70
     1
  9
$HANDLING
 70
     1
  9
$HANDSEED
  5
B64
  9
$SURFTAB1
 70
     6
  9
$SURFTAB2
 70
     6
  9
$SURFTYPE
 70
     6
  9
$SURFU
 70
     6
  9
$SURFV
 70
     6
  9
$UCSNAME
  2

  9
$UCSORG
 10
0.0
 20
0.0
 30
0.0
  9
$UCSXDIR
 10
1.0
 20
0.0
 30
0.0
  9
$UCSYDIR
 10
0.0
 20
1.0
 30
0.0
  9
$PUCSNAME
  2

  9
$PUCSORG
 10
0.0
 20
0.0
 30
0.0
  9
$PUCSXDIR
 10
1.0
 20
0.0
 30
0.0
  9
$PUCSYDIR
 10
0.0
 20
1.0
 30
0.0
  9
$USERI1
 70
     3
  9
$USERI2
 70
     1
  9
$USERI3
 70
     1
  9
$USERI4
 70
     0
  9
$USERI5
 70
     0
  9
$USERR1
 40
0.5
  9
$USERR2
 40
3.0
  9
$USERR3
 40
3.0
  9
$USERR4
 40
3.0
  9
$USERR5
 40
10.0
  9
$WORLDVIEW
 70
     1
  9
$SHADEDGE
 70
     3
  9
$SHADEDIF
 70
    70
  9
$TILEMODE
 70
     1
  9
$MAXACTVP
 70
    16
  9
$PLIMCHECK
 70
     0
  9
$PEXTMIN
 10
1.0000000000000000E+020
 20
1.0000000000000000E+020
 30
1.0000000000000000E+020
  9
$PEXTMAX
 10
-1.0000000000000000E+020
 20
-1.0000000000000000E+020
 30
-1.0000000000000000E+020
  9
$PLIMMIN
 10
0.0
 20
0.0
  9
$PLIMMAX
 10
12.0
 20
9.0
  9
$UNITMODE
 70
     0
  9
$VISRETAIN
 70
     0
  9
$PLINEGEN
 70
     1
  9
$PSLTSCALE
 70
     0
  0
ENDSEC
  0
SECTION
  2
TABLES
  0
TABLE
  2
VPORT
 70
     1
  0
VPORT
  2
*ACTIVE
 70
     0
 10
0.0
 20
0.0
 11
1.0
 21
1.0
 12
100.0700744819264
 22
66.014785922033241
 13
0.0
 23
0.0
 14
2.5
 24
2.5
 15
5.0
 25
5.0
 16
0.0
 26
0.0
 36
1.0
 17
0.0
 27
0.0
 37
0.0
 40
139.20783109903601
 41
1.831871345029239
 42
50.0
 43
0.0
 44
0.0
 50
0.0
 51
0.0
 71
     0
 72
   500
 73
     1
 74
     0
 75
     0
 76
     0
 77
     0
 78
     2
  0
ENDTAB
  0
TABLE
  2
LTYPE
 70
     4
  0
LTYPE
  2
CONTINUOUS
 70
     0
  3
Solid Line
 72
    65
 73
     0
 40
0.0
  0
LTYPE
  2
CENTER
 70
     0
  3
____ _ ____ _ ____ _ ____ _ ____ _ ____ _ ____
 72
    65
 73
     4
 40
2.0
 49
1.25
 49
-0.25
 49
0.25
 49
-0.25
  0
LTYPE
  2
HIDDEN
 70
     0
  3
_ _ _ _ _ _ _ _ _ _ _ _ _ _ _ _ _ _ _ _ _ _ _
 72
    65
 73
     2
 40
0.375
 49
0.25
 49
-0.125
  0
LTYPE
  2
PHANTOM2
 70
     0
  3
___ _ _ ___ _ _ ___ _ _ ___ _ _
 72
    65
 73
     6
 40
1.25
 49
0.625
 49
-0.125
 49
0.125
 49
-0.125
 49
0.125
 49
-0.125
  0
ENDTAB
  0
TABLE
  2
LAYER
 70
     5
  0
LAYER
  2
0
 70
     0
 62
     7
  6
CONTINUOUS
  0
LAYER
  2
1
 70
     0
 62
     1
  6
CENTER
  0
LAYER
  2
3
 70
     0
 62
     3
  6
CONTINUOUS
  0
LAYER
  2
11
 70
     0
 62
     3
  6
CONTINUOUS
  0
LAYER
  2
2
 70
     0
 62
     2
  6
HIDDEN
  0
ENDTAB
  0
TABLE
  2
STYLE
 70
     2
  0
STYLE
  2
STANDARD
 70
     0
 40
0.0
 41
1.0
 50
0.0
 71
     0
 42
1.6000000000000489
  3
SIMPLEX
  4
BIGFONT
  0
STYLE
  2
STANDARD1
 70
     0
 40
0.0
 41
1.0
 50
0.0
 71
     0
 42
3.0
  3
txt
  4

  0
ENDTAB
  0
TABLE
  2
VIEW
 70
     1
  0
VIEW
  2
ALL
 70
     0
 40
87.5
 10
71.617647058823522
 20
43.75
 41
0.0
 11
0.0
 21
0.0
 31
1.0
 12
0.0
 22
0.0
 32
0.0
 42
0.0
 43
0.0
 44
0.0
 50
0.0
 71
     0
  0
ENDTAB
  0
TABLE
  2
UCS
 70
     0
  0
ENDTAB
  0
TABLE
  2
APPID
 70
     3
  0
APPID
  2
ACAD
 70
     0
  0
APPID
  2
ACAD_MLEADERVER
 70
     0
  0
APPID
  2
ACAD_NAV_VCDISPLAY
 70
     0
  0
ENDTAB
  0
TABLE
  2
DIMSTYLE
 70
     1
  0
DIMSTYLE
  2
STANDARD
 70
     0
  3

  4

  5

  6

  7

 40
1.0
 41
0.18
 42
0.0625
 43
0.38
 44
0.18
 45
0.0
 46
0.0
 47
0.0
 48
0.0
140
0.18
141
0.09
142
0.0
143
25.399999999999999
144
1.0
145
0.0
146
1.0
147
0.09
 71
     0
 72
     0
 73
     1
 74
     1
 75
     0
 76
     0
 77
     0
 78
     0
170
     0
171
     2
172
     0
173
     0
174
     0
175
     0
176
     0
177
     0
178
     0
  0
ENDTAB
  0
ENDSEC
  0
SECTION
  2
BLOCKS
  0
BLOCK
  8
0
  2
$MODEL_SPACE
 70
     0
 10
0.0
 20
0.0
 30
0.0
  3
$MODEL_SPACE
  1

  0
ENDBLK
  5
9E8
  8
0
  0
BLOCK
 67
     1
  8
0
  2
$PAPER_SPACE
 70
     0
 10
0.0
 20
0.0
 30
0.0
  3
$PAPER_SPACE
  1

  0
ENDBLK
  5
9E6
 67
     1
  8
0
  0
BLOCK
  8
0
  2
STDGX5
 70
     0
 10
0.0
 20
0.0
 30
0.0
  3
STDGX5
  1

  0
ENDBLK
  5
230
  8
0
  0
ENDSEC
  0
SECTION
  2
ENTITIES
  0
INSERT
  5
254
  8
11
  2
STDGX5
 10
155.0
 20
0.0
 30
0.0
 41
0.5
 42
0.5
 43
0.5
  0
INSERT
  5
6BE
  8
11
  2
STDGX5
 10
115.0
 20
100.0
 30
0.0
  0
ARC
  5
843
  8
0
 10
54.391377953062722
 20
55.642857105138432
 30
0.0
 40
9.0
 50
60.0
 51
120.0
  0
ARC
  5
844
  8
0
 10
54.391377953062722
 20
55.642857105138432
 30
0.0
 40
9.0
 50
240.0
 51
300.0
  0
LINE
  5
845
  8
0
 10
58.891377953062722
 20
63.43708573919838
 30
0.0
 11
58.891377953062722
 21
47.848628471078477
 31
0.0
  0
LINE
  5
846
  8
0
 10
49.891377953062708
 20
63.43708573919838
 30
0.0
 11
49.891377953062708
 21
47.848628471078477
 31
0.0
  0
LINE
  5
847
  8
1
 10
44.391377953062722
 20
55.642857105138432
 30
0.0
 11
64.391377953062715
 21
55.642857105138432
 31
0.0
  0
LINE
  5
848
  8
1
 10
54.391377953062722
 20
69.642857105138432
 30
0.0
 11
54.391377953062722
 21
41.642857105138432
 31
0.0
  0
CIRCLE
  5
849
  8
0
 10
95.785908754532443
 20
55.642857105138432
 30
0.0
 40
4.0
  0
CIRCLE
  5
84A
  8
0
 10
95.785908754532443
 20
55.642857105138432
 30
0.0
 40
7.794228634059948
  0
LINE
  5
84B
  8
0
 10
130.78590875453239
 20
58.442857105138408
 30
0.0
 11
130.78590875453239
 21
52.842857105138421
 31
0.0
  0
LINE
  5
84C
  8
0
 10
129.5859087545324
 20
51.642857105138432
 30
0.0
 11
106.032859520492
 21
51.642857105138432
 31
0.0
  0
ARC
  5
84D
  8
0
 10
106.032859520492
 20
63.642857105138432
 30
0.0
 40
4.0
 50
217.97987244485211
 51
270.0
  0
ARC
  5
84E
  8
0
 10
95.785908754532443
 20
55.642857105138432
 30
0.0
 40
9.0
 50
37.979872444851928
 51
322.02012755514812
  0
LINE
  5
84F
  8
0
 10
106.032859520492
 20
59.642857105138432
 30
0.0
 11
129.5859087545324
 21
59.642857105138432
 31
0.0
  0
ARC
  5
850
  8
0
 10
106.032859520492
 20
47.642857105138432
 30
0.0
 40
4.0
 50
90.000000000000028
 51
142.02012755514789
  0
LINE
  5
851
  8
1
 10
95.785908754532443
 20
69.642857105138432
 30
0.0
 11
95.785908754532443
 21
41.642857105138432
 31
0.0
  0
LINE
  5
852
  8
0
 10
110.7859087545324
 20
51.642857105138432
 30
0.0
 11
110.7859087545324
 21
59.642857105138432
 31
0.0
  0
LINE
  5
853
  8
1
 10
81.785908754532429
 20
55.642857105138432
 30
0.0
 11
135.78590875453239
 21
55.642857105138432
 31
0.0
  0
LINE
  5
854
  8
0
 10
129.5859087545324
 20
59.642857105138432
 30
0.0
 11
130.78590875453239
 21
58.442857105138408
 31
0.0
  0
LINE
  5
855
  8
0
 10
130.78590875453239
 20
52.842857105138421
 30
0.0
 11
129.5859087545324
 21
51.642857105138432
 31
0.0
  0
LINE
  5
856
  8
2
 10
58.391377953062708
 20
59.642857105138432
 30
0.0
 11
50.391377953062708
 21
59.642857105138432
 31
0.0
  0
LINE
  5
857
  8
2
 10
58.391377953062708
 20
51.642857105138432
 30
0.0
 11
50.391377953062708
 21
51.642857105138432
 31
0.0
  0
LINE
  5
858
  8
3
 10
110.7859087545324
 20
58.966357105138428
 30
0.0
 11
130.2624087545324
 21
58.966357105138428
 31
0.0
  0
LINE
  5
859
  8
3
 10
110.7859087545324
 20
52.319357105138408
 30
0.0
 11
130.2624087545324
 21
52.319357105138408
 31
0.0
  0
LINE
  5
85A
  8
3
 10
110.7859087545324
 20
58.966357105138428
 30
0.0
 11
109.6141763832121
 21
59.642857105138432
 31
0.0
  0
LINE
  5
85B
  8
3
 10
110.7859087545324
 20
52.319357105138408
 30
0.0
 11
109.6141763832121
 21
51.642857105138368
 31
0.0
  0
LINE
  5
85C
  8
0
 10
129.5859087545324
 20
59.642857105138432
 30
0.0
 11
129.58590875453251
 21
51.642857105138432
 31
0.0
  0
LINE
  5
8F7
  8
2
 10
50.391377953062708
 20
59.642857105138432
 30
0.0
 11
49.891377953062701
 21
60.142857105138432
 31
0.0
  0
LINE
  5
8F8
  8
2
 10
50.391377953062708
 20
51.642857105138432
 30
0.0
 11
49.891377953062708
 21
51.142857105138432
 31
0.0
  0
LINE
  5
8F9
  8
2
 10
58.391377953062708
 20
59.642857105138432
 30
0.0
 11
58.891377953062722
 21
60.142857105138432
 31
0.0
  0
LINE
  5
8FA
  8
2
 10
58.391377953062708
 20
51.642857105138432
 30
0.0
 11
58.891377953062722
 21
51.142857105138432
 31
0.0
  0
LINE
  5
8FB
  8
2
 10
58.391377953062708
 20
59.642857105138432
 30
0.0
 11
58.391377953062708
 21
51.642857105138432
 31
0.0
  0
LINE
  5
8FC
  8
2
 10
50.391377953062708
 20
59.642857105138432
 30
0.0
 11
50.391377953062708
 21
51.642857105138432
 31
0.0
  0
ARC
  5
927
  8
0
 10
95.785908754532443
 20
94.765306061380784
 30
0.0
 40
9.0
 50
150.0
 51
210.0
  0
LINE
  5
928
  8
1
 10
81.785908754532429
 20
94.765306061380784
 30
0.0
 11
135.78590875453239
 21
94.765306061380784
 31
0.0
  0
LINE
  5
939
  8
3
 10
110.7859087545324
 20
91.441806061380774
 30
0.0
 11
130.2624087545324
 21
91.441806061380774
 31
0.0
  0
LINE
  5
93A
  8
3
 10
110.7859087545324
 20
98.08880606138078
 30
0.0
 11
130.2624087545324
 21
98.08880606138078
 31
0.0
  0
LINE
  5
93B
  8
0
 10
106.032859520492
 20
98.765306061380784
 30
0.0
 11
129.5859087545324
 21
98.765306061380784
 31
0.0
  0
LINE
  5
93C
  8
0
 10
129.5859087545324
 20
90.765306061380784
 30
0.0
 11
106.032859520492
 21
90.765306061380784
 31
0.0
  0
LINE
  5
93D
  8
0
 10
110.7859087545324
 20
90.765306061380784
 30
0.0
 11
110.7859087545324
 21
98.765306061380784
 31
0.0
  0
LINE
  5
93E
  8
3
 10
110.7859087545324
 20
91.441806061380774
 30
0.0
 11
109.6141763832121
 21
90.765306061380727
 31
0.0
  0
ARC
  5
93F
  8
0
 10
106.032859520492
 20
86.765306061380784
 30
0.0
 40
4.0
 50
90.000000000000028
 51
118.95502437185969
  0
LINE
  5
940
  8
3
 10
110.7859087545324
 20
98.08880606138078
 30
0.0
 11
109.6141763832121
 21
98.765306061380784
 31
0.0
  0
ARC
  5
941
  8
0
 10
106.032859520492
 20
102.7653060613808
 30
0.0
 40
4.0
 50
241.04497562813981
 51
270.0
  0
LINE
  5
942
  8
0
 10
129.5859087545324
 20
98.765306061380784
 30
0.0
 11
129.58590875453251
 21
90.765306061380784
 31
0.0
  0
LINE
  5
943
  8
0
 10
130.78590875453239
 20
97.565306061380781
 30
0.0
 11
130.78590875453239
 21
91.965306061380772
 31
0.0
  0
LINE
  5
944
  8
0
 10
130.78590875453239
 20
91.965306061380772
 30
0.0
 11
129.5859087545324
 21
90.765306061380784
 31
0.0
  0
LINE
  5
945
  8
0
 10
129.5859087545324
 20
98.765306061380784
 30
0.0
 11
130.78590875453239
 21
97.565306061380781
 31
0.0
  0
LINE
  5
946
  8
0
 10
87.991680120472495
 20
99.265306061380784
 30
0.0
 11
104.09636784738829
 21
99.265306061380784
 31
0.0
  0
LINE
  5
947
  8
0
 10
87.991680120472495
 20
90.265306061380784
 30
0.0
 11
104.09636784738829
 21
90.265306061380784
 31
0.0
  0
ARC
  5
948
  8
0
 10
95.785908754532443
 20
94.765306061380784
 30
0.0
 40
9.0
 50
330.00000000000011
 51
29.999999999999989
  0
LINE
  5
949
  8
1
 10
95.785908754532457
 20
85.265306061380784
 30
0.0
 11
95.785908754532414
 21
104.2653060613808
 31
0.0
  0
TEXT
  5
AD6
  8
0
 62
     3
 10
0.0
 20
0.0
 30
0.0
 40
10.0
  1
BJ761-08011N
  7
STANDARD1
  0
ENDSEC
  0
EOF
