  0
SECTION
  2
HEADER
  9
$ACADVER
  1
AC1009
  9
$INSBASE
 10
0.0
 20
0.0
 30
0.0
  9
$EXTMIN
 10
0.0
 20
-2.960436562073669
 30
0.0
  9
$EXTMAX
 10
240.5607035855092
 20
147.47410083828399
 30
0.0
  9
$LIMMIN
 10
0.0
 20
0.0
  9
$LIMMAX
 10
385.0
 20
270.0
  9
$ORTHOMODE
 70
     1
  9
$REGENMODE
 70
     1
  9
$FILLMODE
 70
     1
  9
$QTEXTMODE
 70
     0
  9
$MIRRTEXT
 70
     0
  9
$DRAGMODE
 70
     2
  9
$LTSCALE
 40
10.0
  9
$OSMODE
 70
  3071
  9
$ATTMODE
 70
     1
  9
$TEXTSIZE
 40
1.6000000000000489
  9
$TRACEWID
 40
0.05
  9
$TEXTSTYLE
  7
STANDARD
  9
$CLAYER
  8
0
  9
$CELTYPE
  6
BYLAYER
  9
$CECOLOR
 62
   256
  9
$DIMSCALE
 40
1.0
  9
$DIMASZ
 40
3.0
  9
$DIMEXO
 40
2.0
  9
$DIMDLI
 40
0.38
  9
$DIMRND
 40
0.0
  9
$DIMDLE
 40
0.0
  9
$DIMEXE
 40
2.0
  9
$DIMTP
 40
0.0
  9
$DIMTM
 40
0.0
  9
$DIMTXT
 40
3.0
  9
$DIMCEN
 40
0.0
  9
$DIMTSZ
 40
0.0
  9
$DIMTOL
 70
     0
  9
$DIMLIM
 70
     0
  9
$DIMTIH
 70
     0
  9
$DIMTOH
 70
     0
  9
$DIMSE1
 70
     0
  9
$DIMSE2
 70
     0
  9
$DIMTAD
 70
     1
  9
$DIMZIN
 70
     0
  9
$DIMBLK
  1

  9
$DIMASO
 70
     1
  9
$DIMSHO
 70
     0
  9
$DIMPOST
  1

  9
$DIMAPOST
  1

  9
$DIMALT
 70
     0
  9
$DIMALTD
 70
     2
  9
$DIMALTF
 40
25.399999999999999
  9
$DIMLFAC
 40
1.0
  9
$DIMTOFL
 70
     1
  9
$DIMTVP
 40
1.6000000000000001
  9
$DIMTIX
 70
     1
  9
$DIMSOXD
 70
     0
  9
$DIMSAH
 70
     0
  9
$DIMBLK1
  1

  9
$DIMBLK2
  1

  9
$DIMSTYLE
  2
STANDARD
  9
$DIMCLRD
 70
     0
  9
$DIMCLRE
 70
     0
  9
$DIMCLRT
 70
     0
  9
$DIMTFAC
 40
1.0
  9
$DIMGAP
 40
0.09
  9
$LUNITS
 70
     2
  9
$LUPREC
 70
     4
  9
$SKETCHINC
 40
0.1
  9
$FILLETRAD
 40
0.3
  9
$AUNITS
 70
     0
  9
$AUPREC
 70
     4
  9
$MENU
  1
E:\r13\win\SUPPORT\ACAD
  9
$ELEVATION
 40
0.0
  9
$PELEVATION
 40
0.0
  9
$THICKNESS
 40
0.0
  9
$LIMCHECK
 70
     0
  9
$BLIPMODE
 70
     0
  9
$CHAMFERA
 40
0.5
  9
$CHAMFERB
 40
0.5
  9
$SKPOLY
 70
     0
  9
$TDCREATE
 40
2448328.489641204
  9
$TDUPDATE
 40
2456598.3694584491
  9
$TDINDWG
 40
0.2014374074
  9
$TDUSRTIMER
 40
0.2014374074
  9
$USRTIMER
 70
     1
  9
$ANGBASE
 50
0.0
  9
$ANGDIR
 70
     0
  9
$PDMODE
 70
    35
  9
$PDSIZE
 40
0.0
  9
$PLINEWID
 40
0.0
  9
$COORDS
 70
     1
  9
$SPLFRAME
 70
     0
  9
$SPLINETYPE
 70
     6
  9
$SPLINESEGS
 70
     8
  9
$ATTDIA
 70
     0
  9
$ATTREQ
 70
     1
  9
$HANDLING
 70
     1
  9
$HANDSEED
  5
F9D
  9
$SURFTAB1
 70
     6
  9
$SURFTAB2
 70
     6
  9
$SURFTYPE
 70
     6
  9
$SURFU
 70
     6
  9
$SURFV
 70
     6
  9
$UCSNAME
  2

  9
$UCSORG
 10
0.0
 20
0.0
 30
0.0
  9
$UCSXDIR
 10
1.0
 20
0.0
 30
0.0
  9
$UCSYDIR
 10
0.0
 20
1.0
 30
0.0
  9
$PUCSNAME
  2

  9
$PUCSORG
 10
0.0
 20
0.0
 30
0.0
  9
$PUCSXDIR
 10
1.0
 20
0.0
 30
0.0
  9
$PUCSYDIR
 10
0.0
 20
1.0
 30
0.0
  9
$USERI1
 70
     3
  9
$USERI2
 70
     1
  9
$USERI3
 70
     1
  9
$USERI4
 70
     0
  9
$USERI5
 70
     0
  9
$USERR1
 40
1.0
  9
$USERR2
 40
3.0
  9
$USERR3
 40
3.0
  9
$USERR4
 40
3.0
  9
$USERR5
 40
10.0
  9
$WORLDVIEW
 70
     1
  9
$SHADEDGE
 70
     3
  9
$SHADEDIF
 70
    70
  9
$TILEMODE
 70
     1
  9
$MAXACTVP
 70
    16
  9
$PLIMCHECK
 70
     0
  9
$PEXTMIN
 10
1.0000000000000000E+020
 20
1.0000000000000000E+020
 30
1.0000000000000000E+020
  9
$PEXTMAX
 10
-1.0000000000000000E+020
 20
-1.0000000000000000E+020
 30
-1.0000000000000000E+020
  9
$PLIMMIN
 10
0.0
 20
0.0
  9
$PLIMMAX
 10
12.0
 20
9.0
  9
$UNITMODE
 70
     0
  9
$VISRETAIN
 70
     0
  9
$PLINEGEN
 70
     1
  9
$PSLTSCALE
 70
     0
  0
ENDSEC
  0
SECTION
  2
TABLES
  0
TABLE
  2
VPORT
 70
     1
  0
VPORT
  2
*ACTIVE
 70
     0
 10
0.0
 20
0.0
 11
1.0
 21
1.0
 12
200.05795575583809
 22
133.5127261426681
 13
0.0
 23
0.0
 14
5.0
 24
5.0
 15
5.0
 25
5.0
 16
0.0
 26
0.0
 36
1.0
 17
0.0
 27
0.0
 37
0.0
 40
275.42274993631997
 41
1.831871345029239
 42
50.0
 43
0.0
 44
0.0
 50
0.0
 51
0.0
 71
     0
 72
   500
 73
     1
 74
     0
 75
     0
 76
     0
 77
     0
 78
     2
  0
ENDTAB
  0
TABLE
  2
LTYPE
 70
     4
  0
LTYPE
  2
CONTINUOUS
 70
     0
  3
Solid Line
 72
    65
 73
     0
 40
0.0
  0
LTYPE
  2
CENTER
 70
     0
  3
____ _ ____ _ ____ _ ____ _ ____ _ ____ _ ____
 72
    65
 73
     4
 40
2.0
 49
1.25
 49
-0.25
 49
0.25
 49
-0.25
  0
LTYPE
  2
HIDDEN
 70
     0
  3
_ _ _ _ _ _ _ _ _ _ _ _ _ _ _ _ _ _ _ _ _ _ _
 72
    65
 73
     2
 40
0.375
 49
0.25
 49
-0.125
  0
LTYPE
  2
PHANTOM2
 70
     0
  3
___ _ _ ___ _ _ ___ _ _ ___ _ _
 72
    65
 73
     6
 40
1.25
 49
0.625
 49
-0.125
 49
0.125
 49
-0.125
 49
0.125
 49
-0.125
  0
ENDTAB
  0
TABLE
  2
LAYER
 70
     4
  0
LAYER
  2
0
 70
     0
 62
     7
  6
CONTINUOUS
  0
LAYER
  2
1
 70
     0
 62
     1
  6
CENTER
  0
LAYER
  2
3
 70
     0
 62
     3
  6
CONTINUOUS
  0
LAYER
  2
2
 70
     0
 62
     2
  6
HIDDEN
  0
ENDTAB
  0
TABLE
  2
STYLE
 70
     2
  0
STYLE
  2
STANDARD
 70
     0
 40
0.0
 41
1.0
 50
0.0
 71
     0
 42
1.6000000000000489
  3
SIMPLEX
  4
BIGFONT
  0
STYLE
  2
STANDARD1
 70
     0
 40
0.0
 41
1.0
 50
0.0
 71
     0
 42
3.0
  3
txt
  4

  0
ENDTAB
  0
TABLE
  2
VIEW
 70
     1
  0
VIEW
  2
ALL
 70
     0
 40
87.5
 10
71.617647058823522
 20
43.75
 41
0.0
 11
0.0
 21
0.0
 31
1.0
 12
0.0
 22
0.0
 32
0.0
 42
0.0
 43
0.0
 44
0.0
 50
0.0
 71
     0
  0
ENDTAB
  0
TABLE
  2
UCS
 70
     0
  0
ENDTAB
  0
TABLE
  2
APPID
 70
     3
  0
APPID
  2
ACAD
 70
     0
  0
APPID
  2
ACAD_MLEADERVER
 70
     0
  0
APPID
  2
ACAD_NAV_VCDISPLAY
 70
     0
  0
ENDTAB
  0
TABLE
  2
DIMSTYLE
 70
     1
  0
DIMSTYLE
  2
STANDARD
 70
     0
  3

  4

  5

  6

  7

 40
1.0
 41
0.18
 42
0.0625
 43
0.38
 44
0.18
 45
0.0
 46
0.0
 47
0.0
 48
0.0
140
0.18
141
0.09
142
0.0
143
25.399999999999999
144
1.0
145
0.0
146
1.0
147
0.09
 71
     0
 72
     0
 73
     1
 74
     1
 75
     0
 76
     0
 77
     0
 78
     0
170
     0
171
     2
172
     0
173
     0
174
     0
175
     0
176
     0
177
     0
178
     0
  0
ENDTAB
  0
ENDSEC
  0
SECTION
  2
BLOCKS
  0
BLOCK
  8
0
  2
$MODEL_SPACE
 70
     0
 10
0.0
 20
0.0
 30
0.0
  3
$MODEL_SPACE
  1

  0
ENDBLK
  5
E0A
  8
0
  0
BLOCK
 67
     1
  8
0
  2
$PAPER_SPACE
 70
     0
 10
0.0
 20
0.0
 30
0.0
  3
$PAPER_SPACE
  1

  0
ENDBLK
  5
E08
 67
     1
  8
0
  0
ENDSEC
  0
SECTION
  2
ENTITIES
  0
LINE
  5
C77
  8
1
 10
28.05623194884129
 20
45.514917286950777
 30
0.0
 11
68.056231948841287
 21
45.514917286950762
 31
0.0
  0
LINE
  5
C78
  8
1
 10
110.5607035855091
 20
45.514917286950777
 30
0.0
 11
240.5607035855092
 21
45.514917286950777
 31
0.0
  0
CIRCLE
  5
C79
  8
0
 10
135.56070358550909
 20
45.514917286950777
 30
0.0
 40
9.0
  0
LINE
  5
C7A
  8
0
 10
235.56070358550909
 20
53.014917286950777
 30
0.0
 11
235.56070358550909
 21
38.014917286950777
 31
0.0
  0
LINE
  5
C7B
  8
1
 10
135.56070358550909
 20
20.51491728695078
 30
0.0
 11
135.56070358550909
 21
70.514917286950777
 31
0.0
  0
LINE
  5
C7C
  8
0
 10
233.06070358550909
 20
55.514917286950777
 30
0.0
 11
235.56070358550909
 21
53.014917286950777
 31
0.0
  0
LINE
  5
C7D
  8
0
 10
235.56070358550909
 20
38.014917286950777
 30
0.0
 11
233.06070358550909
 21
35.514917286950777
 31
0.0
  0
LINE
  5
C7E
  8
0
 10
233.06070358550909
 20
55.514917286950777
 30
0.0
 11
233.06070358550909
 21
35.514917286950777
 31
0.0
  0
LINE
  5
C7F
  8
0
 10
160.56070358550909
 20
35.514917286950762
 30
0.0
 11
160.56070358550909
 21
55.514917286950791
 31
0.0
  0
LINE
  5
C80
  8
3
 10
234.41370358550921
 20
54.161917286950768
 30
0.0
 11
160.56070358550909
 21
54.161917286950768
 31
0.0
  0
LINE
  5
C81
  8
3
 10
160.56070358550909
 20
54.161917286950768
 30
0.0
 11
158.21723884286851
 21
55.514917286950791
 31
0.0
  0
LINE
  5
C82
  8
3
 10
234.41370358550921
 20
36.867917286950792
 30
0.0
 11
160.56070358550909
 21
36.867917286950792
 31
0.0
  0
LINE
  5
C83
  8
3
 10
160.56070358550909
 20
36.867917286950792
 30
0.0
 11
158.21723884286851
 21
35.514917286950762
 31
0.0
  0
ARC
  5
C84
  8
0
 10
156.05460511742831
 20
61.514917286950791
 30
0.0
 40
6.0
 50
217.9798773183837
 51
270.0
  0
LINE
  5
C85
  8
0
 10
156.05460511742831
 20
55.514917286950791
 30
0.0
 11
233.06070358550909
 21
55.514917286950777
 31
0.0
  0
ARC
  5
C86
  8
0
 10
156.05460511742831
 20
29.514917286950759
 30
0.0
 40
6.0
 50
90.000000000000028
 51
142.0201226816163
  0
ARC
  5
C87
  8
0
 10
135.56070358550909
 20
45.514917286950777
 30
0.0
 40
20.0
 50
37.979870982792598
 51
322.02012901720741
  0
CIRCLE
  5
C88
  8
0
 10
135.56070358550909
 20
45.514917286950762
 30
0.0
 40
16.703294437189271
  0
ARC
  5
C89
  8
0
 10
48.056231948841287
 20
45.514917286950777
 30
0.0
 40
20.0
 50
56.632987030768327
 51
123.36701296923169
  0
ARC
  5
C8A
  8
0
 10
48.056231948841287
 20
45.514917286950777
 30
0.0
 40
20.0
 50
236.63298703076831
 51
303.36701296923172
  0
LINE
  5
C8B
  8
0
 10
37.056231948841287
 20
62.218210375440833
 30
0.0
 11
37.056231948841287
 21
28.81162419846072
 31
0.0
  0
LINE
  5
C8C
  8
0
 10
59.05623194884123
 20
62.218210375440862
 30
0.0
 11
59.05623194884123
 21
28.811624198460692
 31
0.0
  0
LINE
  5
C8D
  8
1
 10
48.056231948841287
 20
20.514917286950791
 30
0.0
 11
48.056231948841287
 21
70.514917286950777
 31
0.0
  0
LINE
  5
C8E
  8
2
 10
59.056231948841251
 20
54.514917286950812
 30
0.0
 11
37.056231948841301
 21
54.514917286950727
 31
0.0
  0
LINE
  5
C8F
  8
2
 10
59.056231948841251
 20
36.514917286950748
 30
0.0
 11
37.056231948841301
 21
36.514917286950812
 31
0.0
  0
LINE
  5
CC2
  8
0
 10
233.06070358550909
 20
35.514917286950777
 30
0.0
 11
156.05460511742831
 21
35.514917286950777
 31
0.0
  0
ARC
  5
D47
  8
0
 10
135.56070358550909
 20
131.4741008382841
 30
0.0
 40
20.0
 50
146.6329870307685
 51
213.36701296923169
  0
LINE
  5
D49
  8
1
 10
110.5607035855091
 20
131.4741008382841
 30
0.0
 11
240.5607035855092
 21
131.4741008382841
 31
0.0
  0
LINE
  5
D58
  8
3
 10
234.41370358550921
 20
140.12110083828409
 30
0.0
 11
160.56070358550909
 21
140.12110083828409
 31
0.0
  0
LINE
  5
D59
  8
3
 10
234.41370358550921
 20
122.8271008382841
 30
0.0
 11
160.56070358550909
 21
122.8271008382841
 31
0.0
  0
LINE
  5
D5A
  8
0
 10
156.05460511742831
 20
141.4741008382841
 30
0.0
 11
233.06070358550909
 21
141.4741008382841
 31
0.0
  0
LINE
  5
D5B
  8
0
 10
233.06070358550909
 20
121.4741008382841
 30
0.0
 11
156.05460511742831
 21
121.4741008382841
 31
0.0
  0
ARC
  5
D5D
  8
0
 10
156.05460511742831
 20
115.4741008382841
 30
0.0
 40
6.0
 50
90.000000000000028
 51
123.55730976192071
  0
ARC
  5
D5E
  8
0
 10
156.05460511742831
 20
147.4741008382841
 30
0.0
 40
6.0
 50
236.44269023808059
 51
270.0
  0
LINE
  5
D5F
  8
0
 10
160.56070358550909
 20
121.4741008382841
 30
0.0
 11
160.56070358550909
 21
141.4741008382841
 31
0.0
  0
LINE
  5
D60
  8
3
 10
160.56070358550909
 20
122.8271008382841
 30
0.0
 11
158.21723884286851
 21
121.4741008382841
 31
0.0
  0
LINE
  5
D61
  8
3
 10
160.56070358550909
 20
140.12110083828409
 30
0.0
 11
158.21723884286851
 21
141.4741008382841
 31
0.0
  0
LINE
  5
D62
  8
0
 10
235.56070358550909
 20
138.9741008382841
 30
0.0
 11
235.56070358550909
 21
123.9741008382841
 31
0.0
  0
LINE
  5
D63
  8
0
 10
233.06070358550909
 20
141.4741008382841
 30
0.0
 11
233.06070358550909
 21
121.4741008382841
 31
0.0
  0
LINE
  5
D64
  8
0
 10
235.56070358550909
 20
123.9741008382841
 30
0.0
 11
233.06070358550909
 21
121.4741008382841
 31
0.0
  0
LINE
  5
D65
  8
0
 10
233.06070358550909
 20
141.4741008382841
 30
0.0
 11
235.56070358550909
 21
138.9741008382841
 31
0.0
  0
LINE
  5
D66
  8
0
 10
118.857410497019
 20
142.47410083828399
 30
0.0
 11
152.73798032707299
 21
142.47410083828399
 31
0.0
  0
LINE
  5
D67
  8
0
 10
118.857410497019
 20
120.4741008382841
 30
0.0
 11
152.7379803270729
 21
120.4741008382841
 31
0.0
  0
LINE
  5
D68
  8
1
 10
135.56070358550909
 20
147.47410083828399
 30
0.0
 11
135.56070358550909
 21
115.4741008382841
 31
0.0
  0
ARC
  5
D69
  8
0
 10
135.56070358550909
 20
131.4741008382841
 30
0.0
 40
20.0
 50
326.63298703076822
 51
33.367012969231467
  0
LINE
  5
E67
  8
2
 10
144.56070358550909
 20
142.47410083828399
 30
0.0
 11
144.56070358550909
 21
120.4741008382841
 31
0.0
  0
LINE
  5
E68
  8
2
 10
126.5607035855091
 20
142.47410083828399
 30
0.0
 11
126.5607035855091
 21
120.4741008382841
 31
0.0
  0
TEXT
  5
F0F
  8
0
 62
     3
 10
0.0
 20
0.0
 30
0.0
 40
10.0
  1
BJ761-20011A
  7
STANDARD1
  0
ENDSEC
  0
EOF
