  0
SECTION
  2
HEADER
  9
$ACADVER
  1
AC1009
  9
$INSBASE
 10
0.0
 20
0.0
 30
0.0
  9
$EXTMIN
 10
0.0
 20
-2.960436562073669
 30
0.0
  9
$EXTMAX
 10
119.59999999999999
 20
154.1000000000009
 30
0.0
  9
$LIMMIN
 10
0.0
 20
0.0
  9
$LIMMAX
 10
12.0
 20
9.0
  9
$ORTHOMODE
 70
     1
  9
$REGENMODE
 70
     1
  9
$FILLMODE
 70
     1
  9
$QTEXTMODE
 70
     0
  9
$MIRRTEXT
 70
     0
  9
$DRAGMODE
 70
     2
  9
$LTSCALE
 40
10.0
  9
$OSMODE
 70
    37
  9
$ATTMODE
 70
     1
  9
$TEXTSIZE
 40
0.2
  9
$TRACEWID
 40
0.05
  9
$TEXTSTYLE
  7
STANDARD
  9
$CLAYER
  8
0
  9
$CELTYPE
  6
BYLAYER
  9
$CECOLOR
 62
   256
  9
$DIMSCALE
 40
1.0
  9
$DIMASZ
 40
0.18
  9
$DIMEXO
 40
0.0625
  9
$DIMDLI
 40
0.38
  9
$DIMRND
 40
0.0
  9
$DIMDLE
 40
0.0
  9
$DIMEXE
 40
0.18
  9
$DIMTP
 40
0.0
  9
$DIMTM
 40
0.0
  9
$DIMTXT
 40
0.18
  9
$DIMCEN
 40
0.09
  9
$DIMTSZ
 40
0.0
  9
$DIMTOL
 70
     0
  9
$DIMLIM
 70
     0
  9
$DIMTIH
 70
     1
  9
$DIMTOH
 70
     1
  9
$DIMSE1
 70
     0
  9
$DIMSE2
 70
     0
  9
$DIMTAD
 70
     0
  9
$DIMZIN
 70
     0
  9
$DIMBLK
  1

  9
$DIMASO
 70
     1
  9
$DIMSHO
 70
     1
  9
$DIMPOST
  1

  9
$DIMAPOST
  1

  9
$DIMALT
 70
     0
  9
$DIMALTD
 70
     2
  9
$DIMALTF
 40
25.399999999999999
  9
$DIMLFAC
 40
1.0
  9
$DIMTOFL
 70
     0
  9
$DIMTVP
 40
0.0
  9
$DIMTIX
 70
     0
  9
$DIMSOXD
 70
     0
  9
$DIMSAH
 70
     0
  9
$DIMBLK1
  1

  9
$DIMBLK2
  1

  9
$DIMSTYLE
  2
STANDARD
  9
$DIMCLRD
 70
     0
  9
$DIMCLRE
 70
     0
  9
$DIMCLRT
 70
     0
  9
$DIMTFAC
 40
1.0
  9
$DIMGAP
 40
0.09
  9
$LUNITS
 70
     2
  9
$LUPREC
 70
     4
  9
$SKETCHINC
 40
0.1
  9
$FILLETRAD
 40
1.5
  9
$AUNITS
 70
     0
  9
$AUPREC
 70
     0
  9
$MENU
  1
.
  9
$ELEVATION
 40
0.0
  9
$PELEVATION
 40
0.0
  9
$THICKNESS
 40
0.0
  9
$LIMCHECK
 70
     0
  9
$BLIPMODE
 70
     0
  9
$CHAMFERA
 40
0.0
  9
$CHAMFERB
 40
0.0
  9
$SKPOLY
 70
     0
  9
$TDCREATE
 40
2453083.4120647679
  9
$TDUPDATE
 40
2457497.6471608221
  9
$TDINDWG
 40
0.4537687269
  9
$TDUSRTIMER
 40
0.4537686111
  9
$USRTIMER
 70
     1
  9
$ANGBASE
 50
0.0
  9
$ANGDIR
 70
     0
  9
$PDMODE
 70
     0
  9
$PDSIZE
 40
0.0
  9
$PLINEWID
 40
0.0
  9
$COORDS
 70
     1
  9
$SPLFRAME
 70
     0
  9
$SPLINETYPE
 70
     6
  9
$SPLINESEGS
 70
     8
  9
$ATTDIA
 70
     0
  9
$ATTREQ
 70
     1
  9
$HANDLING
 70
     1
  9
$HANDSEED
  5
395C
  9
$SURFTAB1
 70
     6
  9
$SURFTAB2
 70
     6
  9
$SURFTYPE
 70
     6
  9
$SURFU
 70
     6
  9
$SURFV
 70
     6
  9
$UCSNAME
  2

  9
$UCSORG
 10
0.0
 20
0.0
 30
0.0
  9
$UCSXDIR
 10
1.0
 20
0.0
 30
0.0
  9
$UCSYDIR
 10
0.0
 20
1.0
 30
0.0
  9
$PUCSNAME
  2

  9
$PUCSORG
 10
0.0
 20
0.0
 30
0.0
  9
$PUCSXDIR
 10
1.0
 20
0.0
 30
0.0
  9
$PUCSYDIR
 10
0.0
 20
1.0
 30
0.0
  9
$USERI1
 70
     0
  9
$USERI2
 70
     1
  9
$USERI3
 70
     0
  9
$USERI4
 70
     0
  9
$USERI5
 70
     0
  9
$USERR1
 40
0.0
  9
$USERR2
 40
0.0
  9
$USERR3
 40
0.0
  9
$USERR4
 40
0.0
  9
$USERR5
 40
0.0
  9
$WORLDVIEW
 70
     1
  9
$SHADEDGE
 70
     3
  9
$SHADEDIF
 70
    70
  9
$TILEMODE
 70
     1
  9
$MAXACTVP
 70
    64
  9
$PLIMCHECK
 70
     0
  9
$PEXTMIN
 10
0.0
 20
0.0
 30
0.0
  9
$PEXTMAX
 10
0.0
 20
0.0
 30
0.0
  9
$PLIMMIN
 10
0.0
 20
0.0
  9
$PLIMMAX
 10
12.0
 20
9.0
  9
$UNITMODE
 70
     0
  9
$VISRETAIN
 70
     1
  9
$PLINEGEN
 70
     0
  9
$PSLTSCALE
 70
     1
  0
ENDSEC
  0
SECTION
  2
TABLES
  0
TABLE
  2
VPORT
 70
     1
  0
VPORT
  2
*ACTIVE
 70
     0
 10
0.0
 20
0.0
 11
1.0
 21
1.0
 12
139.8497752103321
 22
75.566396172291718
 13
0.0
 23
0.0
 14
0.5
 24
0.5
 15
0.5
 25
0.5
 16
0.0
 26
0.0
 36
1.0
 17
0.0
 27
0.0
 37
0.0
 40
158.44598695357681
 41
2.6019575856443709
 42
50.0
 43
0.0
 44
0.0
 50
0.0
 51
0.0
 71
     0
 72
  1000
 73
     1
 74
     2
 75
     0
 76
     0
 77
     0
 78
     0
  0
ENDTAB
  0
TABLE
  2
LTYPE
 70
     3
  0
LTYPE
  2
CONTINUOUS
 70
     0
  3
Solid Line
 72
    65
 73
     0
 40
0.0
  0
LTYPE
  2
CENTER
 70
     0
  3
____ _ ____ _ ____ _ ____ _ ____ _ ____ _ ____
 72
    65
 73
     4
 40
2.0
 49
1.25
 49
-0.25
 49
0.25
 49
-0.25
  0
LTYPE
  2
PHANTOM2
 70
     0
  3
___ _ _ ___ _ _ ___ _ _ ___ _ _
 72
    65
 73
     6
 40
1.25
 49
0.625
 49
-0.125
 49
0.125
 49
-0.125
 49
0.125
 49
-0.125
  0
ENDTAB
  0
TABLE
  2
LAYER
 70
     2
  0
LAYER
  2
0
 70
     0
 62
     7
  6
CONTINUOUS
  0
LAYER
  2
1
 70
     0
 62
     1
  6
CENTER
  0
ENDTAB
  0
TABLE
  2
STYLE
 70
     2
  0
STYLE
  2
STANDARD
 70
     0
 40
0.0
 41
1.0
 50
0.0
 71
     0
 42
0.2
  3
simplex.shx
  4
bigfont.shx
  0
STYLE
  2
STANDARD1
 70
     0
 40
0.0
 41
1.0
 50
0.0
 71
     0
 42
3.0
  3
txt
  4

  0
ENDTAB
  0
TABLE
  2
VIEW
 70
     0
  0
ENDTAB
  0
TABLE
  2
UCS
 70
     0
  0
ENDTAB
  0
TABLE
  2
APPID
 70
     5
  0
APPID
  2
ACAD
 70
     0
  0
APPID
  2
DCO15
 70
     0
  0
APPID
  2
ACAD_MLEADERVER
 70
     0
  0
APPID
  2
ACAD_NAV_VCDISPLAY
 70
     0
  0
APPID
  2
ACAD_EXEMPT_FROM_CAD_STANDARDS
 70
     0
  0
ENDTAB
  0
TABLE
  2
DIMSTYLE
 70
     1
  0
DIMSTYLE
  2
STANDARD
 70
     0
  3

  4

  5

  6

  7

 40
1.0
 41
0.18
 42
0.0625
 43
0.38
 44
0.18
 45
0.0
 46
0.0
 47
0.0
 48
0.0
140
0.18
141
0.09
142
0.0
143
25.399999999999999
144
1.0
145
0.0
146
1.0
147
0.09
 71
     0
 72
     0
 73
     1
 74
     1
 75
     0
 76
     0
 77
     0
 78
     0
170
     0
171
     2
172
     0
173
     0
174
     0
175
     0
176
     0
177
     0
178
     0
  0
ENDTAB
  0
ENDSEC
  0
SECTION
  2
BLOCKS
  0
BLOCK
  8
0
  2
$MODEL_SPACE
 70
     0
 10
0.0
 20
0.0
 30
0.0
  3
$MODEL_SPACE
  1

  0
ENDBLK
  5
21
  8
0
  0
BLOCK
 67
     1
  8
0
  2
$PAPER_SPACE
 70
     0
 10
0.0
 20
0.0
 30
0.0
  3
$PAPER_SPACE
  1

  0
ENDBLK
  5
5B
 67
     1
  8
0
  0
ENDSEC
  0
SECTION
  2
ENTITIES
  0
LINE
  5
2C97
  8
0
 10
117.1071858360767
 20
90.500000000000981
 30
0.0
 11
107.9928141639234
 21
90.500000000000981
 31
0.0
  0
LINE
  5
2D55
  8
0
 10
109.52265745301619
 20
98.879519183450626
 30
0.0
 11
114.9901781757428
 21
98.879519183450626
 31
0.0
  0
LINE
  5
2D5D
  8
0
 10
115.5773425469839
 20
93.000000000000981
 30
0.0
 11
109.52265745301619
 21
93.000000000000981
 31
0.0
  0
LINE
  5
2E2E
  8
0
 10
25.905594228764269
 20
146.0773425469848
 30
0.0
 11
44.803227665824551
 21
147.26906892867231
 31
0.0
  0
LINE
  5
2F3C
  8
0
 10
25.636345484052779
 20
93.000000000000966
 30
0.0
 11
25.73954075502439
 21
93.000000000000966
 31
0.0
  0
LINE
  5
2F42
  8
0
 10
53.350000000000051
 20
105.0000000000009
 30
0.0
 11
46.649999999999999
 21
105.0000000000009
 31
0.0
  0
LINE
  5
2F45
  8
0
 10
25.73954075502439
 20
93.000000000000966
 30
0.0
 11
25.993244076001591
 21
93.000000000000966
 31
0.0
  0
ARC
  5
2F4E
  8
0
 10
50.063772361107361
 20
-6.1846871549952018
 30
0.0
 40
107.9500000000002
 50
94.017856613247105
 51
103.27795552508771
  0
LINE
  5
2F52
  8
0
 10
45.699999999999953
 20
35.0
 30
0.0
 11
54.300000000000061
 21
35.0
 31
0.0
  0
LINE
  5
2F73
  8
0
 10
57.050000000000011
 20
69.000000000000938
 30
0.0
 11
42.95000000000001
 21
69.000000000000966
 31
0.0
  0
LINE
  5
2F75
  8
0
 10
57.050000000000011
 20
70.651000000000963
 30
0.0
 11
42.950000000000003
 21
70.651000000000991
 31
0.0
  0
LINE
  5
2F86
  8
0
 10
46.150000000000013
 20
104.5000000000009
 30
0.0
 11
46.150000000000013
 21
101.5000000000009
 31
0.0
  0
LINE
  5
2F98
  8
1
 10
50.0
 20
110.0000000000009
 30
0.0
 11
50.0
 21
30.0
 31
0.0
  0
LINE
  5
2F99
  8
0
 10
45.0
 20
69.000000000000966
 30
0.0
 11
45.0
 21
44.000000000000973
 31
0.0
  0
LINE
  5
2F9A
  8
0
 10
45.000000000000021
 20
36.999999999999993
 30
0.0
 11
55.000000000000028
 21
36.999999999999972
 31
0.0
  0
LINE
  5
2F9E
  8
0
 10
45.0
 20
36.999999999999972
 30
0.0
 11
45.699999999999953
 21
35.0
 31
0.0
  0
ARC
  5
2F9F
  8
0
 10
45.850000000000051
 20
42.413336834738743
 30
0.0
 40
1.8
 50
118.1786427405318
 51
241.82135725946819
  0
LINE
  5
2FA1
  8
0
 10
45.0
 20
40.826673669476527
 30
0.0
 11
45.0
 21
36.999999999999972
 31
0.0
  0
ARC
  5
2FAA
  8
0
 10
40.976005724462681
 20
42.413336834738743
 30
0.0
 40
4.3255092104348867
 50
338.48065491511858
 51
21.519345084881369
  0
ARC
  5
2FAF
  8
0
 10
59.023994275537348
 20
42.413336834738743
 30
0.0
 40
4.3255092104348867
 50
158.48065491511861
 51
201.51934508488131
  0
LINE
  5
2FB0
  8
0
 10
55.000000000000028
 20
40.826673669476527
 30
0.0
 11
55.000000000000028
 21
36.999999999999972
 31
0.0
  0
ARC
  5
2FB1
  8
0
 10
54.149999999999977
 20
42.413336834738743
 30
0.0
 40
1.8
 50
298.17864274053181
 51
61.821357259468208
  0
LINE
  5
2FB2
  8
0
 10
55.000000000000028
 20
69.000000000000966
 30
0.0
 11
55.000000000000028
 21
44.000000000000973
 31
0.0
  0
LINE
  5
2FB3
  8
0
 10
55.000000000000028
 20
36.999999999999972
 30
0.0
 11
54.300000000000061
 21
35.0
 31
0.0
  0
ARC
  5
2FB9
  8
0
 10
39.602580934974519
 20
89.540545503270891
 30
0.0
 40
3.4822072494599841
 50
15.99363427488337
 51
83.446639587204118
  0
LINE
  5
2FBB
  8
0
 10
42.949999999999989
 20
90.500000000000966
 30
0.0
 11
44.293693110721158
 21
90.500000000000966
 31
0.0
  0
POLYLINE
  5
2FBF
  8
0
 10
44.293693110721158
 20
90.500000000000938
 30
0.0
 66
     1
 70
     8
  0
VERTEX
  8
0
  5
3650
 10
44.2937
 20
90.5000
 30
0.000000
  70
    32
  0
VERTEX
  8
0
  5
3651
 10
44.2934
 20
90.5307
 30
0.000000
  70
    32
  0
VERTEX
  8
0
  5
3652
 10
44.2926
 20
90.5614
 30
0.000000
  70
    32
  0
VERTEX
  8
0
  5
3653
 10
44.2913
 20
90.5920
 30
0.000000
  70
    32
  0
VERTEX
  8
0
  5
3654
 10
44.2895
 20
90.6227
 30
0.000000
  70
    32
  0
VERTEX
  8
0
  5
3655
 10
44.2871
 20
90.6533
 30
0.000000
  70
    32
  0
VERTEX
  8
0
  5
3656
 10
44.2842
 20
90.6839
 30
0.000000
  70
    32
  0
VERTEX
  8
0
  5
3657
 10
44.2808
 20
90.7145
 30
0.000000
  70
    32
  0
VERTEX
  8
0
  5
3658
 10
44.2768
 20
90.7450
 30
0.000000
  70
    32
  0
VERTEX
  8
0
  5
3659
 10
44.2724
 20
90.7756
 30
0.000000
  70
    32
  0
VERTEX
  8
0
  5
365A
 10
44.2674
 20
90.8060
 30
0.000000
  70
    32
  0
VERTEX
  8
0
  5
365B
 10
44.2619
 20
90.8365
 30
0.000000
  70
    32
  0
VERTEX
  8
0
  5
365C
 10
44.2558
 20
90.8668
 30
0.000000
  70
    32
  0
VERTEX
  8
0
  5
365D
 10
44.2492
 20
90.8971
 30
0.000000
  70
    32
  0
VERTEX
  8
0
  5
365E
 10
44.2422
 20
90.9274
 30
0.000000
  70
    32
  0
VERTEX
  8
0
  5
365F
 10
44.2346
 20
90.9576
 30
0.000000
  70
    32
  0
VERTEX
  8
0
  5
3660
 10
44.2264
 20
90.9877
 30
0.000000
  70
    32
  0
VERTEX
  8
0
  5
3661
 10
44.2178
 20
91.0178
 30
0.000000
  70
    32
  0
VERTEX
  8
0
  5
3662
 10
44.2087
 20
91.0478
 30
0.000000
  70
    32
  0
VERTEX
  8
0
  5
3663
 10
44.1990
 20
91.0776
 30
0.000000
  70
    32
  0
VERTEX
  8
0
  5
3664
 10
44.1888
 20
91.1075
 30
0.000000
  70
    32
  0
VERTEX
  8
0
  5
3665
 10
44.1781
 20
91.1372
 30
0.000000
  70
    32
  0
VERTEX
  8
0
  5
3666
 10
44.1669
 20
91.1668
 30
0.000000
  70
    32
  0
VERTEX
  8
0
  5
3667
 10
44.1552
 20
91.1963
 30
0.000000
  70
    32
  0
VERTEX
  8
0
  5
3668
 10
44.1430
 20
91.2257
 30
0.000000
  70
    32
  0
VERTEX
  8
0
  5
3669
 10
44.1303
 20
91.2550
 30
0.000000
  70
    32
  0
VERTEX
  8
0
  5
366A
 10
44.1170
 20
91.2842
 30
0.000000
  70
    32
  0
VERTEX
  8
0
  5
366B
 10
44.1033
 20
91.3133
 30
0.000000
  70
    32
  0
VERTEX
  8
0
  5
366C
 10
44.0891
 20
91.3422
 30
0.000000
  70
    32
  0
VERTEX
  8
0
  5
366D
 10
44.0744
 20
91.3710
 30
0.000000
  70
    32
  0
VERTEX
  8
0
  5
366E
 10
44.0592
 20
91.3997
 30
0.000000
  70
    32
  0
VERTEX
  8
0
  5
366F
 10
44.0435
 20
91.4283
 30
0.000000
  70
    32
  0
VERTEX
  8
0
  5
3670
 10
44.0273
 20
91.4567
 30
0.000000
  70
    32
  0
VERTEX
  8
0
  5
3671
 10
44.0106
 20
91.4850
 30
0.000000
  70
    32
  0
VERTEX
  8
0
  5
3672
 10
43.9934
 20
91.5131
 30
0.000000
  70
    32
  0
VERTEX
  8
0
  5
3673
 10
43.9758
 20
91.5411
 30
0.000000
  70
    32
  0
VERTEX
  8
0
  5
3674
 10
43.9577
 20
91.5689
 30
0.000000
  70
    32
  0
VERTEX
  8
0
  5
3675
 10
43.9391
 20
91.5965
 30
0.000000
  70
    32
  0
VERTEX
  8
0
  5
3676
 10
43.9200
 20
91.6240
 30
0.000000
  70
    32
  0
VERTEX
  8
0
  5
3677
 10
43.9004
 20
91.6513
 30
0.000000
  70
    32
  0
VERTEX
  8
0
  5
3678
 10
43.8804
 20
91.6785
 30
0.000000
  70
    32
  0
VERTEX
  8
0
  5
3679
 10
43.8599
 20
91.7055
 30
0.000000
  70
    32
  0
VERTEX
  8
0
  5
367A
 10
43.8390
 20
91.7322
 30
0.000000
  70
    32
  0
VERTEX
  8
0
  5
367B
 10
43.8176
 20
91.7588
 30
0.000000
  70
    32
  0
VERTEX
  8
0
  5
367C
 10
43.7957
 20
91.7853
 30
0.000000
  70
    32
  0
VERTEX
  8
0
  5
367D
 10
43.7734
 20
91.8115
 30
0.000000
  70
    32
  0
VERTEX
  8
0
  5
367E
 10
43.7507
 20
91.8375
 30
0.000000
  70
    32
  0
VERTEX
  8
0
  5
367F
 10
43.7275
 20
91.8633
 30
0.000000
  70
    32
  0
VERTEX
  8
0
  5
3680
 10
43.7038
 20
91.8889
 30
0.000000
  70
    32
  0
VERTEX
  8
0
  5
3681
 10
43.6798
 20
91.9143
 30
0.000000
  70
    32
  0
VERTEX
  8
0
  5
3682
 10
43.6552
 20
91.9395
 30
0.000000
  70
    32
  0
VERTEX
  8
0
  5
3683
 10
43.6303
 20
91.9645
 30
0.000000
  70
    32
  0
VERTEX
  8
0
  5
3684
 10
43.6049
 20
91.9892
 30
0.000000
  70
    32
  0
VERTEX
  8
0
  5
3685
 10
43.5791
 20
92.0138
 30
0.000000
  70
    32
  0
VERTEX
  8
0
  5
3686
 10
43.5529
 20
92.0381
 30
0.000000
  70
    32
  0
VERTEX
  8
0
  5
3687
 10
43.5263
 20
92.0621
 30
0.000000
  70
    32
  0
VERTEX
  8
0
  5
3688
 10
43.4992
 20
92.0860
 30
0.000000
  70
    32
  0
VERTEX
  8
0
  5
3689
 10
43.4718
 20
92.1096
 30
0.000000
  70
    32
  0
VERTEX
  8
0
  5
368A
 10
43.4439
 20
92.1329
 30
0.000000
  70
    32
  0
VERTEX
  8
0
  5
368B
 10
43.4157
 20
92.1560
 30
0.000000
  70
    32
  0
VERTEX
  8
0
  5
368C
 10
43.3870
 20
92.1789
 30
0.000000
  70
    32
  0
VERTEX
  8
0
  5
368D
 10
43.3580
 20
92.2015
 30
0.000000
  70
    32
  0
VERTEX
  8
0
  5
368E
 10
43.3286
 20
92.2239
 30
0.000000
  70
    32
  0
VERTEX
  8
0
  5
368F
 10
43.2988
 20
92.2459
 30
0.000000
  70
    32
  0
VERTEX
  8
0
  5
3690
 10
43.2686
 20
92.2678
 30
0.000000
  70
    32
  0
VERTEX
  8
0
  5
3691
 10
43.2380
 20
92.2893
 30
0.000000
  70
    32
  0
VERTEX
  8
0
  5
3692
 10
43.2071
 20
92.3106
 30
0.000000
  70
    32
  0
VERTEX
  8
0
  5
3693
 10
43.1758
 20
92.3316
 30
0.000000
  70
    32
  0
VERTEX
  8
0
  5
3694
 10
43.1441
 20
92.3524
 30
0.000000
  70
    32
  0
VERTEX
  8
0
  5
3695
 10
43.1121
 20
92.3728
 30
0.000000
  70
    32
  0
VERTEX
  8
0
  5
3696
 10
43.0798
 20
92.3930
 30
0.000000
  70
    32
  0
VERTEX
  8
0
  5
3697
 10
43.0471
 20
92.4129
 30
0.000000
  70
    32
  0
VERTEX
  8
0
  5
3698
 10
43.0141
 20
92.4325
 30
0.000000
  70
    32
  0
VERTEX
  8
0
  5
3699
 10
42.9807
 20
92.4518
 30
0.000000
  70
    32
  0
VERTEX
  8
0
  5
369A
 10
42.9470
 20
92.4709
 30
0.000000
  70
    32
  0
VERTEX
  8
0
  5
369B
 10
42.9130
 20
92.4896
 30
0.000000
  70
    32
  0
VERTEX
  8
0
  5
369C
 10
42.8786
 20
92.5080
 30
0.000000
  70
    32
  0
VERTEX
  8
0
  5
369D
 10
42.8440
 20
92.5261
 30
0.000000
  70
    32
  0
VERTEX
  8
0
  5
369E
 10
42.8090
 20
92.5440
 30
0.000000
  70
    32
  0
VERTEX
  8
0
  5
369F
 10
42.7738
 20
92.5615
 30
0.000000
  70
    32
  0
VERTEX
  8
0
  5
36A0
 10
42.7382
 20
92.5787
 30
0.000000
  70
    32
  0
VERTEX
  8
0
  5
36A1
 10
42.7023
 20
92.5956
 30
0.000000
  70
    32
  0
VERTEX
  8
0
  5
36A2
 10
42.6662
 20
92.6121
 30
0.000000
  70
    32
  0
VERTEX
  8
0
  5
36A3
 10
42.6298
 20
92.6284
 30
0.000000
  70
    32
  0
VERTEX
  8
0
  5
36A4
 10
42.5931
 20
92.6443
 30
0.000000
  70
    32
  0
VERTEX
  8
0
  5
36A5
 10
42.5561
 20
92.6599
 30
0.000000
  70
    32
  0
VERTEX
  8
0
  5
36A6
 10
42.5188
 20
92.6752
 30
0.000000
  70
    32
  0
VERTEX
  8
0
  5
36A7
 10
42.4813
 20
92.6902
 30
0.000000
  70
    32
  0
VERTEX
  8
0
  5
36A8
 10
42.4436
 20
92.7048
 30
0.000000
  70
    32
  0
VERTEX
  8
0
  5
36A9
 10
42.4056
 20
92.7191
 30
0.000000
  70
    32
  0
VERTEX
  8
0
  5
36AA
 10
42.3673
 20
92.7331
 30
0.000000
  70
    32
  0
VERTEX
  8
0
  5
36AB
 10
42.3288
 20
92.7467
 30
0.000000
  70
    32
  0
VERTEX
  8
0
  5
36AC
 10
42.2901
 20
92.7600
 30
0.000000
  70
    32
  0
VERTEX
  8
0
  5
36AD
 10
42.2512
 20
92.7729
 30
0.000000
  70
    32
  0
VERTEX
  8
0
  5
36AE
 10
42.2120
 20
92.7855
 30
0.000000
  70
    32
  0
VERTEX
  8
0
  5
36AF
 10
42.1727
 20
92.7978
 30
0.000000
  70
    32
  0
VERTEX
  8
0
  5
36B0
 10
42.1331
 20
92.8097
 30
0.000000
  70
    32
  0
VERTEX
  8
0
  5
36B1
 10
42.0933
 20
92.8213
 30
0.000000
  70
    32
  0
VERTEX
  8
0
  5
36B2
 10
42.0533
 20
92.8325
 30
0.000000
  70
    32
  0
VERTEX
  8
0
  5
36B3
 10
42.0132
 20
92.8433
 30
0.000000
  70
    32
  0
VERTEX
  8
0
  5
36B4
 10
41.9728
 20
92.8539
 30
0.000000
  70
    32
  0
VERTEX
  8
0
  5
36B5
 10
41.9323
 20
92.8640
 30
0.000000
  70
    32
  0
VERTEX
  8
0
  5
36B6
 10
41.8916
 20
92.8738
 30
0.000000
  70
    32
  0
VERTEX
  8
0
  5
36B7
 10
41.8507
 20
92.8833
 30
0.000000
  70
    32
  0
VERTEX
  8
0
  5
36B8
 10
41.8097
 20
92.8924
 30
0.000000
  70
    32
  0
VERTEX
  8
0
  5
36B9
 10
41.7685
 20
92.9011
 30
0.000000
  70
    32
  0
VERTEX
  8
0
  5
36BA
 10
41.7272
 20
92.9094
 30
0.000000
  70
    32
  0
VERTEX
  8
0
  5
36BB
 10
41.6857
 20
92.9174
 30
0.000000
  70
    32
  0
VERTEX
  8
0
  5
36BC
 10
41.6441
 20
92.9251
 30
0.000000
  70
    32
  0
VERTEX
  8
0
  5
36BD
 10
41.6024
 20
92.9323
 30
0.000000
  70
    32
  0
VERTEX
  8
0
  5
36BE
 10
41.5605
 20
92.9393
 30
0.000000
  70
    32
  0
VERTEX
  8
0
  5
36BF
 10
41.5186
 20
92.9458
 30
0.000000
  70
    32
  0
VERTEX
  8
0
  5
36C0
 10
41.4765
 20
92.9520
 30
0.000000
  70
    32
  0
VERTEX
  8
0
  5
36C1
 10
41.4343
 20
92.9578
 30
0.000000
  70
    32
  0
VERTEX
  8
0
  5
36C2
 10
41.3921
 20
92.9632
 30
0.000000
  70
    32
  0
VERTEX
  8
0
  5
36C3
 10
41.3497
 20
92.9683
 30
0.000000
  70
    32
  0
VERTEX
  8
0
  5
36C4
 10
41.3072
 20
92.9729
 30
0.000000
  70
    32
  0
VERTEX
  8
0
  5
36C5
 10
41.2647
 20
92.9773
 30
0.000000
  70
    32
  0
VERTEX
  8
0
  5
36C6
 10
41.2221
 20
92.9812
 30
0.000000
  70
    32
  0
VERTEX
  8
0
  5
36C7
 10
41.1795
 20
92.9848
 30
0.000000
  70
    32
  0
VERTEX
  8
0
  5
36C8
 10
41.1368
 20
92.9880
 30
0.000000
  70
    32
  0
VERTEX
  8
0
  5
36C9
 10
41.0940
 20
92.9908
 30
0.000000
  70
    32
  0
VERTEX
  8
0
  5
36CA
 10
41.0512
 20
92.9932
 30
0.000000
  70
    32
  0
VERTEX
  8
0
  5
36CB
 10
41.0083
 20
92.9953
 30
0.000000
  70
    32
  0
VERTEX
  8
0
  5
36CC
 10
40.9654
 20
92.9970
 30
0.000000
  70
    32
  0
VERTEX
  8
0
  5
36CD
 10
40.9225
 20
92.9983
 30
0.000000
  70
    32
  0
VERTEX
  8
0
  5
36CE
 10
40.8796
 20
92.9992
 30
0.000000
  70
    32
  0
VERTEX
  8
0
  5
36CF
 10
40.8366
 20
92.9998
 30
0.000000
  70
    32
  0
VERTEX
  8
0
  5
36D0
 10
40.7937
 20
93.0000
 30
0.000000
  70
    32
  0
SEQEND
  8
0
  5
36D1
  0
LINE
  5
2FCD
  8
0
 10
42.5
 20
101.5000000000009
 30
0.0
 11
57.500000000000107
 21
101.5000000000009
 31
0.0
  0
ARC
  5
2FCF
  8
0
 10
46.649999999999999
 20
104.5000000000009
 30
0.0
 40
0.5
 50
90.0
 51
180.0
  0
LINE
  5
2FD1
  8
0
 10
46.150000000000013
 20
104.5000000000009
 30
0.0
 11
53.850000000000051
 21
104.5000000000008
 31
0.0
  0
ARC
  5
2FD3
  8
0
 10
53.350000000000051
 20
104.5000000000009
 30
0.0
 40
0.5
 50
0.0
 51
90.0
  0
LINE
  5
2FD4
  8
0
 10
53.850000000000051
 20
104.5000000000009
 30
0.0
 11
53.850000000000051
 21
101.5000000000009
 31
0.0
  0
LINE
  5
2FD9
  8
0
 10
24.5
 20
97.906251871376071
 30
0.0
 11
24.5
 21
94.000000000000966
 31
0.0
  0
ARC
  5
2FDA
  8
0
 10
25.5
 20
97.906251871376071
 30
0.0
 40
1.0
 50
103.27795552508741
 51
180.00000000000071
  0
ARC
  5
2FDB
  8
0
 10
25.5
 20
94.000000000000966
 30
0.0
 40
1.0
 50
180.0
 51
269.99999999999989
  0
ARC
  5
2FDC
  8
0
 10
74.499999999999972
 20
94.000000000000966
 30
0.0
 40
1.0
 50
270.00000000000011
 51
0.0
  0
ARC
  5
2FDD
  8
0
 10
74.499999999999972
 20
97.906251871376071
 30
0.0
 40
1.0
 50
359.9999999999992
 51
76.722044474912622
  0
LINE
  5
2FDE
  8
0
 10
75.499999999999972
 20
97.906251871376071
 30
0.0
 11
75.499999999999972
 21
94.000000000000966
 31
0.0
  0
ARC
  5
2FDF
  8
0
 10
54.163889789273277
 20
100.48639039698639
 30
0.0
 40
1.032972345589376
 50
0.7555031149812085
 51
78.891996712885643
  0
ARC
  5
2FE0
  8
0
 10
61.938070541327278
 20
93.072044767418006
 30
0.0
 40
6.7416832097474311
 50
180.6123010458877
 51
202.4274786872914
  0
LINE
  5
2FE1
  8
0
 10
55.196772294544402
 20
100.50029232817521
 30
0.0
 11
55.196772294544367
 21
93.000000000000938
 31
0.0
  0
POLYLINE
  5
2FE2
  8
0
 10
55.706306889278807
 20
90.500000000000938
 30
0.0
 66
     1
 70
     8
  0
VERTEX
  8
0
  5
36D2
 10
55.7063
 20
90.5000
 30
0.000000
  70
    32
  0
VERTEX
  8
0
  5
36D3
 10
55.7066
 20
90.5307
 30
0.000000
  70
    32
  0
VERTEX
  8
0
  5
36D4
 10
55.7074
 20
90.5614
 30
0.000000
  70
    32
  0
VERTEX
  8
0
  5
36D5
 10
55.7087
 20
90.5920
 30
0.000000
  70
    32
  0
VERTEX
  8
0
  5
36D6
 10
55.7105
 20
90.6227
 30
0.000000
  70
    32
  0
VERTEX
  8
0
  5
36D7
 10
55.7129
 20
90.6533
 30
0.000000
  70
    32
  0
VERTEX
  8
0
  5
36D8
 10
55.7158
 20
90.6839
 30
0.000000
  70
    32
  0
VERTEX
  8
0
  5
36D9
 10
55.7192
 20
90.7145
 30
0.000000
  70
    32
  0
VERTEX
  8
0
  5
36DA
 10
55.7232
 20
90.7450
 30
0.000000
  70
    32
  0
VERTEX
  8
0
  5
36DB
 10
55.7276
 20
90.7756
 30
0.000000
  70
    32
  0
VERTEX
  8
0
  5
36DC
 10
55.7326
 20
90.8060
 30
0.000000
  70
    32
  0
VERTEX
  8
0
  5
36DD
 10
55.7381
 20
90.8365
 30
0.000000
  70
    32
  0
VERTEX
  8
0
  5
36DE
 10
55.7442
 20
90.8668
 30
0.000000
  70
    32
  0
VERTEX
  8
0
  5
36DF
 10
55.7508
 20
90.8971
 30
0.000000
  70
    32
  0
VERTEX
  8
0
  5
36E0
 10
55.7578
 20
90.9274
 30
0.000000
  70
    32
  0
VERTEX
  8
0
  5
36E1
 10
55.7654
 20
90.9576
 30
0.000000
  70
    32
  0
VERTEX
  8
0
  5
36E2
 10
55.7736
 20
90.9877
 30
0.000000
  70
    32
  0
VERTEX
  8
0
  5
36E3
 10
55.7822
 20
91.0178
 30
0.000000
  70
    32
  0
VERTEX
  8
0
  5
36E4
 10
55.7913
 20
91.0478
 30
0.000000
  70
    32
  0
VERTEX
  8
0
  5
36E5
 10
55.8010
 20
91.0776
 30
0.000000
  70
    32
  0
VERTEX
  8
0
  5
36E6
 10
55.8112
 20
91.1075
 30
0.000000
  70
    32
  0
VERTEX
  8
0
  5
36E7
 10
55.8219
 20
91.1372
 30
0.000000
  70
    32
  0
VERTEX
  8
0
  5
36E8
 10
55.8331
 20
91.1668
 30
0.000000
  70
    32
  0
VERTEX
  8
0
  5
36E9
 10
55.8448
 20
91.1963
 30
0.000000
  70
    32
  0
VERTEX
  8
0
  5
36EA
 10
55.8570
 20
91.2257
 30
0.000000
  70
    32
  0
VERTEX
  8
0
  5
36EB
 10
55.8697
 20
91.2550
 30
0.000000
  70
    32
  0
VERTEX
  8
0
  5
36EC
 10
55.8830
 20
91.2842
 30
0.000000
  70
    32
  0
VERTEX
  8
0
  5
36ED
 10
55.8967
 20
91.3133
 30
0.000000
  70
    32
  0
VERTEX
  8
0
  5
36EE
 10
55.9109
 20
91.3422
 30
0.000000
  70
    32
  0
VERTEX
  8
0
  5
36EF
 10
55.9256
 20
91.3710
 30
0.000000
  70
    32
  0
VERTEX
  8
0
  5
36F0
 10
55.9408
 20
91.3997
 30
0.000000
  70
    32
  0
VERTEX
  8
0
  5
36F1
 10
55.9565
 20
91.4283
 30
0.000000
  70
    32
  0
VERTEX
  8
0
  5
36F2
 10
55.9727
 20
91.4567
 30
0.000000
  70
    32
  0
VERTEX
  8
0
  5
36F3
 10
55.9894
 20
91.4850
 30
0.000000
  70
    32
  0
VERTEX
  8
0
  5
36F4
 10
56.0066
 20
91.5131
 30
0.000000
  70
    32
  0
VERTEX
  8
0
  5
36F5
 10
56.0242
 20
91.5411
 30
0.000000
  70
    32
  0
VERTEX
  8
0
  5
36F6
 10
56.0423
 20
91.5689
 30
0.000000
  70
    32
  0
VERTEX
  8
0
  5
36F7
 10
56.0609
 20
91.5965
 30
0.000000
  70
    32
  0
VERTEX
  8
0
  5
36F8
 10
56.0800
 20
91.6240
 30
0.000000
  70
    32
  0
VERTEX
  8
0
  5
36F9
 10
56.0996
 20
91.6513
 30
0.000000
  70
    32
  0
VERTEX
  8
0
  5
36FA
 10
56.1196
 20
91.6785
 30
0.000000
  70
    32
  0
VERTEX
  8
0
  5
36FB
 10
56.1401
 20
91.7055
 30
0.000000
  70
    32
  0
VERTEX
  8
0
  5
36FC
 10
56.1610
 20
91.7322
 30
0.000000
  70
    32
  0
VERTEX
  8
0
  5
36FD
 10
56.1824
 20
91.7588
 30
0.000000
  70
    32
  0
VERTEX
  8
0
  5
36FE
 10
56.2043
 20
91.7853
 30
0.000000
  70
    32
  0
VERTEX
  8
0
  5
36FF
 10
56.2266
 20
91.8115
 30
0.000000
  70
    32
  0
VERTEX
  8
0
  5
3700
 10
56.2493
 20
91.8375
 30
0.000000
  70
    32
  0
VERTEX
  8
0
  5
3701
 10
56.2725
 20
91.8633
 30
0.000000
  70
    32
  0
VERTEX
  8
0
  5
3702
 10
56.2962
 20
91.8889
 30
0.000000
  70
    32
  0
VERTEX
  8
0
  5
3703
 10
56.3202
 20
91.9143
 30
0.000000
  70
    32
  0
VERTEX
  8
0
  5
3704
 10
56.3448
 20
91.9395
 30
0.000000
  70
    32
  0
VERTEX
  8
0
  5
3705
 10
56.3697
 20
91.9645
 30
0.000000
  70
    32
  0
VERTEX
  8
0
  5
3706
 10
56.3951
 20
91.9892
 30
0.000000
  70
    32
  0
VERTEX
  8
0
  5
3707
 10
56.4209
 20
92.0138
 30
0.000000
  70
    32
  0
VERTEX
  8
0
  5
3708
 10
56.4471
 20
92.0381
 30
0.000000
  70
    32
  0
VERTEX
  8
0
  5
3709
 10
56.4737
 20
92.0621
 30
0.000000
  70
    32
  0
VERTEX
  8
0
  5
370A
 10
56.5008
 20
92.0860
 30
0.000000
  70
    32
  0
VERTEX
  8
0
  5
370B
 10
56.5282
 20
92.1096
 30
0.000000
  70
    32
  0
VERTEX
  8
0
  5
370C
 10
56.5561
 20
92.1329
 30
0.000000
  70
    32
  0
VERTEX
  8
0
  5
370D
 10
56.5843
 20
92.1560
 30
0.000000
  70
    32
  0
VERTEX
  8
0
  5
370E
 10
56.6130
 20
92.1789
 30
0.000000
  70
    32
  0
VERTEX
  8
0
  5
370F
 10
56.6420
 20
92.2015
 30
0.000000
  70
    32
  0
VERTEX
  8
0
  5
3710
 10
56.6714
 20
92.2239
 30
0.000000
  70
    32
  0
VERTEX
  8
0
  5
3711
 10
56.7012
 20
92.2459
 30
0.000000
  70
    32
  0
VERTEX
  8
0
  5
3712
 10
56.7314
 20
92.2678
 30
0.000000
  70
    32
  0
VERTEX
  8
0
  5
3713
 10
56.7620
 20
92.2893
 30
0.000000
  70
    32
  0
VERTEX
  8
0
  5
3714
 10
56.7929
 20
92.3106
 30
0.000000
  70
    32
  0
VERTEX
  8
0
  5
3715
 10
56.8242
 20
92.3316
 30
0.000000
  70
    32
  0
VERTEX
  8
0
  5
3716
 10
56.8559
 20
92.3524
 30
0.000000
  70
    32
  0
VERTEX
  8
0
  5
3717
 10
56.8879
 20
92.3728
 30
0.000000
  70
    32
  0
VERTEX
  8
0
  5
3718
 10
56.9202
 20
92.3930
 30
0.000000
  70
    32
  0
VERTEX
  8
0
  5
3719
 10
56.9529
 20
92.4129
 30
0.000000
  70
    32
  0
VERTEX
  8
0
  5
371A
 10
56.9859
 20
92.4325
 30
0.000000
  70
    32
  0
VERTEX
  8
0
  5
371B
 10
57.0193
 20
92.4518
 30
0.000000
  70
    32
  0
VERTEX
  8
0
  5
371C
 10
57.0530
 20
92.4709
 30
0.000000
  70
    32
  0
VERTEX
  8
0
  5
371D
 10
57.0870
 20
92.4896
 30
0.000000
  70
    32
  0
VERTEX
  8
0
  5
371E
 10
57.1214
 20
92.5080
 30
0.000000
  70
    32
  0
VERTEX
  8
0
  5
371F
 10
57.1560
 20
92.5261
 30
0.000000
  70
    32
  0
VERTEX
  8
0
  5
3720
 10
57.1910
 20
92.5440
 30
0.000000
  70
    32
  0
VERTEX
  8
0
  5
3721
 10
57.2262
 20
92.5615
 30
0.000000
  70
    32
  0
VERTEX
  8
0
  5
3722
 10
57.2618
 20
92.5787
 30
0.000000
  70
    32
  0
VERTEX
  8
0
  5
3723
 10
57.2977
 20
92.5956
 30
0.000000
  70
    32
  0
VERTEX
  8
0
  5
3724
 10
57.3338
 20
92.6121
 30
0.000000
  70
    32
  0
VERTEX
  8
0
  5
3725
 10
57.3702
 20
92.6284
 30
0.000000
  70
    32
  0
VERTEX
  8
0
  5
3726
 10
57.4069
 20
92.6443
 30
0.000000
  70
    32
  0
VERTEX
  8
0
  5
3727
 10
57.4439
 20
92.6599
 30
0.000000
  70
    32
  0
VERTEX
  8
0
  5
3728
 10
57.4812
 20
92.6752
 30
0.000000
  70
    32
  0
VERTEX
  8
0
  5
3729
 10
57.5187
 20
92.6902
 30
0.000000
  70
    32
  0
VERTEX
  8
0
  5
372A
 10
57.5564
 20
92.7048
 30
0.000000
  70
    32
  0
VERTEX
  8
0
  5
372B
 10
57.5944
 20
92.7191
 30
0.000000
  70
    32
  0
VERTEX
  8
0
  5
372C
 10
57.6327
 20
92.7331
 30
0.000000
  70
    32
  0
VERTEX
  8
0
  5
372D
 10
57.6712
 20
92.7467
 30
0.000000
  70
    32
  0
VERTEX
  8
0
  5
372E
 10
57.7099
 20
92.7600
 30
0.000000
  70
    32
  0
VERTEX
  8
0
  5
372F
 10
57.7488
 20
92.7729
 30
0.000000
  70
    32
  0
VERTEX
  8
0
  5
3730
 10
57.7880
 20
92.7855
 30
0.000000
  70
    32
  0
VERTEX
  8
0
  5
3731
 10
57.8273
 20
92.7978
 30
0.000000
  70
    32
  0
VERTEX
  8
0
  5
3732
 10
57.8669
 20
92.8097
 30
0.000000
  70
    32
  0
VERTEX
  8
0
  5
3733
 10
57.9067
 20
92.8213
 30
0.000000
  70
    32
  0
VERTEX
  8
0
  5
3734
 10
57.9467
 20
92.8325
 30
0.000000
  70
    32
  0
VERTEX
  8
0
  5
3735
 10
57.9868
 20
92.8433
 30
0.000000
  70
    32
  0
VERTEX
  8
0
  5
3736
 10
58.0272
 20
92.8539
 30
0.000000
  70
    32
  0
VERTEX
  8
0
  5
3737
 10
58.0677
 20
92.8640
 30
0.000000
  70
    32
  0
VERTEX
  8
0
  5
3738
 10
58.1084
 20
92.8738
 30
0.000000
  70
    32
  0
VERTEX
  8
0
  5
3739
 10
58.1493
 20
92.8833
 30
0.000000
  70
    32
  0
VERTEX
  8
0
  5
373A
 10
58.1903
 20
92.8924
 30
0.000000
  70
    32
  0
VERTEX
  8
0
  5
373B
 10
58.2315
 20
92.9011
 30
0.000000
  70
    32
  0
VERTEX
  8
0
  5
373C
 10
58.2728
 20
92.9094
 30
0.000000
  70
    32
  0
VERTEX
  8
0
  5
373D
 10
58.3143
 20
92.9174
 30
0.000000
  70
    32
  0
VERTEX
  8
0
  5
373E
 10
58.3559
 20
92.9251
 30
0.000000
  70
    32
  0
VERTEX
  8
0
  5
373F
 10
58.3976
 20
92.9323
 30
0.000000
  70
    32
  0
VERTEX
  8
0
  5
3740
 10
58.4395
 20
92.9393
 30
0.000000
  70
    32
  0
VERTEX
  8
0
  5
3741
 10
58.4814
 20
92.9458
 30
0.000000
  70
    32
  0
VERTEX
  8
0
  5
3742
 10
58.5235
 20
92.9520
 30
0.000000
  70
    32
  0
VERTEX
  8
0
  5
3743
 10
58.5657
 20
92.9578
 30
0.000000
  70
    32
  0
VERTEX
  8
0
  5
3744
 10
58.6079
 20
92.9632
 30
0.000000
  70
    32
  0
VERTEX
  8
0
  5
3745
 10
58.6503
 20
92.9683
 30
0.000000
  70
    32
  0
VERTEX
  8
0
  5
3746
 10
58.6928
 20
92.9729
 30
0.000000
  70
    32
  0
VERTEX
  8
0
  5
3747
 10
58.7353
 20
92.9773
 30
0.000000
  70
    32
  0
VERTEX
  8
0
  5
3748
 10
58.7779
 20
92.9812
 30
0.000000
  70
    32
  0
VERTEX
  8
0
  5
3749
 10
58.8205
 20
92.9848
 30
0.000000
  70
    32
  0
VERTEX
  8
0
  5
374A
 10
58.8632
 20
92.9880
 30
0.000000
  70
    32
  0
VERTEX
  8
0
  5
374B
 10
58.9060
 20
92.9908
 30
0.000000
  70
    32
  0
VERTEX
  8
0
  5
374C
 10
58.9488
 20
92.9932
 30
0.000000
  70
    32
  0
VERTEX
  8
0
  5
374D
 10
58.9917
 20
92.9953
 30
0.000000
  70
    32
  0
VERTEX
  8
0
  5
374E
 10
59.0346
 20
92.9970
 30
0.000000
  70
    32
  0
VERTEX
  8
0
  5
374F
 10
59.0775
 20
92.9983
 30
0.000000
  70
    32
  0
VERTEX
  8
0
  5
3750
 10
59.1204
 20
92.9992
 30
0.000000
  70
    32
  0
VERTEX
  8
0
  5
3751
 10
59.1634
 20
92.9998
 30
0.000000
  70
    32
  0
VERTEX
  8
0
  5
3752
 10
59.2063
 20
93.0000
 30
0.000000
  70
    32
  0
SEQEND
  8
0
  5
3753
  0
LINE
  5
2FE3
  8
0
 10
57.050000000000011
 20
90.500000000000966
 30
0.0
 11
55.706306889278807
 21
90.500000000000966
 31
0.0
  0
ARC
  5
2FE4
  8
0
 10
60.39741906502536
 20
89.540545503271019
 30
0.0
 40
3.4822072494598419
 50
96.553360412794675
 51
164.0063657251178
  0
LINE
  5
2FE5
  8
0
 10
55.196772294544367
 20
93.000000000000938
 30
0.0
 11
74.499999999999972
 21
93.000000000000966
 31
0.0
  0
ARC
  5
2FE6
  8
0
 10
49.936227638892603
 20
-6.1846871549952018
 30
0.0
 40
107.9500000000002
 50
76.722044474912309
 51
85.982143386752895
  0
LINE
  5
2FE7
  8
0
 10
74.260459244975564
 20
93.000000000000966
 30
0.0
 11
74.006755923998384
 21
93.000000000000966
 31
0.0
  0
LINE
  5
2FE8
  8
0
 10
74.363654515947189
 20
93.000000000000966
 30
0.0
 11
74.260459244975564
 21
93.000000000000966
 31
0.0
  0
LINE
  5
2FF2
  8
1
 10
19.499999999999972
 20
142.05000000000089
 30
0.0
 11
80.500000000000057
 21
142.05000000000089
 31
0.0
  0
LINE
  5
2FF3
  8
1
 10
50.0
 20
130.00000000000091
 30
0.0
 11
50.0
 21
154.1000000000009
 31
0.0
  0
LINE
  5
2FF8
  8
0
 10
24.499999999999972
 20
139.5196836887115
 30
0.0
 11
24.499999999999972
 21
144.5803163112904
 31
0.0
  0
ARC
  5
2FFA
  8
0
 10
25.999999999999972
 20
144.5803163112904
 30
0.0
 40
1.5
 50
93.608419726474835
 51
180.0
  0
LINE
  5
3001
  8
0
 10
25.905594228764269
 20
138.0226574530171
 30
0.0
 11
44.803227665824593
 21
136.8309310713295
 31
0.0
  0
ARC
  5
3002
  8
0
 10
25.999999999999972
 20
139.5196836887115
 30
0.0
 40
1.5
 50
180.0
 51
266.39158027352511
  0
ARC
  5
3003
  8
0
 10
74.000000000000028
 20
139.5196836887115
 30
0.0
 40
1.5
 50
273.60841972647489
 51
0.0
  0
LINE
  5
3004
  8
0
 10
74.094405771235714
 20
138.0226574530171
 30
0.0
 11
55.196772334175407
 21
136.8309310713295
 31
0.0
  0
ARC
  5
3007
  8
0
 10
74.000000000000028
 20
144.5803163112904
 30
0.0
 40
1.5
 50
0.0
 51
86.391580273525136
  0
LINE
  5
3008
  8
0
 10
75.500000000000028
 20
139.5196836887115
 30
0.0
 11
75.500000000000028
 21
144.5803163112904
 31
0.0
  0
LINE
  5
3009
  8
0
 10
74.094405771235714
 20
146.0773425469848
 30
0.0
 11
55.196772334175449
 21
147.26906892867231
 31
0.0
  0
CIRCLE
  5
300D
  8
0
 10
50.0
 20
142.05000000000089
 30
0.0
 40
3.3500000000000218
  0
CIRCLE
  5
300E
  8
0
 10
50.0
 20
142.05000000000089
 30
0.0
 40
3.8500000000000218
  0
CIRCLE
  5
3017
  8
0
 10
71.096220012610928
 20
142.05008789337421
 30
0.0
 40
1.95
  0
CIRCLE
  5
3018
  8
0
 10
71.096220012610928
 20
142.05008789337421
 30
0.0
 40
1.75
  0
LINE
  5
3213
  8
0
 10
117.55
 20
36.999999999999993
 30
0.0
 11
116.85000000000009
 21
35.0
 31
0.0
  0
LINE
  5
3214
  8
0
 10
117.55
 20
69.000000000000966
 30
0.0
 11
117.55
 21
36.999999999999922
 31
0.0
  0
LINE
  5
321B
  8
0
 10
107.55
 20
36.999999999999993
 30
0.0
 11
108.25
 21
35.0
 31
0.0
  0
LINE
  5
321C
  8
0
 10
107.5500000000001
 20
37.0
 30
0.0
 11
117.5500000000001
 21
37.0
 31
0.0
  0
LINE
  5
321D
  8
0
 10
107.55
 20
69.000000000000966
 30
0.0
 11
107.55
 21
37.000000000000007
 31
0.0
  0
LINE
  5
321E
  8
1
 10
112.55
 20
110.0000000000009
 30
0.0
 11
112.55
 21
30.0
 31
0.0
  0
LINE
  5
3225
  8
0
 10
119.59999999999999
 20
70.651000000000977
 30
0.0
 11
105.5000000000001
 21
70.651000000000991
 31
0.0
  0
LINE
  5
3226
  8
0
 10
119.59999999999999
 20
69.000000000000966
 30
0.0
 11
105.5
 21
69.000000000000966
 31
0.0
  0
LINE
  5
3227
  8
0
 10
108.25
 20
35.0
 30
0.0
 11
116.85000000000009
 21
35.0
 31
0.0
  0
CIRCLE
  5
322A
  8
0
 10
112.55
 20
42.41333683473875
 30
0.0
 40
1.586663165262223
  0
LINE
  5
322B
  8
0
 10
106.5
 20
101.5000000000009
 30
0.0
 11
118.59999999999999
 21
101.5000000000009
 31
0.0
  0
ARC
  5
322E
  8
0
 10
106.5
 20
100.5000000000009
 30
0.0
 40
1.0
 50
90.0
 51
180.0
  0
ARC
  5
3232
  8
0
 10
118.59999999999999
 20
100.5000000000009
 30
0.0
 40
1.0
 50
0.0000000000003053
 51
89.999999999999915
  0
LINE
  5
3235
  8
0
 10
118.1071858360767
 20
99.500000000000952
 30
0.0
 11
118.1071858360767
 21
92.500000000000966
 31
0.0
  0
LINE
  5
3237
  8
0
 10
112.55
 20
98.879519183450626
 30
0.0
 11
115.5773425469839
 21
98.879519183450626
 31
0.0
  0
ARC
  5
3239
  8
0
 10
115.5773425469839
 20
97.879519183450626
 30
0.0
 40
1.0
 50
0.0
 51
90.0
  0
POLYLINE
  5
323C
  8
0
 10
117.1071858360767
 20
90.500000000000966
 30
0.0
 66
     1
 70
     8
  0
VERTEX
  8
0
  5
3754
 10
117.107
 20
90.5000
 30
0.000000
  70
    32
  0
VERTEX
  8
0
  5
3755
 10
117.119
 20
90.5002
 30
0.000000
  70
    32
  0
VERTEX
  8
0
  5
3756
 10
117.132
 20
90.5006
 30
0.000000
  70
    32
  0
VERTEX
  8
0
  5
3757
 10
117.144
 20
90.5014
 30
0.000000
  70
    32
  0
VERTEX
  8
0
  5
3758
 10
117.156
 20
90.5024
 30
0.000000
  70
    32
  0
VERTEX
  8
0
  5
3759
 10
117.169
 20
90.5038
 30
0.000000
  70
    32
  0
VERTEX
  8
0
  5
375A
 10
117.181
 20
90.5054
 30
0.000000
  70
    32
  0
VERTEX
  8
0
  5
375B
 10
117.193
 20
90.5074
 30
0.000000
  70
    32
  0
VERTEX
  8
0
  5
375C
 10
117.205
 20
90.5096
 30
0.000000
  70
    32
  0
VERTEX
  8
0
  5
375D
 10
117.217
 20
90.5122
 30
0.000000
  70
    32
  0
VERTEX
  8
0
  5
375E
 10
117.230
 20
90.5150
 30
0.000000
  70
    32
  0
VERTEX
  8
0
  5
375F
 10
117.242
 20
90.5182
 30
0.000000
  70
    32
  0
VERTEX
  8
0
  5
3760
 10
117.254
 20
90.5216
 30
0.000000
  70
    32
  0
VERTEX
  8
0
  5
3761
 10
117.266
 20
90.5254
 30
0.000000
  70
    32
  0
VERTEX
  8
0
  5
3762
 10
117.278
 20
90.5294
 30
0.000000
  70
    32
  0
VERTEX
  8
0
  5
3763
 10
117.290
 20
90.5338
 30
0.000000
  70
    32
  0
VERTEX
  8
0
  5
3764
 10
117.302
 20
90.5384
 30
0.000000
  70
    32
  0
VERTEX
  8
0
  5
3765
 10
117.314
 20
90.5434
 30
0.000000
  70
    32
  0
VERTEX
  8
0
  5
3766
 10
117.326
 20
90.5486
 30
0.000000
  70
    32
  0
VERTEX
  8
0
  5
3767
 10
117.338
 20
90.5541
 30
0.000000
  70
    32
  0
VERTEX
  8
0
  5
3768
 10
117.350
 20
90.5599
 30
0.000000
  70
    32
  0
VERTEX
  8
0
  5
3769
 10
117.362
 20
90.5660
 30
0.000000
  70
    32
  0
VERTEX
  8
0
  5
376A
 10
117.374
 20
90.5724
 30
0.000000
  70
    32
  0
VERTEX
  8
0
  5
376B
 10
117.386
 20
90.5791
 30
0.000000
  70
    32
  0
VERTEX
  8
0
  5
376C
 10
117.397
 20
90.5861
 30
0.000000
  70
    32
  0
VERTEX
  8
0
  5
376D
 10
117.409
 20
90.5934
 30
0.000000
  70
    32
  0
VERTEX
  8
0
  5
376E
 10
117.421
 20
90.6009
 30
0.000000
  70
    32
  0
VERTEX
  8
0
  5
376F
 10
117.432
 20
90.6088
 30
0.000000
  70
    32
  0
VERTEX
  8
0
  5
3770
 10
117.444
 20
90.6169
 30
0.000000
  70
    32
  0
VERTEX
  8
0
  5
3771
 10
117.456
 20
90.6253
 30
0.000000
  70
    32
  0
VERTEX
  8
0
  5
3772
 10
117.467
 20
90.6340
 30
0.000000
  70
    32
  0
VERTEX
  8
0
  5
3773
 10
117.479
 20
90.6430
 30
0.000000
  70
    32
  0
VERTEX
  8
0
  5
3774
 10
117.490
 20
90.6522
 30
0.000000
  70
    32
  0
VERTEX
  8
0
  5
3775
 10
117.501
 20
90.6618
 30
0.000000
  70
    32
  0
VERTEX
  8
0
  5
3776
 10
117.512
 20
90.6716
 30
0.000000
  70
    32
  0
VERTEX
  8
0
  5
3777
 10
117.524
 20
90.6817
 30
0.000000
  70
    32
  0
VERTEX
  8
0
  5
3778
 10
117.535
 20
90.6920
 30
0.000000
  70
    32
  0
VERTEX
  8
0
  5
3779
 10
117.546
 20
90.7027
 30
0.000000
  70
    32
  0
VERTEX
  8
0
  5
377A
 10
117.557
 20
90.7136
 30
0.000000
  70
    32
  0
VERTEX
  8
0
  5
377B
 10
117.568
 20
90.7247
 30
0.000000
  70
    32
  0
VERTEX
  8
0
  5
377C
 10
117.579
 20
90.7362
 30
0.000000
  70
    32
  0
VERTEX
  8
0
  5
377D
 10
117.589
 20
90.7479
 30
0.000000
  70
    32
  0
VERTEX
  8
0
  5
377E
 10
117.600
 20
90.7598
 30
0.000000
  70
    32
  0
VERTEX
  8
0
  5
377F
 10
117.611
 20
90.7721
 30
0.000000
  70
    32
  0
VERTEX
  8
0
  5
3780
 10
117.621
 20
90.7845
 30
0.000000
  70
    32
  0
VERTEX
  8
0
  5
3781
 10
117.632
 20
90.7973
 30
0.000000
  70
    32
  0
VERTEX
  8
0
  5
3782
 10
117.642
 20
90.8103
 30
0.000000
  70
    32
  0
VERTEX
  8
0
  5
3783
 10
117.653
 20
90.8236
 30
0.000000
  70
    32
  0
VERTEX
  8
0
  5
3784
 10
117.663
 20
90.8371
 30
0.000000
  70
    32
  0
VERTEX
  8
0
  5
3785
 10
117.673
 20
90.8508
 30
0.000000
  70
    32
  0
VERTEX
  8
0
  5
3786
 10
117.683
 20
90.8648
 30
0.000000
  70
    32
  0
VERTEX
  8
0
  5
3787
 10
117.693
 20
90.8791
 30
0.000000
  70
    32
  0
VERTEX
  8
0
  5
3788
 10
117.703
 20
90.8936
 30
0.000000
  70
    32
  0
VERTEX
  8
0
  5
3789
 10
117.713
 20
90.9083
 30
0.000000
  70
    32
  0
VERTEX
  8
0
  5
378A
 10
117.722
 20
90.9233
 30
0.000000
  70
    32
  0
VERTEX
  8
0
  5
378B
 10
117.732
 20
90.9385
 30
0.000000
  70
    32
  0
VERTEX
  8
0
  5
378C
 10
117.742
 20
90.9540
 30
0.000000
  70
    32
  0
VERTEX
  8
0
  5
378D
 10
117.751
 20
90.9697
 30
0.000000
  70
    32
  0
VERTEX
  8
0
  5
378E
 10
117.760
 20
90.9856
 30
0.000000
  70
    32
  0
VERTEX
  8
0
  5
378F
 10
117.770
 20
91.0017
 30
0.000000
  70
    32
  0
VERTEX
  8
0
  5
3790
 10
117.779
 20
91.0181
 30
0.000000
  70
    32
  0
VERTEX
  8
0
  5
3791
 10
117.788
 20
91.0347
 30
0.000000
  70
    32
  0
VERTEX
  8
0
  5
3792
 10
117.797
 20
91.0515
 30
0.000000
  70
    32
  0
VERTEX
  8
0
  5
3793
 10
117.806
 20
91.0685
 30
0.000000
  70
    32
  0
VERTEX
  8
0
  5
3794
 10
117.814
 20
91.0858
 30
0.000000
  70
    32
  0
VERTEX
  8
0
  5
3795
 10
117.823
 20
91.1032
 30
0.000000
  70
    32
  0
VERTEX
  8
0
  5
3796
 10
117.831
 20
91.1209
 30
0.000000
  70
    32
  0
VERTEX
  8
0
  5
3797
 10
117.840
 20
91.1388
 30
0.000000
  70
    32
  0
VERTEX
  8
0
  5
3798
 10
117.848
 20
91.1569
 30
0.000000
  70
    32
  0
VERTEX
  8
0
  5
3799
 10
117.856
 20
91.1752
 30
0.000000
  70
    32
  0
VERTEX
  8
0
  5
379A
 10
117.864
 20
91.1937
 30
0.000000
  70
    32
  0
VERTEX
  8
0
  5
379B
 10
117.872
 20
91.2123
 30
0.000000
  70
    32
  0
VERTEX
  8
0
  5
379C
 10
117.880
 20
91.2312
 30
0.000000
  70
    32
  0
VERTEX
  8
0
  5
379D
 10
117.888
 20
91.2503
 30
0.000000
  70
    32
  0
VERTEX
  8
0
  5
379E
 10
117.896
 20
91.2695
 30
0.000000
  70
    32
  0
VERTEX
  8
0
  5
379F
 10
117.903
 20
91.2890
 30
0.000000
  70
    32
  0
VERTEX
  8
0
  5
37A0
 10
117.910
 20
91.3086
 30
0.000000
  70
    32
  0
VERTEX
  8
0
  5
37A1
 10
117.918
 20
91.3284
 30
0.000000
  70
    32
  0
VERTEX
  8
0
  5
37A2
 10
117.925
 20
91.3484
 30
0.000000
  70
    32
  0
VERTEX
  8
0
  5
37A3
 10
117.932
 20
91.3685
 30
0.000000
  70
    32
  0
VERTEX
  8
0
  5
37A4
 10
117.939
 20
91.3889
 30
0.000000
  70
    32
  0
VERTEX
  8
0
  5
37A5
 10
117.945
 20
91.4094
 30
0.000000
  70
    32
  0
VERTEX
  8
0
  5
37A6
 10
117.952
 20
91.4300
 30
0.000000
  70
    32
  0
VERTEX
  8
0
  5
37A7
 10
117.959
 20
91.4508
 30
0.000000
  70
    32
  0
VERTEX
  8
0
  5
37A8
 10
117.965
 20
91.4718
 30
0.000000
  70
    32
  0
VERTEX
  8
0
  5
37A9
 10
117.971
 20
91.4929
 30
0.000000
  70
    32
  0
VERTEX
  8
0
  5
37AA
 10
117.977
 20
91.5142
 30
0.000000
  70
    32
  0
VERTEX
  8
0
  5
37AB
 10
117.983
 20
91.5356
 30
0.000000
  70
    32
  0
VERTEX
  8
0
  5
37AC
 10
117.989
 20
91.5572
 30
0.000000
  70
    32
  0
VERTEX
  8
0
  5
37AD
 10
117.995
 20
91.5789
 30
0.000000
  70
    32
  0
VERTEX
  8
0
  5
37AE
 10
118.000
 20
91.6008
 30
0.000000
  70
    32
  0
VERTEX
  8
0
  5
37AF
 10
118.006
 20
91.6228
 30
0.000000
  70
    32
  0
VERTEX
  8
0
  5
37B0
 10
118.011
 20
91.6449
 30
0.000000
  70
    32
  0
VERTEX
  8
0
  5
37B1
 10
118.016
 20
91.6671
 30
0.000000
  70
    32
  0
VERTEX
  8
0
  5
37B2
 10
118.021
 20
91.6895
 30
0.000000
  70
    32
  0
VERTEX
  8
0
  5
37B3
 10
118.026
 20
91.7120
 30
0.000000
  70
    32
  0
VERTEX
  8
0
  5
37B4
 10
118.031
 20
91.7346
 30
0.000000
  70
    32
  0
VERTEX
  8
0
  5
37B5
 10
118.036
 20
91.7574
 30
0.000000
  70
    32
  0
VERTEX
  8
0
  5
37B6
 10
118.040
 20
91.7802
 30
0.000000
  70
    32
  0
VERTEX
  8
0
  5
37B7
 10
118.045
 20
91.8032
 30
0.000000
  70
    32
  0
VERTEX
  8
0
  5
37B8
 10
118.049
 20
91.8262
 30
0.000000
  70
    32
  0
VERTEX
  8
0
  5
37B9
 10
118.053
 20
91.8494
 30
0.000000
  70
    32
  0
VERTEX
  8
0
  5
37BA
 10
118.057
 20
91.8726
 30
0.000000
  70
    32
  0
VERTEX
  8
0
  5
37BB
 10
118.060
 20
91.8960
 30
0.000000
  70
    32
  0
VERTEX
  8
0
  5
37BC
 10
118.064
 20
91.9194
 30
0.000000
  70
    32
  0
VERTEX
  8
0
  5
37BD
 10
118.068
 20
91.9430
 30
0.000000
  70
    32
  0
VERTEX
  8
0
  5
37BE
 10
118.071
 20
91.9666
 30
0.000000
  70
    32
  0
VERTEX
  8
0
  5
37BF
 10
118.074
 20
91.9903
 30
0.000000
  70
    32
  0
VERTEX
  8
0
  5
37C0
 10
118.077
 20
92.0140
 30
0.000000
  70
    32
  0
VERTEX
  8
0
  5
37C1
 10
118.080
 20
92.0379
 30
0.000000
  70
    32
  0
VERTEX
  8
0
  5
37C2
 10
118.083
 20
92.0618
 30
0.000000
  70
    32
  0
VERTEX
  8
0
  5
37C3
 10
118.086
 20
92.0858
 30
0.000000
  70
    32
  0
VERTEX
  8
0
  5
37C4
 10
118.088
 20
92.1098
 30
0.000000
  70
    32
  0
VERTEX
  8
0
  5
37C5
 10
118.090
 20
92.1339
 30
0.000000
  70
    32
  0
VERTEX
  8
0
  5
37C6
 10
118.092
 20
92.1581
 30
0.000000
  70
    32
  0
VERTEX
  8
0
  5
37C7
 10
118.094
 20
92.1823
 30
0.000000
  70
    32
  0
VERTEX
  8
0
  5
37C8
 10
118.096
 20
92.2065
 30
0.000000
  70
    32
  0
VERTEX
  8
0
  5
37C9
 10
118.098
 20
92.2308
 30
0.000000
  70
    32
  0
VERTEX
  8
0
  5
37CA
 10
118.100
 20
92.2552
 30
0.000000
  70
    32
  0
VERTEX
  8
0
  5
37CB
 10
118.101
 20
92.2796
 30
0.000000
  70
    32
  0
VERTEX
  8
0
  5
37CC
 10
118.102
 20
92.3040
 30
0.000000
  70
    32
  0
VERTEX
  8
0
  5
37CD
 10
118.103
 20
92.3284
 30
0.000000
  70
    32
  0
VERTEX
  8
0
  5
37CE
 10
118.104
 20
92.3529
 30
0.000000
  70
    32
  0
VERTEX
  8
0
  5
37CF
 10
118.105
 20
92.3774
 30
0.000000
  70
    32
  0
VERTEX
  8
0
  5
37D0
 10
118.106
 20
92.4019
 30
0.000000
  70
    32
  0
VERTEX
  8
0
  5
37D1
 10
118.107
 20
92.4264
 30
0.000000
  70
    32
  0
VERTEX
  8
0
  5
37D2
 10
118.107
 20
92.4509
 30
0.000000
  70
    32
  0
VERTEX
  8
0
  5
37D3
 10
118.107
 20
92.4755
 30
0.000000
  70
    32
  0
VERTEX
  8
0
  5
37D4
 10
118.107
 20
92.5000
 30
0.000000
  70
    32
  0
SEQEND
  8
0
  5
37D5
  0
LINE
  5
323D
  8
0
 10
116.5773425469839
 20
97.879519183450626
 30
0.0
 11
116.5773425469839
 21
94.000000000001009
 31
0.0
  0
ARC
  5
323E
  8
0
 10
115.5773425469839
 20
94.000000000001009
 30
0.0
 40
1.0
 50
270.0
 51
0.0
  0
POLYLINE
  5
324E
  8
0
 10
117.1071858360767
 20
101.50000000000095
 30
0.0
 66
     1
 70
     8
  0
VERTEX
  8
0
  5
37D6
 10
117.107
 20
101.500
 30
0.000000
  70
    32
  0
VERTEX
  8
0
  5
37D7
 10
117.119
 20
101.500
 30
0.000000
  70
    32
  0
VERTEX
  8
0
  5
37D8
 10
117.132
 20
101.499
 30
0.000000
  70
    32
  0
VERTEX
  8
0
  5
37D9
 10
117.144
 20
101.499
 30
0.000000
  70
    32
  0
VERTEX
  8
0
  5
37DA
 10
117.156
 20
101.498
 30
0.000000
  70
    32
  0
VERTEX
  8
0
  5
37DB
 10
117.169
 20
101.496
 30
0.000000
  70
    32
  0
VERTEX
  8
0
  5
37DC
 10
117.181
 20
101.495
 30
0.000000
  70
    32
  0
VERTEX
  8
0
  5
37DD
 10
117.193
 20
101.493
 30
0.000000
  70
    32
  0
VERTEX
  8
0
  5
37DE
 10
117.205
 20
101.490
 30
0.000000
  70
    32
  0
VERTEX
  8
0
  5
37DF
 10
117.217
 20
101.488
 30
0.000000
  70
    32
  0
VERTEX
  8
0
  5
37E0
 10
117.230
 20
101.485
 30
0.000000
  70
    32
  0
VERTEX
  8
0
  5
37E1
 10
117.242
 20
101.482
 30
0.000000
  70
    32
  0
VERTEX
  8
0
  5
37E2
 10
117.254
 20
101.478
 30
0.000000
  70
    32
  0
VERTEX
  8
0
  5
37E3
 10
117.266
 20
101.475
 30
0.000000
  70
    32
  0
VERTEX
  8
0
  5
37E4
 10
117.278
 20
101.471
 30
0.000000
  70
    32
  0
VERTEX
  8
0
  5
37E5
 10
117.290
 20
101.466
 30
0.000000
  70
    32
  0
VERTEX
  8
0
  5
37E6
 10
117.302
 20
101.462
 30
0.000000
  70
    32
  0
VERTEX
  8
0
  5
37E7
 10
117.314
 20
101.457
 30
0.000000
  70
    32
  0
VERTEX
  8
0
  5
37E8
 10
117.326
 20
101.451
 30
0.000000
  70
    32
  0
VERTEX
  8
0
  5
37E9
 10
117.338
 20
101.446
 30
0.000000
  70
    32
  0
VERTEX
  8
0
  5
37EA
 10
117.350
 20
101.440
 30
0.000000
  70
    32
  0
VERTEX
  8
0
  5
37EB
 10
117.362
 20
101.434
 30
0.000000
  70
    32
  0
VERTEX
  8
0
  5
37EC
 10
117.374
 20
101.428
 30
0.000000
  70
    32
  0
VERTEX
  8
0
  5
37ED
 10
117.386
 20
101.421
 30
0.000000
  70
    32
  0
VERTEX
  8
0
  5
37EE
 10
117.397
 20
101.414
 30
0.000000
  70
    32
  0
VERTEX
  8
0
  5
37EF
 10
117.409
 20
101.407
 30
0.000000
  70
    32
  0
VERTEX
  8
0
  5
37F0
 10
117.421
 20
101.399
 30
0.000000
  70
    32
  0
VERTEX
  8
0
  5
37F1
 10
117.432
 20
101.391
 30
0.000000
  70
    32
  0
VERTEX
  8
0
  5
37F2
 10
117.444
 20
101.383
 30
0.000000
  70
    32
  0
VERTEX
  8
0
  5
37F3
 10
117.456
 20
101.375
 30
0.000000
  70
    32
  0
VERTEX
  8
0
  5
37F4
 10
117.467
 20
101.366
 30
0.000000
  70
    32
  0
VERTEX
  8
0
  5
37F5
 10
117.479
 20
101.357
 30
0.000000
  70
    32
  0
VERTEX
  8
0
  5
37F6
 10
117.490
 20
101.348
 30
0.000000
  70
    32
  0
VERTEX
  8
0
  5
37F7
 10
117.501
 20
101.338
 30
0.000000
  70
    32
  0
VERTEX
  8
0
  5
37F8
 10
117.512
 20
101.328
 30
0.000000
  70
    32
  0
VERTEX
  8
0
  5
37F9
 10
117.524
 20
101.318
 30
0.000000
  70
    32
  0
VERTEX
  8
0
  5
37FA
 10
117.535
 20
101.308
 30
0.000000
  70
    32
  0
VERTEX
  8
0
  5
37FB
 10
117.546
 20
101.297
 30
0.000000
  70
    32
  0
VERTEX
  8
0
  5
37FC
 10
117.557
 20
101.286
 30
0.000000
  70
    32
  0
VERTEX
  8
0
  5
37FD
 10
117.568
 20
101.275
 30
0.000000
  70
    32
  0
VERTEX
  8
0
  5
37FE
 10
117.579
 20
101.264
 30
0.000000
  70
    32
  0
VERTEX
  8
0
  5
37FF
 10
117.589
 20
101.252
 30
0.000000
  70
    32
  0
VERTEX
  8
0
  5
3800
 10
117.600
 20
101.240
 30
0.000000
  70
    32
  0
VERTEX
  8
0
  5
3801
 10
117.611
 20
101.228
 30
0.000000
  70
    32
  0
VERTEX
  8
0
  5
3802
 10
117.621
 20
101.215
 30
0.000000
  70
    32
  0
VERTEX
  8
0
  5
3803
 10
117.632
 20
101.203
 30
0.000000
  70
    32
  0
VERTEX
  8
0
  5
3804
 10
117.642
 20
101.190
 30
0.000000
  70
    32
  0
VERTEX
  8
0
  5
3805
 10
117.653
 20
101.176
 30
0.000000
  70
    32
  0
VERTEX
  8
0
  5
3806
 10
117.663
 20
101.163
 30
0.000000
  70
    32
  0
VERTEX
  8
0
  5
3807
 10
117.673
 20
101.149
 30
0.000000
  70
    32
  0
VERTEX
  8
0
  5
3808
 10
117.683
 20
101.135
 30
0.000000
  70
    32
  0
VERTEX
  8
0
  5
3809
 10
117.693
 20
101.121
 30
0.000000
  70
    32
  0
VERTEX
  8
0
  5
380A
 10
117.703
 20
101.106
 30
0.000000
  70
    32
  0
VERTEX
  8
0
  5
380B
 10
117.713
 20
101.092
 30
0.000000
  70
    32
  0
VERTEX
  8
0
  5
380C
 10
117.722
 20
101.077
 30
0.000000
  70
    32
  0
VERTEX
  8
0
  5
380D
 10
117.732
 20
101.061
 30
0.000000
  70
    32
  0
VERTEX
  8
0
  5
380E
 10
117.742
 20
101.046
 30
0.000000
  70
    32
  0
VERTEX
  8
0
  5
380F
 10
117.751
 20
101.030
 30
0.000000
  70
    32
  0
VERTEX
  8
0
  5
3810
 10
117.760
 20
101.014
 30
0.000000
  70
    32
  0
VERTEX
  8
0
  5
3811
 10
117.770
 20
100.998
 30
0.000000
  70
    32
  0
VERTEX
  8
0
  5
3812
 10
117.779
 20
100.982
 30
0.000000
  70
    32
  0
VERTEX
  8
0
  5
3813
 10
117.788
 20
100.965
 30
0.000000
  70
    32
  0
VERTEX
  8
0
  5
3814
 10
117.797
 20
100.948
 30
0.000000
  70
    32
  0
VERTEX
  8
0
  5
3815
 10
117.806
 20
100.931
 30
0.000000
  70
    32
  0
VERTEX
  8
0
  5
3816
 10
117.814
 20
100.914
 30
0.000000
  70
    32
  0
VERTEX
  8
0
  5
3817
 10
117.823
 20
100.897
 30
0.000000
  70
    32
  0
VERTEX
  8
0
  5
3818
 10
117.831
 20
100.879
 30
0.000000
  70
    32
  0
VERTEX
  8
0
  5
3819
 10
117.840
 20
100.861
 30
0.000000
  70
    32
  0
VERTEX
  8
0
  5
381A
 10
117.848
 20
100.843
 30
0.000000
  70
    32
  0
VERTEX
  8
0
  5
381B
 10
117.856
 20
100.825
 30
0.000000
  70
    32
  0
VERTEX
  8
0
  5
381C
 10
117.864
 20
100.806
 30
0.000000
  70
    32
  0
VERTEX
  8
0
  5
381D
 10
117.872
 20
100.788
 30
0.000000
  70
    32
  0
VERTEX
  8
0
  5
381E
 10
117.880
 20
100.769
 30
0.000000
  70
    32
  0
VERTEX
  8
0
  5
381F
 10
117.888
 20
100.750
 30
0.000000
  70
    32
  0
VERTEX
  8
0
  5
3820
 10
117.896
 20
100.730
 30
0.000000
  70
    32
  0
VERTEX
  8
0
  5
3821
 10
117.903
 20
100.711
 30
0.000000
  70
    32
  0
VERTEX
  8
0
  5
3822
 10
117.910
 20
100.691
 30
0.000000
  70
    32
  0
VERTEX
  8
0
  5
3823
 10
117.918
 20
100.672
 30
0.000000
  70
    32
  0
VERTEX
  8
0
  5
3824
 10
117.925
 20
100.652
 30
0.000000
  70
    32
  0
VERTEX
  8
0
  5
3825
 10
117.932
 20
100.631
 30
0.000000
  70
    32
  0
VERTEX
  8
0
  5
3826
 10
117.939
 20
100.611
 30
0.000000
  70
    32
  0
VERTEX
  8
0
  5
3827
 10
117.945
 20
100.591
 30
0.000000
  70
    32
  0
VERTEX
  8
0
  5
3828
 10
117.952
 20
100.570
 30
0.000000
  70
    32
  0
VERTEX
  8
0
  5
3829
 10
117.959
 20
100.549
 30
0.000000
  70
    32
  0
VERTEX
  8
0
  5
382A
 10
117.965
 20
100.528
 30
0.000000
  70
    32
  0
VERTEX
  8
0
  5
382B
 10
117.971
 20
100.507
 30
0.000000
  70
    32
  0
VERTEX
  8
0
  5
382C
 10
117.977
 20
100.486
 30
0.000000
  70
    32
  0
VERTEX
  8
0
  5
382D
 10
117.983
 20
100.464
 30
0.000000
  70
    32
  0
VERTEX
  8
0
  5
382E
 10
117.989
 20
100.443
 30
0.000000
  70
    32
  0
VERTEX
  8
0
  5
382F
 10
117.995
 20
100.421
 30
0.000000
  70
    32
  0
VERTEX
  8
0
  5
3830
 10
118.000
 20
100.399
 30
0.000000
  70
    32
  0
VERTEX
  8
0
  5
3831
 10
118.006
 20
100.377
 30
0.000000
  70
    32
  0
VERTEX
  8
0
  5
3832
 10
118.011
 20
100.355
 30
0.000000
  70
    32
  0
VERTEX
  8
0
  5
3833
 10
118.016
 20
100.333
 30
0.000000
  70
    32
  0
VERTEX
  8
0
  5
3834
 10
118.021
 20
100.310
 30
0.000000
  70
    32
  0
VERTEX
  8
0
  5
3835
 10
118.026
 20
100.288
 30
0.000000
  70
    32
  0
VERTEX
  8
0
  5
3836
 10
118.031
 20
100.265
 30
0.000000
  70
    32
  0
VERTEX
  8
0
  5
3837
 10
118.036
 20
100.243
 30
0.000000
  70
    32
  0
VERTEX
  8
0
  5
3838
 10
118.040
 20
100.220
 30
0.000000
  70
    32
  0
VERTEX
  8
0
  5
3839
 10
118.045
 20
100.197
 30
0.000000
  70
    32
  0
VERTEX
  8
0
  5
383A
 10
118.049
 20
100.174
 30
0.000000
  70
    32
  0
VERTEX
  8
0
  5
383B
 10
118.053
 20
100.151
 30
0.000000
  70
    32
  0
VERTEX
  8
0
  5
383C
 10
118.057
 20
100.127
 30
0.000000
  70
    32
  0
VERTEX
  8
0
  5
383D
 10
118.060
 20
100.104
 30
0.000000
  70
    32
  0
VERTEX
  8
0
  5
383E
 10
118.064
 20
100.081
 30
0.000000
  70
    32
  0
VERTEX
  8
0
  5
383F
 10
118.068
 20
100.057
 30
0.000000
  70
    32
  0
VERTEX
  8
0
  5
3840
 10
118.071
 20
100.033
 30
0.000000
  70
    32
  0
VERTEX
  8
0
  5
3841
 10
118.074
 20
100.010
 30
0.000000
  70
    32
  0
VERTEX
  8
0
  5
3842
 10
118.077
 20
99.9860
 30
0.000000
  70
    32
  0
VERTEX
  8
0
  5
3843
 10
118.080
 20
99.9621
 30
0.000000
  70
    32
  0
VERTEX
  8
0
  5
3844
 10
118.083
 20
99.9382
 30
0.000000
  70
    32
  0
VERTEX
  8
0
  5
3845
 10
118.086
 20
99.9142
 30
0.000000
  70
    32
  0
VERTEX
  8
0
  5
3846
 10
118.088
 20
99.8902
 30
0.000000
  70
    32
  0
VERTEX
  8
0
  5
3847
 10
118.090
 20
99.8661
 30
0.000000
  70
    32
  0
VERTEX
  8
0
  5
3848
 10
118.092
 20
99.8419
 30
0.000000
  70
    32
  0
VERTEX
  8
0
  5
3849
 10
118.094
 20
99.8177
 30
0.000000
  70
    32
  0
VERTEX
  8
0
  5
384A
 10
118.096
 20
99.7935
 30
0.000000
  70
    32
  0
VERTEX
  8
0
  5
384B
 10
118.098
 20
99.7692
 30
0.000000
  70
    32
  0
VERTEX
  8
0
  5
384C
 10
118.100
 20
99.7448
 30
0.000000
  70
    32
  0
VERTEX
  8
0
  5
384D
 10
118.101
 20
99.7204
 30
0.000000
  70
    32
  0
VERTEX
  8
0
  5
384E
 10
118.102
 20
99.6960
 30
0.000000
  70
    32
  0
VERTEX
  8
0
  5
384F
 10
118.103
 20
99.6716
 30
0.000000
  70
    32
  0
VERTEX
  8
0
  5
3850
 10
118.104
 20
99.6471
 30
0.000000
  70
    32
  0
VERTEX
  8
0
  5
3851
 10
118.105
 20
99.6226
 30
0.000000
  70
    32
  0
VERTEX
  8
0
  5
3852
 10
118.106
 20
99.5981
 30
0.000000
  70
    32
  0
VERTEX
  8
0
  5
3853
 10
118.107
 20
99.5736
 30
0.000000
  70
    32
  0
VERTEX
  8
0
  5
3854
 10
118.107
 20
99.5491
 30
0.000000
  70
    32
  0
VERTEX
  8
0
  5
3855
 10
118.107
 20
99.5245
 30
0.000000
  70
    32
  0
VERTEX
  8
0
  5
3856
 10
118.107
 20
99.5000
 30
0.000000
  70
    32
  0
SEQEND
  8
0
  5
3857
  0
POLYLINE
  5
326E
  8
0
 10
107.9928141639234
 20
101.50000000000095
 30
0.0
 66
     1
 70
     8
  0
VERTEX
  8
0
  5
3858
 10
107.993
 20
101.500
 30
0.000000
  70
    32
  0
VERTEX
  8
0
  5
3859
 10
107.981
 20
101.500
 30
0.000000
  70
    32
  0
VERTEX
  8
0
  5
385A
 10
107.968
 20
101.499
 30
0.000000
  70
    32
  0
VERTEX
  8
0
  5
385B
 10
107.956
 20
101.499
 30
0.000000
  70
    32
  0
VERTEX
  8
0
  5
385C
 10
107.944
 20
101.498
 30
0.000000
  70
    32
  0
VERTEX
  8
0
  5
385D
 10
107.931
 20
101.496
 30
0.000000
  70
    32
  0
VERTEX
  8
0
  5
385E
 10
107.919
 20
101.495
 30
0.000000
  70
    32
  0
VERTEX
  8
0
  5
385F
 10
107.907
 20
101.493
 30
0.000000
  70
    32
  0
VERTEX
  8
0
  5
3860
 10
107.895
 20
101.490
 30
0.000000
  70
    32
  0
VERTEX
  8
0
  5
3861
 10
107.883
 20
101.488
 30
0.000000
  70
    32
  0
VERTEX
  8
0
  5
3862
 10
107.870
 20
101.485
 30
0.000000
  70
    32
  0
VERTEX
  8
0
  5
3863
 10
107.858
 20
101.482
 30
0.000000
  70
    32
  0
VERTEX
  8
0
  5
3864
 10
107.846
 20
101.478
 30
0.000000
  70
    32
  0
VERTEX
  8
0
  5
3865
 10
107.834
 20
101.475
 30
0.000000
  70
    32
  0
VERTEX
  8
0
  5
3866
 10
107.822
 20
101.471
 30
0.000000
  70
    32
  0
VERTEX
  8
0
  5
3867
 10
107.810
 20
101.466
 30
0.000000
  70
    32
  0
VERTEX
  8
0
  5
3868
 10
107.798
 20
101.462
 30
0.000000
  70
    32
  0
VERTEX
  8
0
  5
3869
 10
107.786
 20
101.457
 30
0.000000
  70
    32
  0
VERTEX
  8
0
  5
386A
 10
107.774
 20
101.451
 30
0.000000
  70
    32
  0
VERTEX
  8
0
  5
386B
 10
107.762
 20
101.446
 30
0.000000
  70
    32
  0
VERTEX
  8
0
  5
386C
 10
107.750
 20
101.440
 30
0.000000
  70
    32
  0
VERTEX
  8
0
  5
386D
 10
107.738
 20
101.434
 30
0.000000
  70
    32
  0
VERTEX
  8
0
  5
386E
 10
107.726
 20
101.428
 30
0.000000
  70
    32
  0
VERTEX
  8
0
  5
386F
 10
107.714
 20
101.421
 30
0.000000
  70
    32
  0
VERTEX
  8
0
  5
3870
 10
107.703
 20
101.414
 30
0.000000
  70
    32
  0
VERTEX
  8
0
  5
3871
 10
107.691
 20
101.407
 30
0.000000
  70
    32
  0
VERTEX
  8
0
  5
3872
 10
107.679
 20
101.399
 30
0.000000
  70
    32
  0
VERTEX
  8
0
  5
3873
 10
107.668
 20
101.391
 30
0.000000
  70
    32
  0
VERTEX
  8
0
  5
3874
 10
107.656
 20
101.383
 30
0.000000
  70
    32
  0
VERTEX
  8
0
  5
3875
 10
107.644
 20
101.375
 30
0.000000
  70
    32
  0
VERTEX
  8
0
  5
3876
 10
107.633
 20
101.366
 30
0.000000
  70
    32
  0
VERTEX
  8
0
  5
3877
 10
107.621
 20
101.357
 30
0.000000
  70
    32
  0
VERTEX
  8
0
  5
3878
 10
107.610
 20
101.348
 30
0.000000
  70
    32
  0
VERTEX
  8
0
  5
3879
 10
107.599
 20
101.338
 30
0.000000
  70
    32
  0
VERTEX
  8
0
  5
387A
 10
107.588
 20
101.328
 30
0.000000
  70
    32
  0
VERTEX
  8
0
  5
387B
 10
107.576
 20
101.318
 30
0.000000
  70
    32
  0
VERTEX
  8
0
  5
387C
 10
107.565
 20
101.308
 30
0.000000
  70
    32
  0
VERTEX
  8
0
  5
387D
 10
107.554
 20
101.297
 30
0.000000
  70
    32
  0
VERTEX
  8
0
  5
387E
 10
107.543
 20
101.286
 30
0.000000
  70
    32
  0
VERTEX
  8
0
  5
387F
 10
107.532
 20
101.275
 30
0.000000
  70
    32
  0
VERTEX
  8
0
  5
3880
 10
107.521
 20
101.264
 30
0.000000
  70
    32
  0
VERTEX
  8
0
  5
3881
 10
107.511
 20
101.252
 30
0.000000
  70
    32
  0
VERTEX
  8
0
  5
3882
 10
107.500
 20
101.240
 30
0.000000
  70
    32
  0
VERTEX
  8
0
  5
3883
 10
107.489
 20
101.228
 30
0.000000
  70
    32
  0
VERTEX
  8
0
  5
3884
 10
107.479
 20
101.215
 30
0.000000
  70
    32
  0
VERTEX
  8
0
  5
3885
 10
107.468
 20
101.203
 30
0.000000
  70
    32
  0
VERTEX
  8
0
  5
3886
 10
107.458
 20
101.190
 30
0.000000
  70
    32
  0
VERTEX
  8
0
  5
3887
 10
107.447
 20
101.176
 30
0.000000
  70
    32
  0
VERTEX
  8
0
  5
3888
 10
107.437
 20
101.163
 30
0.000000
  70
    32
  0
VERTEX
  8
0
  5
3889
 10
107.427
 20
101.149
 30
0.000000
  70
    32
  0
VERTEX
  8
0
  5
388A
 10
107.417
 20
101.135
 30
0.000000
  70
    32
  0
VERTEX
  8
0
  5
388B
 10
107.407
 20
101.121
 30
0.000000
  70
    32
  0
VERTEX
  8
0
  5
388C
 10
107.397
 20
101.106
 30
0.000000
  70
    32
  0
VERTEX
  8
0
  5
388D
 10
107.387
 20
101.092
 30
0.000000
  70
    32
  0
VERTEX
  8
0
  5
388E
 10
107.378
 20
101.077
 30
0.000000
  70
    32
  0
VERTEX
  8
0
  5
388F
 10
107.368
 20
101.061
 30
0.000000
  70
    32
  0
VERTEX
  8
0
  5
3890
 10
107.358
 20
101.046
 30
0.000000
  70
    32
  0
VERTEX
  8
0
  5
3891
 10
107.349
 20
101.030
 30
0.000000
  70
    32
  0
VERTEX
  8
0
  5
3892
 10
107.340
 20
101.014
 30
0.000000
  70
    32
  0
VERTEX
  8
0
  5
3893
 10
107.330
 20
100.998
 30
0.000000
  70
    32
  0
VERTEX
  8
0
  5
3894
 10
107.321
 20
100.982
 30
0.000000
  70
    32
  0
VERTEX
  8
0
  5
3895
 10
107.312
 20
100.965
 30
0.000000
  70
    32
  0
VERTEX
  8
0
  5
3896
 10
107.303
 20
100.948
 30
0.000000
  70
    32
  0
VERTEX
  8
0
  5
3897
 10
107.294
 20
100.931
 30
0.000000
  70
    32
  0
VERTEX
  8
0
  5
3898
 10
107.286
 20
100.914
 30
0.000000
  70
    32
  0
VERTEX
  8
0
  5
3899
 10
107.277
 20
100.897
 30
0.000000
  70
    32
  0
VERTEX
  8
0
  5
389A
 10
107.269
 20
100.879
 30
0.000000
  70
    32
  0
VERTEX
  8
0
  5
389B
 10
107.260
 20
100.861
 30
0.000000
  70
    32
  0
VERTEX
  8
0
  5
389C
 10
107.252
 20
100.843
 30
0.000000
  70
    32
  0
VERTEX
  8
0
  5
389D
 10
107.244
 20
100.825
 30
0.000000
  70
    32
  0
VERTEX
  8
0
  5
389E
 10
107.236
 20
100.806
 30
0.000000
  70
    32
  0
VERTEX
  8
0
  5
389F
 10
107.228
 20
100.788
 30
0.000000
  70
    32
  0
VERTEX
  8
0
  5
38A0
 10
107.220
 20
100.769
 30
0.000000
  70
    32
  0
VERTEX
  8
0
  5
38A1
 10
107.212
 20
100.750
 30
0.000000
  70
    32
  0
VERTEX
  8
0
  5
38A2
 10
107.204
 20
100.730
 30
0.000000
  70
    32
  0
VERTEX
  8
0
  5
38A3
 10
107.197
 20
100.711
 30
0.000000
  70
    32
  0
VERTEX
  8
0
  5
38A4
 10
107.190
 20
100.691
 30
0.000000
  70
    32
  0
VERTEX
  8
0
  5
38A5
 10
107.182
 20
100.672
 30
0.000000
  70
    32
  0
VERTEX
  8
0
  5
38A6
 10
107.175
 20
100.652
 30
0.000000
  70
    32
  0
VERTEX
  8
0
  5
38A7
 10
107.168
 20
100.631
 30
0.000000
  70
    32
  0
VERTEX
  8
0
  5
38A8
 10
107.161
 20
100.611
 30
0.000000
  70
    32
  0
VERTEX
  8
0
  5
38A9
 10
107.155
 20
100.591
 30
0.000000
  70
    32
  0
VERTEX
  8
0
  5
38AA
 10
107.148
 20
100.570
 30
0.000000
  70
    32
  0
VERTEX
  8
0
  5
38AB
 10
107.141
 20
100.549
 30
0.000000
  70
    32
  0
VERTEX
  8
0
  5
38AC
 10
107.135
 20
100.528
 30
0.000000
  70
    32
  0
VERTEX
  8
0
  5
38AD
 10
107.129
 20
100.507
 30
0.000000
  70
    32
  0
VERTEX
  8
0
  5
38AE
 10
107.123
 20
100.486
 30
0.000000
  70
    32
  0
VERTEX
  8
0
  5
38AF
 10
107.117
 20
100.464
 30
0.000000
  70
    32
  0
VERTEX
  8
0
  5
38B0
 10
107.111
 20
100.443
 30
0.000000
  70
    32
  0
VERTEX
  8
0
  5
38B1
 10
107.105
 20
100.421
 30
0.000000
  70
    32
  0
VERTEX
  8
0
  5
38B2
 10
107.100
 20
100.399
 30
0.000000
  70
    32
  0
VERTEX
  8
0
  5
38B3
 10
107.094
 20
100.377
 30
0.000000
  70
    32
  0
VERTEX
  8
0
  5
38B4
 10
107.089
 20
100.355
 30
0.000000
  70
    32
  0
VERTEX
  8
0
  5
38B5
 10
107.084
 20
100.333
 30
0.000000
  70
    32
  0
VERTEX
  8
0
  5
38B6
 10
107.079
 20
100.310
 30
0.000000
  70
    32
  0
VERTEX
  8
0
  5
38B7
 10
107.074
 20
100.288
 30
0.000000
  70
    32
  0
VERTEX
  8
0
  5
38B8
 10
107.069
 20
100.265
 30
0.000000
  70
    32
  0
VERTEX
  8
0
  5
38B9
 10
107.064
 20
100.243
 30
0.000000
  70
    32
  0
VERTEX
  8
0
  5
38BA
 10
107.060
 20
100.220
 30
0.000000
  70
    32
  0
VERTEX
  8
0
  5
38BB
 10
107.055
 20
100.197
 30
0.000000
  70
    32
  0
VERTEX
  8
0
  5
38BC
 10
107.051
 20
100.174
 30
0.000000
  70
    32
  0
VERTEX
  8
0
  5
38BD
 10
107.047
 20
100.151
 30
0.000000
  70
    32
  0
VERTEX
  8
0
  5
38BE
 10
107.043
 20
100.127
 30
0.000000
  70
    32
  0
VERTEX
  8
0
  5
38BF
 10
107.040
 20
100.104
 30
0.000000
  70
    32
  0
VERTEX
  8
0
  5
38C0
 10
107.036
 20
100.081
 30
0.000000
  70
    32
  0
VERTEX
  8
0
  5
38C1
 10
107.032
 20
100.057
 30
0.000000
  70
    32
  0
VERTEX
  8
0
  5
38C2
 10
107.029
 20
100.033
 30
0.000000
  70
    32
  0
VERTEX
  8
0
  5
38C3
 10
107.026
 20
100.010
 30
0.000000
  70
    32
  0
VERTEX
  8
0
  5
38C4
 10
107.023
 20
99.9860
 30
0.000000
  70
    32
  0
VERTEX
  8
0
  5
38C5
 10
107.020
 20
99.9621
 30
0.000000
  70
    32
  0
VERTEX
  8
0
  5
38C6
 10
107.017
 20
99.9382
 30
0.000000
  70
    32
  0
VERTEX
  8
0
  5
38C7
 10
107.014
 20
99.9142
 30
0.000000
  70
    32
  0
VERTEX
  8
0
  5
38C8
 10
107.012
 20
99.8902
 30
0.000000
  70
    32
  0
VERTEX
  8
0
  5
38C9
 10
107.010
 20
99.8661
 30
0.000000
  70
    32
  0
VERTEX
  8
0
  5
38CA
 10
107.008
 20
99.8419
 30
0.000000
  70
    32
  0
VERTEX
  8
0
  5
38CB
 10
107.006
 20
99.8177
 30
0.000000
  70
    32
  0
VERTEX
  8
0
  5
38CC
 10
107.004
 20
99.7935
 30
0.000000
  70
    32
  0
VERTEX
  8
0
  5
38CD
 10
107.002
 20
99.7692
 30
0.000000
  70
    32
  0
VERTEX
  8
0
  5
38CE
 10
107.000
 20
99.7448
 30
0.000000
  70
    32
  0
VERTEX
  8
0
  5
38CF
 10
106.999
 20
99.7204
 30
0.000000
  70
    32
  0
VERTEX
  8
0
  5
38D0
 10
106.998
 20
99.6960
 30
0.000000
  70
    32
  0
VERTEX
  8
0
  5
38D1
 10
106.997
 20
99.6716
 30
0.000000
  70
    32
  0
VERTEX
  8
0
  5
38D2
 10
106.996
 20
99.6471
 30
0.000000
  70
    32
  0
VERTEX
  8
0
  5
38D3
 10
106.995
 20
99.6226
 30
0.000000
  70
    32
  0
VERTEX
  8
0
  5
38D4
 10
106.994
 20
99.5981
 30
0.000000
  70
    32
  0
VERTEX
  8
0
  5
38D5
 10
106.993
 20
99.5736
 30
0.000000
  70
    32
  0
VERTEX
  8
0
  5
38D6
 10
106.993
 20
99.5491
 30
0.000000
  70
    32
  0
VERTEX
  8
0
  5
38D7
 10
106.993
 20
99.5245
 30
0.000000
  70
    32
  0
VERTEX
  8
0
  5
38D8
 10
106.993
 20
99.5000
 30
0.000000
  70
    32
  0
SEQEND
  8
0
  5
38D9
  0
ARC
  5
326F
  8
0
 10
109.52265745301619
 20
94.000000000001009
 30
0.0
 40
1.0
 50
180.0
 51
270.0
  0
LINE
  5
3270
  8
0
 10
108.52265745301619
 20
97.879519183450626
 30
0.0
 11
108.52265745301619
 21
94.000000000001009
 31
0.0
  0
POLYLINE
  5
3271
  8
0
 10
107.9928141639234
 20
90.500000000000966
 30
0.0
 66
     1
 70
     8
  0
VERTEX
  8
0
  5
38DA
 10
107.993
 20
90.5000
 30
0.000000
  70
    32
  0
VERTEX
  8
0
  5
38DB
 10
107.981
 20
90.5002
 30
0.000000
  70
    32
  0
VERTEX
  8
0
  5
38DC
 10
107.968
 20
90.5006
 30
0.000000
  70
    32
  0
VERTEX
  8
0
  5
38DD
 10
107.956
 20
90.5014
 30
0.000000
  70
    32
  0
VERTEX
  8
0
  5
38DE
 10
107.944
 20
90.5024
 30
0.000000
  70
    32
  0
VERTEX
  8
0
  5
38DF
 10
107.931
 20
90.5038
 30
0.000000
  70
    32
  0
VERTEX
  8
0
  5
38E0
 10
107.919
 20
90.5054
 30
0.000000
  70
    32
  0
VERTEX
  8
0
  5
38E1
 10
107.907
 20
90.5074
 30
0.000000
  70
    32
  0
VERTEX
  8
0
  5
38E2
 10
107.895
 20
90.5096
 30
0.000000
  70
    32
  0
VERTEX
  8
0
  5
38E3
 10
107.883
 20
90.5122
 30
0.000000
  70
    32
  0
VERTEX
  8
0
  5
38E4
 10
107.870
 20
90.5150
 30
0.000000
  70
    32
  0
VERTEX
  8
0
  5
38E5
 10
107.858
 20
90.5182
 30
0.000000
  70
    32
  0
VERTEX
  8
0
  5
38E6
 10
107.846
 20
90.5216
 30
0.000000
  70
    32
  0
VERTEX
  8
0
  5
38E7
 10
107.834
 20
90.5254
 30
0.000000
  70
    32
  0
VERTEX
  8
0
  5
38E8
 10
107.822
 20
90.5294
 30
0.000000
  70
    32
  0
VERTEX
  8
0
  5
38E9
 10
107.810
 20
90.5338
 30
0.000000
  70
    32
  0
VERTEX
  8
0
  5
38EA
 10
107.798
 20
90.5384
 30
0.000000
  70
    32
  0
VERTEX
  8
0
  5
38EB
 10
107.786
 20
90.5434
 30
0.000000
  70
    32
  0
VERTEX
  8
0
  5
38EC
 10
107.774
 20
90.5486
 30
0.000000
  70
    32
  0
VERTEX
  8
0
  5
38ED
 10
107.762
 20
90.5541
 30
0.000000
  70
    32
  0
VERTEX
  8
0
  5
38EE
 10
107.750
 20
90.5599
 30
0.000000
  70
    32
  0
VERTEX
  8
0
  5
38EF
 10
107.738
 20
90.5660
 30
0.000000
  70
    32
  0
VERTEX
  8
0
  5
38F0
 10
107.726
 20
90.5724
 30
0.000000
  70
    32
  0
VERTEX
  8
0
  5
38F1
 10
107.714
 20
90.5791
 30
0.000000
  70
    32
  0
VERTEX
  8
0
  5
38F2
 10
107.703
 20
90.5861
 30
0.000000
  70
    32
  0
VERTEX
  8
0
  5
38F3
 10
107.691
 20
90.5934
 30
0.000000
  70
    32
  0
VERTEX
  8
0
  5
38F4
 10
107.679
 20
90.6009
 30
0.000000
  70
    32
  0
VERTEX
  8
0
  5
38F5
 10
107.668
 20
90.6088
 30
0.000000
  70
    32
  0
VERTEX
  8
0
  5
38F6
 10
107.656
 20
90.6169
 30
0.000000
  70
    32
  0
VERTEX
  8
0
  5
38F7
 10
107.644
 20
90.6253
 30
0.000000
  70
    32
  0
VERTEX
  8
0
  5
38F8
 10
107.633
 20
90.6340
 30
0.000000
  70
    32
  0
VERTEX
  8
0
  5
38F9
 10
107.621
 20
90.6430
 30
0.000000
  70
    32
  0
VERTEX
  8
0
  5
38FA
 10
107.610
 20
90.6522
 30
0.000000
  70
    32
  0
VERTEX
  8
0
  5
38FB
 10
107.599
 20
90.6618
 30
0.000000
  70
    32
  0
VERTEX
  8
0
  5
38FC
 10
107.588
 20
90.6716
 30
0.000000
  70
    32
  0
VERTEX
  8
0
  5
38FD
 10
107.576
 20
90.6817
 30
0.000000
  70
    32
  0
VERTEX
  8
0
  5
38FE
 10
107.565
 20
90.6920
 30
0.000000
  70
    32
  0
VERTEX
  8
0
  5
38FF
 10
107.554
 20
90.7027
 30
0.000000
  70
    32
  0
VERTEX
  8
0
  5
3900
 10
107.543
 20
90.7136
 30
0.000000
  70
    32
  0
VERTEX
  8
0
  5
3901
 10
107.532
 20
90.7247
 30
0.000000
  70
    32
  0
VERTEX
  8
0
  5
3902
 10
107.521
 20
90.7362
 30
0.000000
  70
    32
  0
VERTEX
  8
0
  5
3903
 10
107.511
 20
90.7479
 30
0.000000
  70
    32
  0
VERTEX
  8
0
  5
3904
 10
107.500
 20
90.7598
 30
0.000000
  70
    32
  0
VERTEX
  8
0
  5
3905
 10
107.489
 20
90.7721
 30
0.000000
  70
    32
  0
VERTEX
  8
0
  5
3906
 10
107.479
 20
90.7845
 30
0.000000
  70
    32
  0
VERTEX
  8
0
  5
3907
 10
107.468
 20
90.7973
 30
0.000000
  70
    32
  0
VERTEX
  8
0
  5
3908
 10
107.458
 20
90.8103
 30
0.000000
  70
    32
  0
VERTEX
  8
0
  5
3909
 10
107.447
 20
90.8236
 30
0.000000
  70
    32
  0
VERTEX
  8
0
  5
390A
 10
107.437
 20
90.8371
 30
0.000000
  70
    32
  0
VERTEX
  8
0
  5
390B
 10
107.427
 20
90.8508
 30
0.000000
  70
    32
  0
VERTEX
  8
0
  5
390C
 10
107.417
 20
90.8648
 30
0.000000
  70
    32
  0
VERTEX
  8
0
  5
390D
 10
107.407
 20
90.8791
 30
0.000000
  70
    32
  0
VERTEX
  8
0
  5
390E
 10
107.397
 20
90.8936
 30
0.000000
  70
    32
  0
VERTEX
  8
0
  5
390F
 10
107.387
 20
90.9083
 30
0.000000
  70
    32
  0
VERTEX
  8
0
  5
3910
 10
107.378
 20
90.9233
 30
0.000000
  70
    32
  0
VERTEX
  8
0
  5
3911
 10
107.368
 20
90.9385
 30
0.000000
  70
    32
  0
VERTEX
  8
0
  5
3912
 10
107.358
 20
90.9540
 30
0.000000
  70
    32
  0
VERTEX
  8
0
  5
3913
 10
107.349
 20
90.9697
 30
0.000000
  70
    32
  0
VERTEX
  8
0
  5
3914
 10
107.340
 20
90.9856
 30
0.000000
  70
    32
  0
VERTEX
  8
0
  5
3915
 10
107.330
 20
91.0017
 30
0.000000
  70
    32
  0
VERTEX
  8
0
  5
3916
 10
107.321
 20
91.0181
 30
0.000000
  70
    32
  0
VERTEX
  8
0
  5
3917
 10
107.312
 20
91.0347
 30
0.000000
  70
    32
  0
VERTEX
  8
0
  5
3918
 10
107.303
 20
91.0515
 30
0.000000
  70
    32
  0
VERTEX
  8
0
  5
3919
 10
107.294
 20
91.0685
 30
0.000000
  70
    32
  0
VERTEX
  8
0
  5
391A
 10
107.286
 20
91.0858
 30
0.000000
  70
    32
  0
VERTEX
  8
0
  5
391B
 10
107.277
 20
91.1032
 30
0.000000
  70
    32
  0
VERTEX
  8
0
  5
391C
 10
107.269
 20
91.1209
 30
0.000000
  70
    32
  0
VERTEX
  8
0
  5
391D
 10
107.260
 20
91.1388
 30
0.000000
  70
    32
  0
VERTEX
  8
0
  5
391E
 10
107.252
 20
91.1569
 30
0.000000
  70
    32
  0
VERTEX
  8
0
  5
391F
 10
107.244
 20
91.1752
 30
0.000000
  70
    32
  0
VERTEX
  8
0
  5
3920
 10
107.236
 20
91.1937
 30
0.000000
  70
    32
  0
VERTEX
  8
0
  5
3921
 10
107.228
 20
91.2123
 30
0.000000
  70
    32
  0
VERTEX
  8
0
  5
3922
 10
107.220
 20
91.2312
 30
0.000000
  70
    32
  0
VERTEX
  8
0
  5
3923
 10
107.212
 20
91.2503
 30
0.000000
  70
    32
  0
VERTEX
  8
0
  5
3924
 10
107.204
 20
91.2695
 30
0.000000
  70
    32
  0
VERTEX
  8
0
  5
3925
 10
107.197
 20
91.2890
 30
0.000000
  70
    32
  0
VERTEX
  8
0
  5
3926
 10
107.190
 20
91.3086
 30
0.000000
  70
    32
  0
VERTEX
  8
0
  5
3927
 10
107.182
 20
91.3284
 30
0.000000
  70
    32
  0
VERTEX
  8
0
  5
3928
 10
107.175
 20
91.3484
 30
0.000000
  70
    32
  0
VERTEX
  8
0
  5
3929
 10
107.168
 20
91.3685
 30
0.000000
  70
    32
  0
VERTEX
  8
0
  5
392A
 10
107.161
 20
91.3889
 30
0.000000
  70
    32
  0
VERTEX
  8
0
  5
392B
 10
107.155
 20
91.4094
 30
0.000000
  70
    32
  0
VERTEX
  8
0
  5
392C
 10
107.148
 20
91.4300
 30
0.000000
  70
    32
  0
VERTEX
  8
0
  5
392D
 10
107.141
 20
91.4508
 30
0.000000
  70
    32
  0
VERTEX
  8
0
  5
392E
 10
107.135
 20
91.4718
 30
0.000000
  70
    32
  0
VERTEX
  8
0
  5
392F
 10
107.129
 20
91.4929
 30
0.000000
  70
    32
  0
VERTEX
  8
0
  5
3930
 10
107.123
 20
91.5142
 30
0.000000
  70
    32
  0
VERTEX
  8
0
  5
3931
 10
107.117
 20
91.5356
 30
0.000000
  70
    32
  0
VERTEX
  8
0
  5
3932
 10
107.111
 20
91.5572
 30
0.000000
  70
    32
  0
VERTEX
  8
0
  5
3933
 10
107.105
 20
91.5789
 30
0.000000
  70
    32
  0
VERTEX
  8
0
  5
3934
 10
107.100
 20
91.6008
 30
0.000000
  70
    32
  0
VERTEX
  8
0
  5
3935
 10
107.094
 20
91.6228
 30
0.000000
  70
    32
  0
VERTEX
  8
0
  5
3936
 10
107.089
 20
91.6449
 30
0.000000
  70
    32
  0
VERTEX
  8
0
  5
3937
 10
107.084
 20
91.6671
 30
0.000000
  70
    32
  0
VERTEX
  8
0
  5
3938
 10
107.079
 20
91.6895
 30
0.000000
  70
    32
  0
VERTEX
  8
0
  5
3939
 10
107.074
 20
91.7120
 30
0.000000
  70
    32
  0
VERTEX
  8
0
  5
393A
 10
107.069
 20
91.7346
 30
0.000000
  70
    32
  0
VERTEX
  8
0
  5
393B
 10
107.064
 20
91.7574
 30
0.000000
  70
    32
  0
VERTEX
  8
0
  5
393C
 10
107.060
 20
91.7802
 30
0.000000
  70
    32
  0
VERTEX
  8
0
  5
393D
 10
107.055
 20
91.8032
 30
0.000000
  70
    32
  0
VERTEX
  8
0
  5
393E
 10
107.051
 20
91.8262
 30
0.000000
  70
    32
  0
VERTEX
  8
0
  5
393F
 10
107.047
 20
91.8494
 30
0.000000
  70
    32
  0
VERTEX
  8
0
  5
3940
 10
107.043
 20
91.8726
 30
0.000000
  70
    32
  0
VERTEX
  8
0
  5
3941
 10
107.040
 20
91.8960
 30
0.000000
  70
    32
  0
VERTEX
  8
0
  5
3942
 10
107.036
 20
91.9194
 30
0.000000
  70
    32
  0
VERTEX
  8
0
  5
3943
 10
107.032
 20
91.9430
 30
0.000000
  70
    32
  0
VERTEX
  8
0
  5
3944
 10
107.029
 20
91.9666
 30
0.000000
  70
    32
  0
VERTEX
  8
0
  5
3945
 10
107.026
 20
91.9903
 30
0.000000
  70
    32
  0
VERTEX
  8
0
  5
3946
 10
107.023
 20
92.0140
 30
0.000000
  70
    32
  0
VERTEX
  8
0
  5
3947
 10
107.020
 20
92.0379
 30
0.000000
  70
    32
  0
VERTEX
  8
0
  5
3948
 10
107.017
 20
92.0618
 30
0.000000
  70
    32
  0
VERTEX
  8
0
  5
3949
 10
107.014
 20
92.0858
 30
0.000000
  70
    32
  0
VERTEX
  8
0
  5
394A
 10
107.012
 20
92.1098
 30
0.000000
  70
    32
  0
VERTEX
  8
0
  5
394B
 10
107.010
 20
92.1339
 30
0.000000
  70
    32
  0
VERTEX
  8
0
  5
394C
 10
107.008
 20
92.1581
 30
0.000000
  70
    32
  0
VERTEX
  8
0
  5
394D
 10
107.006
 20
92.1823
 30
0.000000
  70
    32
  0
VERTEX
  8
0
  5
394E
 10
107.004
 20
92.2065
 30
0.000000
  70
    32
  0
VERTEX
  8
0
  5
394F
 10
107.002
 20
92.2308
 30
0.000000
  70
    32
  0
VERTEX
  8
0
  5
3950
 10
107.000
 20
92.2552
 30
0.000000
  70
    32
  0
VERTEX
  8
0
  5
3951
 10
106.999
 20
92.2796
 30
0.000000
  70
    32
  0
VERTEX
  8
0
  5
3952
 10
106.998
 20
92.3040
 30
0.000000
  70
    32
  0
VERTEX
  8
0
  5
3953
 10
106.997
 20
92.3284
 30
0.000000
  70
    32
  0
VERTEX
  8
0
  5
3954
 10
106.996
 20
92.3529
 30
0.000000
  70
    32
  0
VERTEX
  8
0
  5
3955
 10
106.995
 20
92.3774
 30
0.000000
  70
    32
  0
VERTEX
  8
0
  5
3956
 10
106.994
 20
92.4019
 30
0.000000
  70
    32
  0
VERTEX
  8
0
  5
3957
 10
106.993
 20
92.4264
 30
0.000000
  70
    32
  0
VERTEX
  8
0
  5
3958
 10
106.993
 20
92.4509
 30
0.000000
  70
    32
  0
VERTEX
  8
0
  5
3959
 10
106.993
 20
92.4755
 30
0.000000
  70
    32
  0
VERTEX
  8
0
  5
395A
 10
106.993
 20
92.5000
 30
0.000000
  70
    32
  0
SEQEND
  8
0
  5
395B
  0
ARC
  5
3272
  8
0
 10
109.52265745301619
 20
97.879519183450626
 30
0.0
 40
1.0
 50
90.0
 51
180.0
  0
LINE
  5
3273
  8
0
 10
106.9928141639234
 20
99.500000000000952
 30
0.0
 11
106.9928141639234
 21
92.500000000000966
 31
0.0
  0
LINE
  5
3274
  8
0
 10
108.52265745301619
 20
94.000000000001009
 30
0.0
 11
106.9928141639234
 21
92.500000000000966
 31
0.0
  0
LINE
  5
3275
  8
0
 10
109.52265745301619
 20
93.000000000000981
 30
0.0
 11
107.9928141639234
 21
90.500000000000981
 31
0.0
  0
LINE
  5
3278
  8
0
 10
115.5773425469839
 20
93.000000000000981
 30
0.0
 11
117.1071858360767
 21
90.500000000000981
 31
0.0
  0
LINE
  5
3279
  8
0
 10
116.5773425469839
 20
94.000000000001009
 30
0.0
 11
118.1071858360767
 21
92.500000000000966
 31
0.0
  0
LINE
  5
327E
  8
0
 10
118.1071858360767
 20
99.500000000000952
 30
0.0
 11
116.5773425469839
 21
97.879519183450626
 31
0.0
  0
LINE
  5
327F
  8
0
 10
115.5773425469839
 20
98.879519183450626
 30
0.0
 11
117.1071858360767
 21
101.5000000000009
 31
0.0
  0
LINE
  5
3280
  8
0
 10
106.9928141639234
 20
99.500000000000952
 30
0.0
 11
108.52265745301619
 21
97.879519183450626
 31
0.0
  0
LINE
  5
3281
  8
0
 10
109.52265745301619
 20
98.879519183450626
 30
0.0
 11
107.9928141639234
 21
101.5000000000009
 31
0.0
  0
LINE
  5
3283
  8
0
 10
116.40000000000011
 20
104.5000000000009
 30
0.0
 11
116.40000000000011
 21
101.5000000000009
 31
0.0
  0
ARC
  5
3284
  8
0
 10
115.90000000000011
 20
104.5000000000009
 30
0.0
 40
0.5
 50
0.0
 51
90.0
  0
LINE
  5
3285
  8
0
 10
108.7
 20
104.5000000000009
 30
0.0
 11
116.40000000000011
 21
104.5000000000008
 31
0.0
  0
LINE
  5
3286
  8
0
 10
115.90000000000011
 20
105.0000000000009
 30
0.0
 11
109.2
 21
105.0000000000009
 31
0.0
  0
ARC
  5
3287
  8
0
 10
109.2
 20
104.5000000000009
 30
0.0
 40
0.5
 50
90.0
 51
180.0
  0
LINE
  5
3288
  8
0
 10
108.7
 20
104.5000000000009
 30
0.0
 11
108.7
 21
101.5000000000009
 31
0.0
  0
TEXT
  5
3357
  8
0
 62
     3
 10
0.0
 20
0.0
 30
0.0
 40
10.0
  1
BJ773-10025-SUS
  7
STANDARD1
  0
LINE
  5
33AE
  8
0
 10
42.950000000000003
 20
90.500000000000981
 30
0.0
 11
42.95000000000001
 21
69.000000000000966
 31
0.0
  0
LINE
  5
33B1
  8
0
 10
57.050000000000011
 20
90.500000000000981
 30
0.0
 11
57.050000000000011
 21
69.000000000000938
 31
0.0
  0
LINE
  5
33B2
  8
0
 10
119.59999999999999
 20
100.5000000000009
 30
0.0
 11
119.59999999999999
 21
69.000000000000938
 31
0.0
  0
LINE
  5
33B3
  8
0
 10
105.5000000000001
 20
100.5000000000009
 30
0.0
 11
105.5
 21
69.000000000000966
 31
0.0
  0
ARC
  5
34A9
  8
0
 10
50.0
 20
142.05000000000089
 30
0.0
 40
7.0499999999999989
 50
231.76770559408939
 51
308.23229440591041
  0
ARC
  5
34AA
  8
0
 10
50.0
 20
142.05000000000089
 30
0.0
 40
7.0499999999999989
 50
51.7677055940893
 51
128.23229440591069
  0
ARC
  5
34AB
  8
0
 10
44.70882189458888
 20
135.333904835635
 30
0.0
 40
1.5
 50
51.767705594090053
 51
86.391580273524823
  0
ARC
  5
34AC
  8
0
 10
55.29117810541112
 20
135.333904835635
 30
0.0
 40
1.5
 50
93.608419726474764
 51
128.23229440591081
  0
ARC
  5
34AD
  8
0
 10
55.291178105411163
 20
148.76609516436679
 30
0.0
 40
1.5
 50
231.7677055940888
 51
266.39158027352522
  0
ARC
  5
34AF
  8
0
 10
44.70882189458883
 20
148.76609516436679
 30
0.0
 40
1.5
 50
273.60841972647478
 51
308.23229440591109
  0
ARC
  5
3511
  8
0
 10
45.836110210726709
 20
100.48639039698639
 30
0.0
 40
1.032972345589376
 50
101.1080032871142
 51
179.24449688501869
  0
LINE
  5
3513
  8
0
 10
44.803227705455591
 20
100.50029232817521
 30
0.0
 11
44.803227705455619
 21
93.000000000000938
 31
0.0
  0
LINE
  5
3514
  8
0
 10
44.803227705455619
 20
93.000000000000938
 30
0.0
 11
25.500000000000028
 21
93.000000000000966
 31
0.0
  0
ARC
  5
3515
  8
0
 10
38.061929458672722
 20
93.072044767418006
 30
0.0
 40
6.7416832097474311
 50
337.5725213127086
 51
359.38769895411218
  0
ENDSEC
  0
EOF
