  0
SECTION
  2
HEADER
  9
$ACADVER
  1
AC1009
  9
$INSBASE
 10
0.0
 20
0.0
 30
0.0
  9
$EXTMIN
 10
0.0
 20
-2.960436562073669
 30
0.0
  9
$EXTMAX
 10
119.59999999999999
 20
179.1000000000009
 30
0.0
  9
$LIMMIN
 10
0.0
 20
0.0
  9
$LIMMAX
 10
12.0
 20
9.0
  9
$ORTHOMODE
 70
     1
  9
$REGENMODE
 70
     1
  9
$FILLMODE
 70
     1
  9
$QTEXTMODE
 70
     0
  9
$MIRRTEXT
 70
     0
  9
$DRAGMODE
 70
     2
  9
$LTSCALE
 40
10.0
  9
$OSMODE
 70
    37
  9
$ATTMODE
 70
     1
  9
$TEXTSIZE
 40
0.2
  9
$TRACEWID
 40
0.05
  9
$TEXTSTYLE
  7
STANDARD
  9
$CLAYER
  8
0
  9
$CELTYPE
  6
BYLAYER
  9
$CECOLOR
 62
   256
  9
$DIMSCALE
 40
1.0
  9
$DIMASZ
 40
0.18
  9
$DIMEXO
 40
0.0625
  9
$DIMDLI
 40
0.38
  9
$DIMRND
 40
0.0
  9
$DIMDLE
 40
0.0
  9
$DIMEXE
 40
0.18
  9
$DIMTP
 40
0.0
  9
$DIMTM
 40
0.0
  9
$DIMTXT
 40
0.18
  9
$DIMCEN
 40
0.09
  9
$DIMTSZ
 40
0.0
  9
$DIMTOL
 70
     0
  9
$DIMLIM
 70
     0
  9
$DIMTIH
 70
     1
  9
$DIMTOH
 70
     1
  9
$DIMSE1
 70
     0
  9
$DIMSE2
 70
     0
  9
$DIMTAD
 70
     0
  9
$DIMZIN
 70
     0
  9
$DIMBLK
  1

  9
$DIMASO
 70
     1
  9
$DIMSHO
 70
     1
  9
$DIMPOST
  1

  9
$DIMAPOST
  1

  9
$DIMALT
 70
     0
  9
$DIMALTD
 70
     2
  9
$DIMALTF
 40
25.399999999999999
  9
$DIMLFAC
 40
1.0
  9
$DIMTOFL
 70
     0
  9
$DIMTVP
 40
0.0
  9
$DIMTIX
 70
     0
  9
$DIMSOXD
 70
     0
  9
$DIMSAH
 70
     0
  9
$DIMBLK1
  1

  9
$DIMBLK2
  1

  9
$DIMSTYLE
  2
STANDARD
  9
$DIMCLRD
 70
     0
  9
$DIMCLRE
 70
     0
  9
$DIMCLRT
 70
     0
  9
$DIMTFAC
 40
1.0
  9
$DIMGAP
 40
0.09
  9
$LUNITS
 70
     2
  9
$LUPREC
 70
     4
  9
$SKETCHINC
 40
0.1
  9
$FILLETRAD
 40
1.5
  9
$AUNITS
 70
     0
  9
$AUPREC
 70
     0
  9
$MENU
  1
.
  9
$ELEVATION
 40
0.0
  9
$PELEVATION
 40
0.0
  9
$THICKNESS
 40
0.0
  9
$LIMCHECK
 70
     0
  9
$BLIPMODE
 70
     0
  9
$CHAMFERA
 40
0.0
  9
$CHAMFERB
 40
0.0
  9
$SKPOLY
 70
     0
  9
$TDCREATE
 40
2453083.4120647679
  9
$TDUPDATE
 40
2457497.6471790741
  9
$TDINDWG
 40
0.4562771759
  9
$TDUSRTIMER
 40
0.4562770602
  9
$USRTIMER
 70
     1
  9
$ANGBASE
 50
0.0
  9
$ANGDIR
 70
     0
  9
$PDMODE
 70
     0
  9
$PDSIZE
 40
0.0
  9
$PLINEWID
 40
0.0
  9
$COORDS
 70
     1
  9
$SPLFRAME
 70
     0
  9
$SPLINETYPE
 70
     6
  9
$SPLINESEGS
 70
     8
  9
$ATTDIA
 70
     0
  9
$ATTREQ
 70
     1
  9
$HANDLING
 70
     1
  9
$HANDSEED
  5
3A95
  9
$SURFTAB1
 70
     6
  9
$SURFTAB2
 70
     6
  9
$SURFTYPE
 70
     6
  9
$SURFU
 70
     6
  9
$SURFV
 70
     6
  9
$UCSNAME
  2

  9
$UCSORG
 10
0.0
 20
0.0
 30
0.0
  9
$UCSXDIR
 10
1.0
 20
0.0
 30
0.0
  9
$UCSYDIR
 10
0.0
 20
1.0
 30
0.0
  9
$PUCSNAME
  2

  9
$PUCSORG
 10
0.0
 20
0.0
 30
0.0
  9
$PUCSXDIR
 10
1.0
 20
0.0
 30
0.0
  9
$PUCSYDIR
 10
0.0
 20
1.0
 30
0.0
  9
$USERI1
 70
     0
  9
$USERI2
 70
     1
  9
$USERI3
 70
     0
  9
$USERI4
 70
     0
  9
$USERI5
 70
     0
  9
$USERR1
 40
0.0
  9
$USERR2
 40
0.0
  9
$USERR3
 40
0.0
  9
$USERR4
 40
0.0
  9
$USERR5
 40
0.0
  9
$WORLDVIEW
 70
     1
  9
$SHADEDGE
 70
     3
  9
$SHADEDIF
 70
    70
  9
$TILEMODE
 70
     1
  9
$MAXACTVP
 70
    64
  9
$PLIMCHECK
 70
     0
  9
$PEXTMIN
 10
0.0
 20
0.0
 30
0.0
  9
$PEXTMAX
 10
0.0
 20
0.0
 30
0.0
  9
$PLIMMIN
 10
0.0
 20
0.0
  9
$PLIMMAX
 10
12.0
 20
9.0
  9
$UNITMODE
 70
     0
  9
$VISRETAIN
 70
     1
  9
$PLINEGEN
 70
     0
  9
$PSLTSCALE
 70
     1
  0
ENDSEC
  0
SECTION
  2
TABLES
  0
TABLE
  2
VPORT
 70
     1
  0
VPORT
  2
*ACTIVE
 70
     0
 10
0.0
 20
0.0
 11
1.0
 21
1.0
 12
152.5942420244061
 22
88.071025140997719
 13
0.0
 23
0.0
 14
0.5
 24
0.5
 15
0.5
 25
0.5
 16
0.0
 26
0.0
 36
1.0
 17
0.0
 27
0.0
 37
0.0
 40
183.67132631407731
 41
2.6019575856443709
 42
50.0
 43
0.0
 44
0.0
 50
0.0
 51
0.0
 71
     0
 72
  1000
 73
     1
 74
     2
 75
     0
 76
     0
 77
     0
 78
     0
  0
ENDTAB
  0
TABLE
  2
LTYPE
 70
     3
  0
LTYPE
  2
CONTINUOUS
 70
     0
  3
Solid Line
 72
    65
 73
     0
 40
0.0
  0
LTYPE
  2
CENTER
 70
     0
  3
____ _ ____ _ ____ _ ____ _ ____ _ ____ _ ____
 72
    65
 73
     4
 40
2.0
 49
1.25
 49
-0.25
 49
0.25
 49
-0.25
  0
LTYPE
  2
PHANTOM2
 70
     0
  3
___ _ _ ___ _ _ ___ _ _ ___ _ _
 72
    65
 73
     6
 40
1.25
 49
0.625
 49
-0.125
 49
0.125
 49
-0.125
 49
0.125
 49
-0.125
  0
ENDTAB
  0
TABLE
  2
LAYER
 70
     2
  0
LAYER
  2
0
 70
     0
 62
     7
  6
CONTINUOUS
  0
LAYER
  2
1
 70
     0
 62
     1
  6
CENTER
  0
ENDTAB
  0
TABLE
  2
STYLE
 70
     2
  0
STYLE
  2
STANDARD
 70
     0
 40
0.0
 41
1.0
 50
0.0
 71
     0
 42
0.2
  3
simplex.shx
  4
bigfont.shx
  0
STYLE
  2
STANDARD1
 70
     0
 40
0.0
 41
1.0
 50
0.0
 71
     0
 42
3.0
  3
txt
  4

  0
ENDTAB
  0
TABLE
  2
VIEW
 70
     0
  0
ENDTAB
  0
TABLE
  2
UCS
 70
     0
  0
ENDTAB
  0
TABLE
  2
APPID
 70
     5
  0
APPID
  2
ACAD
 70
     0
  0
APPID
  2
DCO15
 70
     0
  0
APPID
  2
ACAD_MLEADERVER
 70
     0
  0
APPID
  2
ACAD_NAV_VCDISPLAY
 70
     0
  0
APPID
  2
ACAD_EXEMPT_FROM_CAD_STANDARDS
 70
     0
  0
ENDTAB
  0
TABLE
  2
DIMSTYLE
 70
     1
  0
DIMSTYLE
  2
STANDARD
 70
     0
  3

  4

  5

  6

  7

 40
1.0
 41
0.18
 42
0.0625
 43
0.38
 44
0.18
 45
0.0
 46
0.0
 47
0.0
 48
0.0
140
0.18
141
0.09
142
0.0
143
25.399999999999999
144
1.0
145
0.0
146
1.0
147
0.09
 71
     0
 72
     0
 73
     1
 74
     1
 75
     0
 76
     0
 77
     0
 78
     0
170
     0
171
     2
172
     0
173
     0
174
     0
175
     0
176
     0
177
     0
178
     0
  0
ENDTAB
  0
ENDSEC
  0
SECTION
  2
BLOCKS
  0
BLOCK
  8
0
  2
$MODEL_SPACE
 70
     0
 10
0.0
 20
0.0
 30
0.0
  3
$MODEL_SPACE
  1

  0
ENDBLK
  5
21
  8
0
  0
BLOCK
 67
     1
  8
0
  2
$PAPER_SPACE
 70
     0
 10
0.0
 20
0.0
 30
0.0
  3
$PAPER_SPACE
  1

  0
ENDBLK
  5
5B
 67
     1
  8
0
  0
ENDSEC
  0
SECTION
  2
ENTITIES
  0
LINE
  5
2C97
  8
0
 10
117.1071858360767
 20
115.50000000000099
 30
0.0
 11
107.9928141639234
 21
115.50000000000099
 31
0.0
  0
LINE
  5
2D55
  8
0
 10
109.52265745301619
 20
123.8795191834506
 30
0.0
 11
114.9901781757428
 21
123.8795191834506
 31
0.0
  0
LINE
  5
2D5D
  8
0
 10
115.5773425469839
 20
118.00000000000099
 30
0.0
 11
109.52265745301619
 21
118.00000000000099
 31
0.0
  0
LINE
  5
2E2E
  8
0
 10
25.905594228764269
 20
171.0773425469848
 30
0.0
 11
44.803227665824551
 21
172.26906892867231
 31
0.0
  0
LINE
  5
2F3C
  8
0
 10
25.636345484052779
 20
118.0000000000009
 30
0.0
 11
25.73954075502439
 21
118.0000000000009
 31
0.0
  0
LINE
  5
2F42
  8
0
 10
53.350000000000051
 20
130.00000000000091
 30
0.0
 11
46.649999999999999
 21
130.00000000000091
 31
0.0
  0
LINE
  5
2F45
  8
0
 10
25.73954075502439
 20
118.0000000000009
 30
0.0
 11
25.993244076001591
 21
118.0000000000009
 31
0.0
  0
ARC
  5
2F4E
  8
0
 10
50.063772361107361
 20
18.815312845004801
 30
0.0
 40
107.9500000000002
 50
94.017856613247105
 51
103.27795552508771
  0
LINE
  5
2F52
  8
0
 10
45.699999999999953
 20
35.0
 30
0.0
 11
54.300000000000061
 21
35.0
 31
0.0
  0
LINE
  5
2F73
  8
0
 10
57.050000000000011
 20
94.000000000000938
 30
0.0
 11
42.95000000000001
 21
94.000000000000966
 31
0.0
  0
LINE
  5
2F75
  8
0
 10
57.050000000000011
 20
95.651000000000963
 30
0.0
 11
42.950000000000003
 21
95.651000000000977
 31
0.0
  0
LINE
  5
2F86
  8
0
 10
46.150000000000013
 20
129.50000000000091
 30
0.0
 11
46.150000000000013
 21
126.5000000000009
 31
0.0
  0
LINE
  5
2F98
  8
1
 10
50.0
 20
135.00000000000091
 30
0.0
 11
50.0
 21
30.0
 31
0.0
  0
LINE
  5
2F99
  8
0
 10
45.0
 20
94.000000000000966
 30
0.0
 11
45.0
 21
44.000000000000973
 31
0.0
  0
LINE
  5
2F9A
  8
0
 10
45.000000000000021
 20
36.999999999999993
 30
0.0
 11
55.000000000000028
 21
36.999999999999972
 31
0.0
  0
LINE
  5
2F9E
  8
0
 10
45.0
 20
36.999999999999972
 30
0.0
 11
45.699999999999953
 21
35.0
 31
0.0
  0
ARC
  5
2F9F
  8
0
 10
45.850000000000051
 20
42.413336834738743
 30
0.0
 40
1.8
 50
118.1786427405318
 51
241.82135725946819
  0
LINE
  5
2FA1
  8
0
 10
45.0
 20
40.826673669476527
 30
0.0
 11
45.0
 21
36.999999999999972
 31
0.0
  0
ARC
  5
2FAA
  8
0
 10
40.976005724462681
 20
42.413336834738743
 30
0.0
 40
4.3255092104348867
 50
338.48065491511858
 51
21.519345084881369
  0
ARC
  5
2FAF
  8
0
 10
59.023994275537348
 20
42.413336834738743
 30
0.0
 40
4.3255092104348867
 50
158.48065491511861
 51
201.51934508488131
  0
LINE
  5
2FB0
  8
0
 10
55.000000000000028
 20
40.826673669476527
 30
0.0
 11
55.000000000000028
 21
36.999999999999972
 31
0.0
  0
ARC
  5
2FB1
  8
0
 10
54.149999999999977
 20
42.413336834738743
 30
0.0
 40
1.8
 50
298.17864274053181
 51
61.821357259468208
  0
LINE
  5
2FB2
  8
0
 10
55.000000000000028
 20
94.000000000000966
 30
0.0
 11
55.000000000000028
 21
44.000000000000973
 31
0.0
  0
LINE
  5
2FB3
  8
0
 10
55.000000000000028
 20
36.999999999999972
 30
0.0
 11
54.300000000000061
 21
35.0
 31
0.0
  0
ARC
  5
2FB9
  8
0
 10
39.602580934974519
 20
114.54054550327091
 30
0.0
 40
3.4822072494599841
 50
15.99363427488337
 51
83.446639587204118
  0
LINE
  5
2FBB
  8
0
 10
42.949999999999989
 20
115.50000000000099
 30
0.0
 11
44.293693110721158
 21
115.50000000000099
 31
0.0
  0
POLYLINE
  5
2FBF
  8
0
 10
44.293693110721158
 20
115.5000000000009
 30
0.0
 66
     1
 70
     8
  0
VERTEX
  8
0
  5
3789
 10
44.2937
 20
115.500
 30
0.000000
  70
    32
  0
VERTEX
  8
0
  5
378A
 10
44.2934
 20
115.531
 30
0.000000
  70
    32
  0
VERTEX
  8
0
  5
378B
 10
44.2926
 20
115.561
 30
0.000000
  70
    32
  0
VERTEX
  8
0
  5
378C
 10
44.2913
 20
115.592
 30
0.000000
  70
    32
  0
VERTEX
  8
0
  5
378D
 10
44.2895
 20
115.623
 30
0.000000
  70
    32
  0
VERTEX
  8
0
  5
378E
 10
44.2871
 20
115.653
 30
0.000000
  70
    32
  0
VERTEX
  8
0
  5
378F
 10
44.2842
 20
115.684
 30
0.000000
  70
    32
  0
VERTEX
  8
0
  5
3790
 10
44.2808
 20
115.714
 30
0.000000
  70
    32
  0
VERTEX
  8
0
  5
3791
 10
44.2768
 20
115.745
 30
0.000000
  70
    32
  0
VERTEX
  8
0
  5
3792
 10
44.2724
 20
115.776
 30
0.000000
  70
    32
  0
VERTEX
  8
0
  5
3793
 10
44.2674
 20
115.806
 30
0.000000
  70
    32
  0
VERTEX
  8
0
  5
3794
 10
44.2619
 20
115.836
 30
0.000000
  70
    32
  0
VERTEX
  8
0
  5
3795
 10
44.2558
 20
115.867
 30
0.000000
  70
    32
  0
VERTEX
  8
0
  5
3796
 10
44.2492
 20
115.897
 30
0.000000
  70
    32
  0
VERTEX
  8
0
  5
3797
 10
44.2422
 20
115.927
 30
0.000000
  70
    32
  0
VERTEX
  8
0
  5
3798
 10
44.2346
 20
115.958
 30
0.000000
  70
    32
  0
VERTEX
  8
0
  5
3799
 10
44.2264
 20
115.988
 30
0.000000
  70
    32
  0
VERTEX
  8
0
  5
379A
 10
44.2178
 20
116.018
 30
0.000000
  70
    32
  0
VERTEX
  8
0
  5
379B
 10
44.2087
 20
116.048
 30
0.000000
  70
    32
  0
VERTEX
  8
0
  5
379C
 10
44.1990
 20
116.078
 30
0.000000
  70
    32
  0
VERTEX
  8
0
  5
379D
 10
44.1888
 20
116.107
 30
0.000000
  70
    32
  0
VERTEX
  8
0
  5
379E
 10
44.1781
 20
116.137
 30
0.000000
  70
    32
  0
VERTEX
  8
0
  5
379F
 10
44.1669
 20
116.167
 30
0.000000
  70
    32
  0
VERTEX
  8
0
  5
37A0
 10
44.1552
 20
116.196
 30
0.000000
  70
    32
  0
VERTEX
  8
0
  5
37A1
 10
44.1430
 20
116.226
 30
0.000000
  70
    32
  0
VERTEX
  8
0
  5
37A2
 10
44.1303
 20
116.255
 30
0.000000
  70
    32
  0
VERTEX
  8
0
  5
37A3
 10
44.1170
 20
116.284
 30
0.000000
  70
    32
  0
VERTEX
  8
0
  5
37A4
 10
44.1033
 20
116.313
 30
0.000000
  70
    32
  0
VERTEX
  8
0
  5
37A5
 10
44.0891
 20
116.342
 30
0.000000
  70
    32
  0
VERTEX
  8
0
  5
37A6
 10
44.0744
 20
116.371
 30
0.000000
  70
    32
  0
VERTEX
  8
0
  5
37A7
 10
44.0592
 20
116.400
 30
0.000000
  70
    32
  0
VERTEX
  8
0
  5
37A8
 10
44.0435
 20
116.428
 30
0.000000
  70
    32
  0
VERTEX
  8
0
  5
37A9
 10
44.0273
 20
116.457
 30
0.000000
  70
    32
  0
VERTEX
  8
0
  5
37AA
 10
44.0106
 20
116.485
 30
0.000000
  70
    32
  0
VERTEX
  8
0
  5
37AB
 10
43.9934
 20
116.513
 30
0.000000
  70
    32
  0
VERTEX
  8
0
  5
37AC
 10
43.9758
 20
116.541
 30
0.000000
  70
    32
  0
VERTEX
  8
0
  5
37AD
 10
43.9577
 20
116.569
 30
0.000000
  70
    32
  0
VERTEX
  8
0
  5
37AE
 10
43.9391
 20
116.597
 30
0.000000
  70
    32
  0
VERTEX
  8
0
  5
37AF
 10
43.9200
 20
116.624
 30
0.000000
  70
    32
  0
VERTEX
  8
0
  5
37B0
 10
43.9004
 20
116.651
 30
0.000000
  70
    32
  0
VERTEX
  8
0
  5
37B1
 10
43.8804
 20
116.678
 30
0.000000
  70
    32
  0
VERTEX
  8
0
  5
37B2
 10
43.8599
 20
116.705
 30
0.000000
  70
    32
  0
VERTEX
  8
0
  5
37B3
 10
43.8390
 20
116.732
 30
0.000000
  70
    32
  0
VERTEX
  8
0
  5
37B4
 10
43.8176
 20
116.759
 30
0.000000
  70
    32
  0
VERTEX
  8
0
  5
37B5
 10
43.7957
 20
116.785
 30
0.000000
  70
    32
  0
VERTEX
  8
0
  5
37B6
 10
43.7734
 20
116.811
 30
0.000000
  70
    32
  0
VERTEX
  8
0
  5
37B7
 10
43.7507
 20
116.837
 30
0.000000
  70
    32
  0
VERTEX
  8
0
  5
37B8
 10
43.7275
 20
116.863
 30
0.000000
  70
    32
  0
VERTEX
  8
0
  5
37B9
 10
43.7038
 20
116.889
 30
0.000000
  70
    32
  0
VERTEX
  8
0
  5
37BA
 10
43.6798
 20
116.914
 30
0.000000
  70
    32
  0
VERTEX
  8
0
  5
37BB
 10
43.6552
 20
116.940
 30
0.000000
  70
    32
  0
VERTEX
  8
0
  5
37BC
 10
43.6303
 20
116.964
 30
0.000000
  70
    32
  0
VERTEX
  8
0
  5
37BD
 10
43.6049
 20
116.989
 30
0.000000
  70
    32
  0
VERTEX
  8
0
  5
37BE
 10
43.5791
 20
117.014
 30
0.000000
  70
    32
  0
VERTEX
  8
0
  5
37BF
 10
43.5529
 20
117.038
 30
0.000000
  70
    32
  0
VERTEX
  8
0
  5
37C0
 10
43.5263
 20
117.062
 30
0.000000
  70
    32
  0
VERTEX
  8
0
  5
37C1
 10
43.4992
 20
117.086
 30
0.000000
  70
    32
  0
VERTEX
  8
0
  5
37C2
 10
43.4718
 20
117.110
 30
0.000000
  70
    32
  0
VERTEX
  8
0
  5
37C3
 10
43.4439
 20
117.133
 30
0.000000
  70
    32
  0
VERTEX
  8
0
  5
37C4
 10
43.4157
 20
117.156
 30
0.000000
  70
    32
  0
VERTEX
  8
0
  5
37C5
 10
43.3870
 20
117.179
 30
0.000000
  70
    32
  0
VERTEX
  8
0
  5
37C6
 10
43.3580
 20
117.202
 30
0.000000
  70
    32
  0
VERTEX
  8
0
  5
37C7
 10
43.3286
 20
117.224
 30
0.000000
  70
    32
  0
VERTEX
  8
0
  5
37C8
 10
43.2988
 20
117.246
 30
0.000000
  70
    32
  0
VERTEX
  8
0
  5
37C9
 10
43.2686
 20
117.268
 30
0.000000
  70
    32
  0
VERTEX
  8
0
  5
37CA
 10
43.2380
 20
117.289
 30
0.000000
  70
    32
  0
VERTEX
  8
0
  5
37CB
 10
43.2071
 20
117.311
 30
0.000000
  70
    32
  0
VERTEX
  8
0
  5
37CC
 10
43.1758
 20
117.332
 30
0.000000
  70
    32
  0
VERTEX
  8
0
  5
37CD
 10
43.1441
 20
117.352
 30
0.000000
  70
    32
  0
VERTEX
  8
0
  5
37CE
 10
43.1121
 20
117.373
 30
0.000000
  70
    32
  0
VERTEX
  8
0
  5
37CF
 10
43.0798
 20
117.393
 30
0.000000
  70
    32
  0
VERTEX
  8
0
  5
37D0
 10
43.0471
 20
117.413
 30
0.000000
  70
    32
  0
VERTEX
  8
0
  5
37D1
 10
43.0141
 20
117.433
 30
0.000000
  70
    32
  0
VERTEX
  8
0
  5
37D2
 10
42.9807
 20
117.452
 30
0.000000
  70
    32
  0
VERTEX
  8
0
  5
37D3
 10
42.9470
 20
117.471
 30
0.000000
  70
    32
  0
VERTEX
  8
0
  5
37D4
 10
42.9130
 20
117.490
 30
0.000000
  70
    32
  0
VERTEX
  8
0
  5
37D5
 10
42.8786
 20
117.508
 30
0.000000
  70
    32
  0
VERTEX
  8
0
  5
37D6
 10
42.8440
 20
117.526
 30
0.000000
  70
    32
  0
VERTEX
  8
0
  5
37D7
 10
42.8090
 20
117.544
 30
0.000000
  70
    32
  0
VERTEX
  8
0
  5
37D8
 10
42.7738
 20
117.561
 30
0.000000
  70
    32
  0
VERTEX
  8
0
  5
37D9
 10
42.7382
 20
117.579
 30
0.000000
  70
    32
  0
VERTEX
  8
0
  5
37DA
 10
42.7023
 20
117.596
 30
0.000000
  70
    32
  0
VERTEX
  8
0
  5
37DB
 10
42.6662
 20
117.612
 30
0.000000
  70
    32
  0
VERTEX
  8
0
  5
37DC
 10
42.6298
 20
117.628
 30
0.000000
  70
    32
  0
VERTEX
  8
0
  5
37DD
 10
42.5931
 20
117.644
 30
0.000000
  70
    32
  0
VERTEX
  8
0
  5
37DE
 10
42.5561
 20
117.660
 30
0.000000
  70
    32
  0
VERTEX
  8
0
  5
37DF
 10
42.5188
 20
117.675
 30
0.000000
  70
    32
  0
VERTEX
  8
0
  5
37E0
 10
42.4813
 20
117.690
 30
0.000000
  70
    32
  0
VERTEX
  8
0
  5
37E1
 10
42.4436
 20
117.705
 30
0.000000
  70
    32
  0
VERTEX
  8
0
  5
37E2
 10
42.4056
 20
117.719
 30
0.000000
  70
    32
  0
VERTEX
  8
0
  5
37E3
 10
42.3673
 20
117.733
 30
0.000000
  70
    32
  0
VERTEX
  8
0
  5
37E4
 10
42.3288
 20
117.747
 30
0.000000
  70
    32
  0
VERTEX
  8
0
  5
37E5
 10
42.2901
 20
117.760
 30
0.000000
  70
    32
  0
VERTEX
  8
0
  5
37E6
 10
42.2512
 20
117.773
 30
0.000000
  70
    32
  0
VERTEX
  8
0
  5
37E7
 10
42.2120
 20
117.786
 30
0.000000
  70
    32
  0
VERTEX
  8
0
  5
37E8
 10
42.1727
 20
117.798
 30
0.000000
  70
    32
  0
VERTEX
  8
0
  5
37E9
 10
42.1331
 20
117.810
 30
0.000000
  70
    32
  0
VERTEX
  8
0
  5
37EA
 10
42.0933
 20
117.821
 30
0.000000
  70
    32
  0
VERTEX
  8
0
  5
37EB
 10
42.0533
 20
117.832
 30
0.000000
  70
    32
  0
VERTEX
  8
0
  5
37EC
 10
42.0132
 20
117.843
 30
0.000000
  70
    32
  0
VERTEX
  8
0
  5
37ED
 10
41.9728
 20
117.854
 30
0.000000
  70
    32
  0
VERTEX
  8
0
  5
37EE
 10
41.9323
 20
117.864
 30
0.000000
  70
    32
  0
VERTEX
  8
0
  5
37EF
 10
41.8916
 20
117.874
 30
0.000000
  70
    32
  0
VERTEX
  8
0
  5
37F0
 10
41.8507
 20
117.883
 30
0.000000
  70
    32
  0
VERTEX
  8
0
  5
37F1
 10
41.8097
 20
117.892
 30
0.000000
  70
    32
  0
VERTEX
  8
0
  5
37F2
 10
41.7685
 20
117.901
 30
0.000000
  70
    32
  0
VERTEX
  8
0
  5
37F3
 10
41.7272
 20
117.909
 30
0.000000
  70
    32
  0
VERTEX
  8
0
  5
37F4
 10
41.6857
 20
117.917
 30
0.000000
  70
    32
  0
VERTEX
  8
0
  5
37F5
 10
41.6441
 20
117.925
 30
0.000000
  70
    32
  0
VERTEX
  8
0
  5
37F6
 10
41.6024
 20
117.932
 30
0.000000
  70
    32
  0
VERTEX
  8
0
  5
37F7
 10
41.5605
 20
117.939
 30
0.000000
  70
    32
  0
VERTEX
  8
0
  5
37F8
 10
41.5186
 20
117.946
 30
0.000000
  70
    32
  0
VERTEX
  8
0
  5
37F9
 10
41.4765
 20
117.952
 30
0.000000
  70
    32
  0
VERTEX
  8
0
  5
37FA
 10
41.4343
 20
117.958
 30
0.000000
  70
    32
  0
VERTEX
  8
0
  5
37FB
 10
41.3921
 20
117.963
 30
0.000000
  70
    32
  0
VERTEX
  8
0
  5
37FC
 10
41.3497
 20
117.968
 30
0.000000
  70
    32
  0
VERTEX
  8
0
  5
37FD
 10
41.3072
 20
117.973
 30
0.000000
  70
    32
  0
VERTEX
  8
0
  5
37FE
 10
41.2647
 20
117.977
 30
0.000000
  70
    32
  0
VERTEX
  8
0
  5
37FF
 10
41.2221
 20
117.981
 30
0.000000
  70
    32
  0
VERTEX
  8
0
  5
3800
 10
41.1795
 20
117.985
 30
0.000000
  70
    32
  0
VERTEX
  8
0
  5
3801
 10
41.1368
 20
117.988
 30
0.000000
  70
    32
  0
VERTEX
  8
0
  5
3802
 10
41.0940
 20
117.991
 30
0.000000
  70
    32
  0
VERTEX
  8
0
  5
3803
 10
41.0512
 20
117.993
 30
0.000000
  70
    32
  0
VERTEX
  8
0
  5
3804
 10
41.0083
 20
117.995
 30
0.000000
  70
    32
  0
VERTEX
  8
0
  5
3805
 10
40.9654
 20
117.997
 30
0.000000
  70
    32
  0
VERTEX
  8
0
  5
3806
 10
40.9225
 20
117.998
 30
0.000000
  70
    32
  0
VERTEX
  8
0
  5
3807
 10
40.8796
 20
117.999
 30
0.000000
  70
    32
  0
VERTEX
  8
0
  5
3808
 10
40.8366
 20
118.000
 30
0.000000
  70
    32
  0
VERTEX
  8
0
  5
3809
 10
40.7937
 20
118.000
 30
0.000000
  70
    32
  0
SEQEND
  8
0
  5
380A
  0
LINE
  5
2FCD
  8
0
 10
42.5
 20
126.5000000000009
 30
0.0
 11
57.500000000000107
 21
126.5000000000009
 31
0.0
  0
ARC
  5
2FCF
  8
0
 10
46.649999999999999
 20
129.50000000000091
 30
0.0
 40
0.5
 50
90.0
 51
180.0
  0
LINE
  5
2FD1
  8
0
 10
46.150000000000013
 20
129.50000000000091
 30
0.0
 11
53.850000000000051
 21
129.5000000000008
 31
0.0
  0
ARC
  5
2FD3
  8
0
 10
53.350000000000051
 20
129.50000000000091
 30
0.0
 40
0.5
 50
0.0
 51
90.0
  0
LINE
  5
2FD4
  8
0
 10
53.850000000000051
 20
129.50000000000091
 30
0.0
 11
53.850000000000051
 21
126.5000000000009
 31
0.0
  0
LINE
  5
2FD9
  8
0
 10
24.5
 20
122.906251871376
 30
0.0
 11
24.5
 21
119.0000000000009
 31
0.0
  0
ARC
  5
2FDA
  8
0
 10
25.5
 20
122.906251871376
 30
0.0
 40
1.0
 50
103.27795552508741
 51
180.00000000000071
  0
ARC
  5
2FDB
  8
0
 10
25.5
 20
119.0000000000009
 30
0.0
 40
1.0
 50
180.0
 51
269.99999999999989
  0
ARC
  5
2FDC
  8
0
 10
74.499999999999972
 20
119.0000000000009
 30
0.0
 40
1.0
 50
270.00000000000011
 51
0.0
  0
ARC
  5
2FDD
  8
0
 10
74.499999999999972
 20
122.906251871376
 30
0.0
 40
1.0
 50
359.9999999999992
 51
76.722044474912622
  0
LINE
  5
2FDE
  8
0
 10
75.499999999999972
 20
122.906251871376
 30
0.0
 11
75.499999999999972
 21
119.0000000000009
 31
0.0
  0
ARC
  5
2FDF
  8
0
 10
54.163889789273277
 20
125.48639039698639
 30
0.0
 40
1.032972345589376
 50
0.7555031149812085
 51
78.891996712885643
  0
ARC
  5
2FE0
  8
0
 10
61.938070541327278
 20
118.07204476741801
 30
0.0
 40
6.7416832097474311
 50
180.6123010458877
 51
202.4274786872914
  0
LINE
  5
2FE1
  8
0
 10
55.196772294544402
 20
125.50029232817521
 30
0.0
 11
55.196772294544367
 21
118.0000000000009
 31
0.0
  0
POLYLINE
  5
2FE2
  8
0
 10
55.706306889278807
 20
115.5000000000009
 30
0.0
 66
     1
 70
     8
  0
VERTEX
  8
0
  5
380B
 10
55.7063
 20
115.500
 30
0.000000
  70
    32
  0
VERTEX
  8
0
  5
380C
 10
55.7066
 20
115.531
 30
0.000000
  70
    32
  0
VERTEX
  8
0
  5
380D
 10
55.7074
 20
115.561
 30
0.000000
  70
    32
  0
VERTEX
  8
0
  5
380E
 10
55.7087
 20
115.592
 30
0.000000
  70
    32
  0
VERTEX
  8
0
  5
380F
 10
55.7105
 20
115.623
 30
0.000000
  70
    32
  0
VERTEX
  8
0
  5
3810
 10
55.7129
 20
115.653
 30
0.000000
  70
    32
  0
VERTEX
  8
0
  5
3811
 10
55.7158
 20
115.684
 30
0.000000
  70
    32
  0
VERTEX
  8
0
  5
3812
 10
55.7192
 20
115.714
 30
0.000000
  70
    32
  0
VERTEX
  8
0
  5
3813
 10
55.7232
 20
115.745
 30
0.000000
  70
    32
  0
VERTEX
  8
0
  5
3814
 10
55.7276
 20
115.776
 30
0.000000
  70
    32
  0
VERTEX
  8
0
  5
3815
 10
55.7326
 20
115.806
 30
0.000000
  70
    32
  0
VERTEX
  8
0
  5
3816
 10
55.7381
 20
115.836
 30
0.000000
  70
    32
  0
VERTEX
  8
0
  5
3817
 10
55.7442
 20
115.867
 30
0.000000
  70
    32
  0
VERTEX
  8
0
  5
3818
 10
55.7508
 20
115.897
 30
0.000000
  70
    32
  0
VERTEX
  8
0
  5
3819
 10
55.7578
 20
115.927
 30
0.000000
  70
    32
  0
VERTEX
  8
0
  5
381A
 10
55.7654
 20
115.958
 30
0.000000
  70
    32
  0
VERTEX
  8
0
  5
381B
 10
55.7736
 20
115.988
 30
0.000000
  70
    32
  0
VERTEX
  8
0
  5
381C
 10
55.7822
 20
116.018
 30
0.000000
  70
    32
  0
VERTEX
  8
0
  5
381D
 10
55.7913
 20
116.048
 30
0.000000
  70
    32
  0
VERTEX
  8
0
  5
381E
 10
55.8010
 20
116.078
 30
0.000000
  70
    32
  0
VERTEX
  8
0
  5
381F
 10
55.8112
 20
116.107
 30
0.000000
  70
    32
  0
VERTEX
  8
0
  5
3820
 10
55.8219
 20
116.137
 30
0.000000
  70
    32
  0
VERTEX
  8
0
  5
3821
 10
55.8331
 20
116.167
 30
0.000000
  70
    32
  0
VERTEX
  8
0
  5
3822
 10
55.8448
 20
116.196
 30
0.000000
  70
    32
  0
VERTEX
  8
0
  5
3823
 10
55.8570
 20
116.226
 30
0.000000
  70
    32
  0
VERTEX
  8
0
  5
3824
 10
55.8697
 20
116.255
 30
0.000000
  70
    32
  0
VERTEX
  8
0
  5
3825
 10
55.8830
 20
116.284
 30
0.000000
  70
    32
  0
VERTEX
  8
0
  5
3826
 10
55.8967
 20
116.313
 30
0.000000
  70
    32
  0
VERTEX
  8
0
  5
3827
 10
55.9109
 20
116.342
 30
0.000000
  70
    32
  0
VERTEX
  8
0
  5
3828
 10
55.9256
 20
116.371
 30
0.000000
  70
    32
  0
VERTEX
  8
0
  5
3829
 10
55.9408
 20
116.400
 30
0.000000
  70
    32
  0
VERTEX
  8
0
  5
382A
 10
55.9565
 20
116.428
 30
0.000000
  70
    32
  0
VERTEX
  8
0
  5
382B
 10
55.9727
 20
116.457
 30
0.000000
  70
    32
  0
VERTEX
  8
0
  5
382C
 10
55.9894
 20
116.485
 30
0.000000
  70
    32
  0
VERTEX
  8
0
  5
382D
 10
56.0066
 20
116.513
 30
0.000000
  70
    32
  0
VERTEX
  8
0
  5
382E
 10
56.0242
 20
116.541
 30
0.000000
  70
    32
  0
VERTEX
  8
0
  5
382F
 10
56.0423
 20
116.569
 30
0.000000
  70
    32
  0
VERTEX
  8
0
  5
3830
 10
56.0609
 20
116.597
 30
0.000000
  70
    32
  0
VERTEX
  8
0
  5
3831
 10
56.0800
 20
116.624
 30
0.000000
  70
    32
  0
VERTEX
  8
0
  5
3832
 10
56.0996
 20
116.651
 30
0.000000
  70
    32
  0
VERTEX
  8
0
  5
3833
 10
56.1196
 20
116.678
 30
0.000000
  70
    32
  0
VERTEX
  8
0
  5
3834
 10
56.1401
 20
116.705
 30
0.000000
  70
    32
  0
VERTEX
  8
0
  5
3835
 10
56.1610
 20
116.732
 30
0.000000
  70
    32
  0
VERTEX
  8
0
  5
3836
 10
56.1824
 20
116.759
 30
0.000000
  70
    32
  0
VERTEX
  8
0
  5
3837
 10
56.2043
 20
116.785
 30
0.000000
  70
    32
  0
VERTEX
  8
0
  5
3838
 10
56.2266
 20
116.811
 30
0.000000
  70
    32
  0
VERTEX
  8
0
  5
3839
 10
56.2493
 20
116.837
 30
0.000000
  70
    32
  0
VERTEX
  8
0
  5
383A
 10
56.2725
 20
116.863
 30
0.000000
  70
    32
  0
VERTEX
  8
0
  5
383B
 10
56.2962
 20
116.889
 30
0.000000
  70
    32
  0
VERTEX
  8
0
  5
383C
 10
56.3202
 20
116.914
 30
0.000000
  70
    32
  0
VERTEX
  8
0
  5
383D
 10
56.3448
 20
116.940
 30
0.000000
  70
    32
  0
VERTEX
  8
0
  5
383E
 10
56.3697
 20
116.964
 30
0.000000
  70
    32
  0
VERTEX
  8
0
  5
383F
 10
56.3951
 20
116.989
 30
0.000000
  70
    32
  0
VERTEX
  8
0
  5
3840
 10
56.4209
 20
117.014
 30
0.000000
  70
    32
  0
VERTEX
  8
0
  5
3841
 10
56.4471
 20
117.038
 30
0.000000
  70
    32
  0
VERTEX
  8
0
  5
3842
 10
56.4737
 20
117.062
 30
0.000000
  70
    32
  0
VERTEX
  8
0
  5
3843
 10
56.5008
 20
117.086
 30
0.000000
  70
    32
  0
VERTEX
  8
0
  5
3844
 10
56.5282
 20
117.110
 30
0.000000
  70
    32
  0
VERTEX
  8
0
  5
3845
 10
56.5561
 20
117.133
 30
0.000000
  70
    32
  0
VERTEX
  8
0
  5
3846
 10
56.5843
 20
117.156
 30
0.000000
  70
    32
  0
VERTEX
  8
0
  5
3847
 10
56.6130
 20
117.179
 30
0.000000
  70
    32
  0
VERTEX
  8
0
  5
3848
 10
56.6420
 20
117.202
 30
0.000000
  70
    32
  0
VERTEX
  8
0
  5
3849
 10
56.6714
 20
117.224
 30
0.000000
  70
    32
  0
VERTEX
  8
0
  5
384A
 10
56.7012
 20
117.246
 30
0.000000
  70
    32
  0
VERTEX
  8
0
  5
384B
 10
56.7314
 20
117.268
 30
0.000000
  70
    32
  0
VERTEX
  8
0
  5
384C
 10
56.7620
 20
117.289
 30
0.000000
  70
    32
  0
VERTEX
  8
0
  5
384D
 10
56.7929
 20
117.311
 30
0.000000
  70
    32
  0
VERTEX
  8
0
  5
384E
 10
56.8242
 20
117.332
 30
0.000000
  70
    32
  0
VERTEX
  8
0
  5
384F
 10
56.8559
 20
117.352
 30
0.000000
  70
    32
  0
VERTEX
  8
0
  5
3850
 10
56.8879
 20
117.373
 30
0.000000
  70
    32
  0
VERTEX
  8
0
  5
3851
 10
56.9202
 20
117.393
 30
0.000000
  70
    32
  0
VERTEX
  8
0
  5
3852
 10
56.9529
 20
117.413
 30
0.000000
  70
    32
  0
VERTEX
  8
0
  5
3853
 10
56.9859
 20
117.433
 30
0.000000
  70
    32
  0
VERTEX
  8
0
  5
3854
 10
57.0193
 20
117.452
 30
0.000000
  70
    32
  0
VERTEX
  8
0
  5
3855
 10
57.0530
 20
117.471
 30
0.000000
  70
    32
  0
VERTEX
  8
0
  5
3856
 10
57.0870
 20
117.490
 30
0.000000
  70
    32
  0
VERTEX
  8
0
  5
3857
 10
57.1214
 20
117.508
 30
0.000000
  70
    32
  0
VERTEX
  8
0
  5
3858
 10
57.1560
 20
117.526
 30
0.000000
  70
    32
  0
VERTEX
  8
0
  5
3859
 10
57.1910
 20
117.544
 30
0.000000
  70
    32
  0
VERTEX
  8
0
  5
385A
 10
57.2262
 20
117.561
 30
0.000000
  70
    32
  0
VERTEX
  8
0
  5
385B
 10
57.2618
 20
117.579
 30
0.000000
  70
    32
  0
VERTEX
  8
0
  5
385C
 10
57.2977
 20
117.596
 30
0.000000
  70
    32
  0
VERTEX
  8
0
  5
385D
 10
57.3338
 20
117.612
 30
0.000000
  70
    32
  0
VERTEX
  8
0
  5
385E
 10
57.3702
 20
117.628
 30
0.000000
  70
    32
  0
VERTEX
  8
0
  5
385F
 10
57.4069
 20
117.644
 30
0.000000
  70
    32
  0
VERTEX
  8
0
  5
3860
 10
57.4439
 20
117.660
 30
0.000000
  70
    32
  0
VERTEX
  8
0
  5
3861
 10
57.4812
 20
117.675
 30
0.000000
  70
    32
  0
VERTEX
  8
0
  5
3862
 10
57.5187
 20
117.690
 30
0.000000
  70
    32
  0
VERTEX
  8
0
  5
3863
 10
57.5564
 20
117.705
 30
0.000000
  70
    32
  0
VERTEX
  8
0
  5
3864
 10
57.5944
 20
117.719
 30
0.000000
  70
    32
  0
VERTEX
  8
0
  5
3865
 10
57.6327
 20
117.733
 30
0.000000
  70
    32
  0
VERTEX
  8
0
  5
3866
 10
57.6712
 20
117.747
 30
0.000000
  70
    32
  0
VERTEX
  8
0
  5
3867
 10
57.7099
 20
117.760
 30
0.000000
  70
    32
  0
VERTEX
  8
0
  5
3868
 10
57.7488
 20
117.773
 30
0.000000
  70
    32
  0
VERTEX
  8
0
  5
3869
 10
57.7880
 20
117.786
 30
0.000000
  70
    32
  0
VERTEX
  8
0
  5
386A
 10
57.8273
 20
117.798
 30
0.000000
  70
    32
  0
VERTEX
  8
0
  5
386B
 10
57.8669
 20
117.810
 30
0.000000
  70
    32
  0
VERTEX
  8
0
  5
386C
 10
57.9067
 20
117.821
 30
0.000000
  70
    32
  0
VERTEX
  8
0
  5
386D
 10
57.9467
 20
117.832
 30
0.000000
  70
    32
  0
VERTEX
  8
0
  5
386E
 10
57.9868
 20
117.843
 30
0.000000
  70
    32
  0
VERTEX
  8
0
  5
386F
 10
58.0272
 20
117.854
 30
0.000000
  70
    32
  0
VERTEX
  8
0
  5
3870
 10
58.0677
 20
117.864
 30
0.000000
  70
    32
  0
VERTEX
  8
0
  5
3871
 10
58.1084
 20
117.874
 30
0.000000
  70
    32
  0
VERTEX
  8
0
  5
3872
 10
58.1493
 20
117.883
 30
0.000000
  70
    32
  0
VERTEX
  8
0
  5
3873
 10
58.1903
 20
117.892
 30
0.000000
  70
    32
  0
VERTEX
  8
0
  5
3874
 10
58.2315
 20
117.901
 30
0.000000
  70
    32
  0
VERTEX
  8
0
  5
3875
 10
58.2728
 20
117.909
 30
0.000000
  70
    32
  0
VERTEX
  8
0
  5
3876
 10
58.3143
 20
117.917
 30
0.000000
  70
    32
  0
VERTEX
  8
0
  5
3877
 10
58.3559
 20
117.925
 30
0.000000
  70
    32
  0
VERTEX
  8
0
  5
3878
 10
58.3976
 20
117.932
 30
0.000000
  70
    32
  0
VERTEX
  8
0
  5
3879
 10
58.4395
 20
117.939
 30
0.000000
  70
    32
  0
VERTEX
  8
0
  5
387A
 10
58.4814
 20
117.946
 30
0.000000
  70
    32
  0
VERTEX
  8
0
  5
387B
 10
58.5235
 20
117.952
 30
0.000000
  70
    32
  0
VERTEX
  8
0
  5
387C
 10
58.5657
 20
117.958
 30
0.000000
  70
    32
  0
VERTEX
  8
0
  5
387D
 10
58.6079
 20
117.963
 30
0.000000
  70
    32
  0
VERTEX
  8
0
  5
387E
 10
58.6503
 20
117.968
 30
0.000000
  70
    32
  0
VERTEX
  8
0
  5
387F
 10
58.6928
 20
117.973
 30
0.000000
  70
    32
  0
VERTEX
  8
0
  5
3880
 10
58.7353
 20
117.977
 30
0.000000
  70
    32
  0
VERTEX
  8
0
  5
3881
 10
58.7779
 20
117.981
 30
0.000000
  70
    32
  0
VERTEX
  8
0
  5
3882
 10
58.8205
 20
117.985
 30
0.000000
  70
    32
  0
VERTEX
  8
0
  5
3883
 10
58.8632
 20
117.988
 30
0.000000
  70
    32
  0
VERTEX
  8
0
  5
3884
 10
58.9060
 20
117.991
 30
0.000000
  70
    32
  0
VERTEX
  8
0
  5
3885
 10
58.9488
 20
117.993
 30
0.000000
  70
    32
  0
VERTEX
  8
0
  5
3886
 10
58.9917
 20
117.995
 30
0.000000
  70
    32
  0
VERTEX
  8
0
  5
3887
 10
59.0346
 20
117.997
 30
0.000000
  70
    32
  0
VERTEX
  8
0
  5
3888
 10
59.0775
 20
117.998
 30
0.000000
  70
    32
  0
VERTEX
  8
0
  5
3889
 10
59.1204
 20
117.999
 30
0.000000
  70
    32
  0
VERTEX
  8
0
  5
388A
 10
59.1634
 20
118.000
 30
0.000000
  70
    32
  0
VERTEX
  8
0
  5
388B
 10
59.2063
 20
118.000
 30
0.000000
  70
    32
  0
SEQEND
  8
0
  5
388C
  0
LINE
  5
2FE3
  8
0
 10
57.050000000000011
 20
115.50000000000099
 30
0.0
 11
55.706306889278807
 21
115.50000000000099
 31
0.0
  0
ARC
  5
2FE4
  8
0
 10
60.39741906502536
 20
114.54054550327101
 30
0.0
 40
3.4822072494598419
 50
96.553360412794675
 51
164.0063657251178
  0
LINE
  5
2FE5
  8
0
 10
55.196772294544367
 20
118.0000000000009
 30
0.0
 11
74.499999999999972
 21
118.0000000000009
 31
0.0
  0
ARC
  5
2FE6
  8
0
 10
49.936227638892603
 20
18.815312845004801
 30
0.0
 40
107.9500000000002
 50
76.722044474912309
 51
85.982143386752895
  0
LINE
  5
2FE7
  8
0
 10
74.260459244975564
 20
118.0000000000009
 30
0.0
 11
74.006755923998384
 21
118.0000000000009
 31
0.0
  0
LINE
  5
2FE8
  8
0
 10
74.363654515947189
 20
118.0000000000009
 30
0.0
 11
74.260459244975564
 21
118.0000000000009
 31
0.0
  0
LINE
  5
2FF2
  8
1
 10
19.499999999999972
 20
167.05000000000089
 30
0.0
 11
80.500000000000057
 21
167.05000000000089
 31
0.0
  0
LINE
  5
2FF3
  8
1
 10
50.0
 20
155.00000000000091
 30
0.0
 11
50.0
 21
179.1000000000009
 31
0.0
  0
LINE
  5
2FF8
  8
0
 10
24.499999999999972
 20
164.5196836887115
 30
0.0
 11
24.499999999999972
 21
169.5803163112904
 31
0.0
  0
ARC
  5
2FFA
  8
0
 10
25.999999999999972
 20
169.5803163112904
 30
0.0
 40
1.5
 50
93.608419726474835
 51
180.0
  0
LINE
  5
3001
  8
0
 10
25.905594228764269
 20
163.0226574530171
 30
0.0
 11
44.803227665824593
 21
161.8309310713295
 31
0.0
  0
ARC
  5
3002
  8
0
 10
25.999999999999972
 20
164.5196836887115
 30
0.0
 40
1.5
 50
180.0
 51
266.39158027352511
  0
ARC
  5
3003
  8
0
 10
74.000000000000028
 20
164.5196836887115
 30
0.0
 40
1.5
 50
273.60841972647489
 51
0.0
  0
LINE
  5
3004
  8
0
 10
74.094405771235714
 20
163.0226574530171
 30
0.0
 11
55.196772334175407
 21
161.8309310713295
 31
0.0
  0
ARC
  5
3007
  8
0
 10
74.000000000000028
 20
169.5803163112904
 30
0.0
 40
1.5
 50
0.0
 51
86.391580273525136
  0
LINE
  5
3008
  8
0
 10
75.500000000000028
 20
164.5196836887115
 30
0.0
 11
75.500000000000028
 21
169.5803163112904
 31
0.0
  0
LINE
  5
3009
  8
0
 10
74.094405771235714
 20
171.0773425469848
 30
0.0
 11
55.196772334175449
 21
172.26906892867231
 31
0.0
  0
CIRCLE
  5
300D
  8
0
 10
50.0
 20
167.05000000000089
 30
0.0
 40
3.3500000000000218
  0
CIRCLE
  5
300E
  8
0
 10
50.0
 20
167.05000000000089
 30
0.0
 40
3.8500000000000218
  0
CIRCLE
  5
3017
  8
0
 10
71.096220012610928
 20
167.05008789337421
 30
0.0
 40
1.95
  0
CIRCLE
  5
3018
  8
0
 10
71.096220012610928
 20
167.05008789337421
 30
0.0
 40
1.75
  0
LINE
  5
3213
  8
0
 10
117.55
 20
36.999999999999993
 30
0.0
 11
116.85000000000009
 21
35.0
 31
0.0
  0
LINE
  5
3214
  8
0
 10
117.55
 20
94.000000000000966
 30
0.0
 11
117.55
 21
36.999999999999922
 31
0.0
  0
LINE
  5
321B
  8
0
 10
107.55
 20
36.999999999999993
 30
0.0
 11
108.25
 21
35.0
 31
0.0
  0
LINE
  5
321C
  8
0
 10
107.5500000000001
 20
37.0
 30
0.0
 11
117.5500000000001
 21
37.0
 31
0.0
  0
LINE
  5
321D
  8
0
 10
107.55
 20
94.000000000000966
 30
0.0
 11
107.55
 21
37.000000000000007
 31
0.0
  0
LINE
  5
321E
  8
1
 10
112.55
 20
135.00000000000091
 30
0.0
 11
112.55
 21
30.0
 31
0.0
  0
LINE
  5
3225
  8
0
 10
119.59999999999999
 20
95.651000000000977
 30
0.0
 11
105.5000000000001
 21
95.651000000000977
 31
0.0
  0
LINE
  5
3226
  8
0
 10
119.59999999999999
 20
94.000000000000966
 30
0.0
 11
105.5
 21
94.000000000000966
 31
0.0
  0
LINE
  5
3227
  8
0
 10
108.25
 20
35.0
 30
0.0
 11
116.85000000000009
 21
35.0
 31
0.0
  0
CIRCLE
  5
322A
  8
0
 10
112.55
 20
42.41333683473875
 30
0.0
 40
1.586663165262223
  0
LINE
  5
322B
  8
0
 10
106.5
 20
126.5000000000009
 30
0.0
 11
118.59999999999999
 21
126.5000000000009
 31
0.0
  0
ARC
  5
322E
  8
0
 10
106.5
 20
125.5000000000009
 30
0.0
 40
1.0
 50
90.0
 51
180.0
  0
ARC
  5
3232
  8
0
 10
118.59999999999999
 20
125.5000000000009
 30
0.0
 40
1.0
 50
0.0000000000003053
 51
89.999999999999915
  0
LINE
  5
3235
  8
0
 10
118.1071858360767
 20
124.5000000000009
 30
0.0
 11
118.1071858360767
 21
117.50000000000099
 31
0.0
  0
LINE
  5
3237
  8
0
 10
112.55
 20
123.8795191834506
 30
0.0
 11
115.5773425469839
 21
123.8795191834506
 31
0.0
  0
ARC
  5
3239
  8
0
 10
115.5773425469839
 20
122.8795191834506
 30
0.0
 40
1.0
 50
0.0
 51
90.0
  0
POLYLINE
  5
323C
  8
0
 10
117.1071858360767
 20
115.50000000000099
 30
0.0
 66
     1
 70
     8
  0
VERTEX
  8
0
  5
388D
 10
117.107
 20
115.500
 30
0.000000
  70
    32
  0
VERTEX
  8
0
  5
388E
 10
117.119
 20
115.500
 30
0.000000
  70
    32
  0
VERTEX
  8
0
  5
388F
 10
117.132
 20
115.501
 30
0.000000
  70
    32
  0
VERTEX
  8
0
  5
3890
 10
117.144
 20
115.501
 30
0.000000
  70
    32
  0
VERTEX
  8
0
  5
3891
 10
117.156
 20
115.502
 30
0.000000
  70
    32
  0
VERTEX
  8
0
  5
3892
 10
117.169
 20
115.504
 30
0.000000
  70
    32
  0
VERTEX
  8
0
  5
3893
 10
117.181
 20
115.505
 30
0.000000
  70
    32
  0
VERTEX
  8
0
  5
3894
 10
117.193
 20
115.507
 30
0.000000
  70
    32
  0
VERTEX
  8
0
  5
3895
 10
117.205
 20
115.510
 30
0.000000
  70
    32
  0
VERTEX
  8
0
  5
3896
 10
117.217
 20
115.512
 30
0.000000
  70
    32
  0
VERTEX
  8
0
  5
3897
 10
117.230
 20
115.515
 30
0.000000
  70
    32
  0
VERTEX
  8
0
  5
3898
 10
117.242
 20
115.518
 30
0.000000
  70
    32
  0
VERTEX
  8
0
  5
3899
 10
117.254
 20
115.522
 30
0.000000
  70
    32
  0
VERTEX
  8
0
  5
389A
 10
117.266
 20
115.525
 30
0.000000
  70
    32
  0
VERTEX
  8
0
  5
389B
 10
117.278
 20
115.529
 30
0.000000
  70
    32
  0
VERTEX
  8
0
  5
389C
 10
117.290
 20
115.534
 30
0.000000
  70
    32
  0
VERTEX
  8
0
  5
389D
 10
117.302
 20
115.538
 30
0.000000
  70
    32
  0
VERTEX
  8
0
  5
389E
 10
117.314
 20
115.543
 30
0.000000
  70
    32
  0
VERTEX
  8
0
  5
389F
 10
117.326
 20
115.549
 30
0.000000
  70
    32
  0
VERTEX
  8
0
  5
38A0
 10
117.338
 20
115.554
 30
0.000000
  70
    32
  0
VERTEX
  8
0
  5
38A1
 10
117.350
 20
115.560
 30
0.000000
  70
    32
  0
VERTEX
  8
0
  5
38A2
 10
117.362
 20
115.566
 30
0.000000
  70
    32
  0
VERTEX
  8
0
  5
38A3
 10
117.374
 20
115.572
 30
0.000000
  70
    32
  0
VERTEX
  8
0
  5
38A4
 10
117.386
 20
115.579
 30
0.000000
  70
    32
  0
VERTEX
  8
0
  5
38A5
 10
117.397
 20
115.586
 30
0.000000
  70
    32
  0
VERTEX
  8
0
  5
38A6
 10
117.409
 20
115.593
 30
0.000000
  70
    32
  0
VERTEX
  8
0
  5
38A7
 10
117.421
 20
115.601
 30
0.000000
  70
    32
  0
VERTEX
  8
0
  5
38A8
 10
117.432
 20
115.609
 30
0.000000
  70
    32
  0
VERTEX
  8
0
  5
38A9
 10
117.444
 20
115.617
 30
0.000000
  70
    32
  0
VERTEX
  8
0
  5
38AA
 10
117.456
 20
115.625
 30
0.000000
  70
    32
  0
VERTEX
  8
0
  5
38AB
 10
117.467
 20
115.634
 30
0.000000
  70
    32
  0
VERTEX
  8
0
  5
38AC
 10
117.479
 20
115.643
 30
0.000000
  70
    32
  0
VERTEX
  8
0
  5
38AD
 10
117.490
 20
115.652
 30
0.000000
  70
    32
  0
VERTEX
  8
0
  5
38AE
 10
117.501
 20
115.662
 30
0.000000
  70
    32
  0
VERTEX
  8
0
  5
38AF
 10
117.512
 20
115.672
 30
0.000000
  70
    32
  0
VERTEX
  8
0
  5
38B0
 10
117.524
 20
115.682
 30
0.000000
  70
    32
  0
VERTEX
  8
0
  5
38B1
 10
117.535
 20
115.692
 30
0.000000
  70
    32
  0
VERTEX
  8
0
  5
38B2
 10
117.546
 20
115.703
 30
0.000000
  70
    32
  0
VERTEX
  8
0
  5
38B3
 10
117.557
 20
115.714
 30
0.000000
  70
    32
  0
VERTEX
  8
0
  5
38B4
 10
117.568
 20
115.725
 30
0.000000
  70
    32
  0
VERTEX
  8
0
  5
38B5
 10
117.579
 20
115.736
 30
0.000000
  70
    32
  0
VERTEX
  8
0
  5
38B6
 10
117.589
 20
115.748
 30
0.000000
  70
    32
  0
VERTEX
  8
0
  5
38B7
 10
117.600
 20
115.760
 30
0.000000
  70
    32
  0
VERTEX
  8
0
  5
38B8
 10
117.611
 20
115.772
 30
0.000000
  70
    32
  0
VERTEX
  8
0
  5
38B9
 10
117.621
 20
115.785
 30
0.000000
  70
    32
  0
VERTEX
  8
0
  5
38BA
 10
117.632
 20
115.797
 30
0.000000
  70
    32
  0
VERTEX
  8
0
  5
38BB
 10
117.642
 20
115.810
 30
0.000000
  70
    32
  0
VERTEX
  8
0
  5
38BC
 10
117.653
 20
115.824
 30
0.000000
  70
    32
  0
VERTEX
  8
0
  5
38BD
 10
117.663
 20
115.837
 30
0.000000
  70
    32
  0
VERTEX
  8
0
  5
38BE
 10
117.673
 20
115.851
 30
0.000000
  70
    32
  0
VERTEX
  8
0
  5
38BF
 10
117.683
 20
115.865
 30
0.000000
  70
    32
  0
VERTEX
  8
0
  5
38C0
 10
117.693
 20
115.879
 30
0.000000
  70
    32
  0
VERTEX
  8
0
  5
38C1
 10
117.703
 20
115.894
 30
0.000000
  70
    32
  0
VERTEX
  8
0
  5
38C2
 10
117.713
 20
115.908
 30
0.000000
  70
    32
  0
VERTEX
  8
0
  5
38C3
 10
117.722
 20
115.923
 30
0.000000
  70
    32
  0
VERTEX
  8
0
  5
38C4
 10
117.732
 20
115.939
 30
0.000000
  70
    32
  0
VERTEX
  8
0
  5
38C5
 10
117.742
 20
115.954
 30
0.000000
  70
    32
  0
VERTEX
  8
0
  5
38C6
 10
117.751
 20
115.970
 30
0.000000
  70
    32
  0
VERTEX
  8
0
  5
38C7
 10
117.760
 20
115.986
 30
0.000000
  70
    32
  0
VERTEX
  8
0
  5
38C8
 10
117.770
 20
116.002
 30
0.000000
  70
    32
  0
VERTEX
  8
0
  5
38C9
 10
117.779
 20
116.018
 30
0.000000
  70
    32
  0
VERTEX
  8
0
  5
38CA
 10
117.788
 20
116.035
 30
0.000000
  70
    32
  0
VERTEX
  8
0
  5
38CB
 10
117.797
 20
116.052
 30
0.000000
  70
    32
  0
VERTEX
  8
0
  5
38CC
 10
117.806
 20
116.069
 30
0.000000
  70
    32
  0
VERTEX
  8
0
  5
38CD
 10
117.814
 20
116.086
 30
0.000000
  70
    32
  0
VERTEX
  8
0
  5
38CE
 10
117.823
 20
116.103
 30
0.000000
  70
    32
  0
VERTEX
  8
0
  5
38CF
 10
117.831
 20
116.121
 30
0.000000
  70
    32
  0
VERTEX
  8
0
  5
38D0
 10
117.840
 20
116.139
 30
0.000000
  70
    32
  0
VERTEX
  8
0
  5
38D1
 10
117.848
 20
116.157
 30
0.000000
  70
    32
  0
VERTEX
  8
0
  5
38D2
 10
117.856
 20
116.175
 30
0.000000
  70
    32
  0
VERTEX
  8
0
  5
38D3
 10
117.864
 20
116.194
 30
0.000000
  70
    32
  0
VERTEX
  8
0
  5
38D4
 10
117.872
 20
116.212
 30
0.000000
  70
    32
  0
VERTEX
  8
0
  5
38D5
 10
117.880
 20
116.231
 30
0.000000
  70
    32
  0
VERTEX
  8
0
  5
38D6
 10
117.888
 20
116.250
 30
0.000000
  70
    32
  0
VERTEX
  8
0
  5
38D7
 10
117.896
 20
116.270
 30
0.000000
  70
    32
  0
VERTEX
  8
0
  5
38D8
 10
117.903
 20
116.289
 30
0.000000
  70
    32
  0
VERTEX
  8
0
  5
38D9
 10
117.910
 20
116.309
 30
0.000000
  70
    32
  0
VERTEX
  8
0
  5
38DA
 10
117.918
 20
116.328
 30
0.000000
  70
    32
  0
VERTEX
  8
0
  5
38DB
 10
117.925
 20
116.348
 30
0.000000
  70
    32
  0
VERTEX
  8
0
  5
38DC
 10
117.932
 20
116.369
 30
0.000000
  70
    32
  0
VERTEX
  8
0
  5
38DD
 10
117.939
 20
116.389
 30
0.000000
  70
    32
  0
VERTEX
  8
0
  5
38DE
 10
117.945
 20
116.409
 30
0.000000
  70
    32
  0
VERTEX
  8
0
  5
38DF
 10
117.952
 20
116.430
 30
0.000000
  70
    32
  0
VERTEX
  8
0
  5
38E0
 10
117.959
 20
116.451
 30
0.000000
  70
    32
  0
VERTEX
  8
0
  5
38E1
 10
117.965
 20
116.472
 30
0.000000
  70
    32
  0
VERTEX
  8
0
  5
38E2
 10
117.971
 20
116.493
 30
0.000000
  70
    32
  0
VERTEX
  8
0
  5
38E3
 10
117.977
 20
116.514
 30
0.000000
  70
    32
  0
VERTEX
  8
0
  5
38E4
 10
117.983
 20
116.536
 30
0.000000
  70
    32
  0
VERTEX
  8
0
  5
38E5
 10
117.989
 20
116.557
 30
0.000000
  70
    32
  0
VERTEX
  8
0
  5
38E6
 10
117.995
 20
116.579
 30
0.000000
  70
    32
  0
VERTEX
  8
0
  5
38E7
 10
118.000
 20
116.601
 30
0.000000
  70
    32
  0
VERTEX
  8
0
  5
38E8
 10
118.006
 20
116.623
 30
0.000000
  70
    32
  0
VERTEX
  8
0
  5
38E9
 10
118.011
 20
116.645
 30
0.000000
  70
    32
  0
VERTEX
  8
0
  5
38EA
 10
118.016
 20
116.667
 30
0.000000
  70
    32
  0
VERTEX
  8
0
  5
38EB
 10
118.021
 20
116.690
 30
0.000000
  70
    32
  0
VERTEX
  8
0
  5
38EC
 10
118.026
 20
116.712
 30
0.000000
  70
    32
  0
VERTEX
  8
0
  5
38ED
 10
118.031
 20
116.735
 30
0.000000
  70
    32
  0
VERTEX
  8
0
  5
38EE
 10
118.036
 20
116.757
 30
0.000000
  70
    32
  0
VERTEX
  8
0
  5
38EF
 10
118.040
 20
116.780
 30
0.000000
  70
    32
  0
VERTEX
  8
0
  5
38F0
 10
118.045
 20
116.803
 30
0.000000
  70
    32
  0
VERTEX
  8
0
  5
38F1
 10
118.049
 20
116.826
 30
0.000000
  70
    32
  0
VERTEX
  8
0
  5
38F2
 10
118.053
 20
116.849
 30
0.000000
  70
    32
  0
VERTEX
  8
0
  5
38F3
 10
118.057
 20
116.873
 30
0.000000
  70
    32
  0
VERTEX
  8
0
  5
38F4
 10
118.060
 20
116.896
 30
0.000000
  70
    32
  0
VERTEX
  8
0
  5
38F5
 10
118.064
 20
116.919
 30
0.000000
  70
    32
  0
VERTEX
  8
0
  5
38F6
 10
118.068
 20
116.943
 30
0.000000
  70
    32
  0
VERTEX
  8
0
  5
38F7
 10
118.071
 20
116.967
 30
0.000000
  70
    32
  0
VERTEX
  8
0
  5
38F8
 10
118.074
 20
116.990
 30
0.000000
  70
    32
  0
VERTEX
  8
0
  5
38F9
 10
118.077
 20
117.014
 30
0.000000
  70
    32
  0
VERTEX
  8
0
  5
38FA
 10
118.080
 20
117.038
 30
0.000000
  70
    32
  0
VERTEX
  8
0
  5
38FB
 10
118.083
 20
117.062
 30
0.000000
  70
    32
  0
VERTEX
  8
0
  5
38FC
 10
118.086
 20
117.086
 30
0.000000
  70
    32
  0
VERTEX
  8
0
  5
38FD
 10
118.088
 20
117.110
 30
0.000000
  70
    32
  0
VERTEX
  8
0
  5
38FE
 10
118.090
 20
117.134
 30
0.000000
  70
    32
  0
VERTEX
  8
0
  5
38FF
 10
118.092
 20
117.158
 30
0.000000
  70
    32
  0
VERTEX
  8
0
  5
3900
 10
118.094
 20
117.182
 30
0.000000
  70
    32
  0
VERTEX
  8
0
  5
3901
 10
118.096
 20
117.207
 30
0.000000
  70
    32
  0
VERTEX
  8
0
  5
3902
 10
118.098
 20
117.231
 30
0.000000
  70
    32
  0
VERTEX
  8
0
  5
3903
 10
118.100
 20
117.255
 30
0.000000
  70
    32
  0
VERTEX
  8
0
  5
3904
 10
118.101
 20
117.280
 30
0.000000
  70
    32
  0
VERTEX
  8
0
  5
3905
 10
118.102
 20
117.304
 30
0.000000
  70
    32
  0
VERTEX
  8
0
  5
3906
 10
118.103
 20
117.328
 30
0.000000
  70
    32
  0
VERTEX
  8
0
  5
3907
 10
118.104
 20
117.353
 30
0.000000
  70
    32
  0
VERTEX
  8
0
  5
3908
 10
118.105
 20
117.377
 30
0.000000
  70
    32
  0
VERTEX
  8
0
  5
3909
 10
118.106
 20
117.402
 30
0.000000
  70
    32
  0
VERTEX
  8
0
  5
390A
 10
118.107
 20
117.426
 30
0.000000
  70
    32
  0
VERTEX
  8
0
  5
390B
 10
118.107
 20
117.451
 30
0.000000
  70
    32
  0
VERTEX
  8
0
  5
390C
 10
118.107
 20
117.475
 30
0.000000
  70
    32
  0
VERTEX
  8
0
  5
390D
 10
118.107
 20
117.500
 30
0.000000
  70
    32
  0
SEQEND
  8
0
  5
390E
  0
LINE
  5
323D
  8
0
 10
116.5773425469839
 20
122.8795191834506
 30
0.0
 11
116.5773425469839
 21
119.00000000000099
 31
0.0
  0
ARC
  5
323E
  8
0
 10
115.5773425469839
 20
119.00000000000099
 30
0.0
 40
1.0
 50
270.0
 51
0.0
  0
POLYLINE
  5
324E
  8
0
 10
117.1071858360767
 20
126.5000000000009
 30
0.0
 66
     1
 70
     8
  0
VERTEX
  8
0
  5
390F
 10
117.107
 20
126.500
 30
0.000000
  70
    32
  0
VERTEX
  8
0
  5
3910
 10
117.119
 20
126.500
 30
0.000000
  70
    32
  0
VERTEX
  8
0
  5
3911
 10
117.132
 20
126.499
 30
0.000000
  70
    32
  0
VERTEX
  8
0
  5
3912
 10
117.144
 20
126.499
 30
0.000000
  70
    32
  0
VERTEX
  8
0
  5
3913
 10
117.156
 20
126.498
 30
0.000000
  70
    32
  0
VERTEX
  8
0
  5
3914
 10
117.169
 20
126.496
 30
0.000000
  70
    32
  0
VERTEX
  8
0
  5
3915
 10
117.181
 20
126.495
 30
0.000000
  70
    32
  0
VERTEX
  8
0
  5
3916
 10
117.193
 20
126.493
 30
0.000000
  70
    32
  0
VERTEX
  8
0
  5
3917
 10
117.205
 20
126.490
 30
0.000000
  70
    32
  0
VERTEX
  8
0
  5
3918
 10
117.217
 20
126.488
 30
0.000000
  70
    32
  0
VERTEX
  8
0
  5
3919
 10
117.230
 20
126.485
 30
0.000000
  70
    32
  0
VERTEX
  8
0
  5
391A
 10
117.242
 20
126.482
 30
0.000000
  70
    32
  0
VERTEX
  8
0
  5
391B
 10
117.254
 20
126.478
 30
0.000000
  70
    32
  0
VERTEX
  8
0
  5
391C
 10
117.266
 20
126.475
 30
0.000000
  70
    32
  0
VERTEX
  8
0
  5
391D
 10
117.278
 20
126.471
 30
0.000000
  70
    32
  0
VERTEX
  8
0
  5
391E
 10
117.290
 20
126.466
 30
0.000000
  70
    32
  0
VERTEX
  8
0
  5
391F
 10
117.302
 20
126.462
 30
0.000000
  70
    32
  0
VERTEX
  8
0
  5
3920
 10
117.314
 20
126.457
 30
0.000000
  70
    32
  0
VERTEX
  8
0
  5
3921
 10
117.326
 20
126.451
 30
0.000000
  70
    32
  0
VERTEX
  8
0
  5
3922
 10
117.338
 20
126.446
 30
0.000000
  70
    32
  0
VERTEX
  8
0
  5
3923
 10
117.350
 20
126.440
 30
0.000000
  70
    32
  0
VERTEX
  8
0
  5
3924
 10
117.362
 20
126.434
 30
0.000000
  70
    32
  0
VERTEX
  8
0
  5
3925
 10
117.374
 20
126.428
 30
0.000000
  70
    32
  0
VERTEX
  8
0
  5
3926
 10
117.386
 20
126.421
 30
0.000000
  70
    32
  0
VERTEX
  8
0
  5
3927
 10
117.397
 20
126.414
 30
0.000000
  70
    32
  0
VERTEX
  8
0
  5
3928
 10
117.409
 20
126.407
 30
0.000000
  70
    32
  0
VERTEX
  8
0
  5
3929
 10
117.421
 20
126.399
 30
0.000000
  70
    32
  0
VERTEX
  8
0
  5
392A
 10
117.432
 20
126.391
 30
0.000000
  70
    32
  0
VERTEX
  8
0
  5
392B
 10
117.444
 20
126.383
 30
0.000000
  70
    32
  0
VERTEX
  8
0
  5
392C
 10
117.456
 20
126.375
 30
0.000000
  70
    32
  0
VERTEX
  8
0
  5
392D
 10
117.467
 20
126.366
 30
0.000000
  70
    32
  0
VERTEX
  8
0
  5
392E
 10
117.479
 20
126.357
 30
0.000000
  70
    32
  0
VERTEX
  8
0
  5
392F
 10
117.490
 20
126.348
 30
0.000000
  70
    32
  0
VERTEX
  8
0
  5
3930
 10
117.501
 20
126.338
 30
0.000000
  70
    32
  0
VERTEX
  8
0
  5
3931
 10
117.512
 20
126.328
 30
0.000000
  70
    32
  0
VERTEX
  8
0
  5
3932
 10
117.524
 20
126.318
 30
0.000000
  70
    32
  0
VERTEX
  8
0
  5
3933
 10
117.535
 20
126.308
 30
0.000000
  70
    32
  0
VERTEX
  8
0
  5
3934
 10
117.546
 20
126.297
 30
0.000000
  70
    32
  0
VERTEX
  8
0
  5
3935
 10
117.557
 20
126.286
 30
0.000000
  70
    32
  0
VERTEX
  8
0
  5
3936
 10
117.568
 20
126.275
 30
0.000000
  70
    32
  0
VERTEX
  8
0
  5
3937
 10
117.579
 20
126.264
 30
0.000000
  70
    32
  0
VERTEX
  8
0
  5
3938
 10
117.589
 20
126.252
 30
0.000000
  70
    32
  0
VERTEX
  8
0
  5
3939
 10
117.600
 20
126.240
 30
0.000000
  70
    32
  0
VERTEX
  8
0
  5
393A
 10
117.611
 20
126.228
 30
0.000000
  70
    32
  0
VERTEX
  8
0
  5
393B
 10
117.621
 20
126.215
 30
0.000000
  70
    32
  0
VERTEX
  8
0
  5
393C
 10
117.632
 20
126.203
 30
0.000000
  70
    32
  0
VERTEX
  8
0
  5
393D
 10
117.642
 20
126.190
 30
0.000000
  70
    32
  0
VERTEX
  8
0
  5
393E
 10
117.653
 20
126.176
 30
0.000000
  70
    32
  0
VERTEX
  8
0
  5
393F
 10
117.663
 20
126.163
 30
0.000000
  70
    32
  0
VERTEX
  8
0
  5
3940
 10
117.673
 20
126.149
 30
0.000000
  70
    32
  0
VERTEX
  8
0
  5
3941
 10
117.683
 20
126.135
 30
0.000000
  70
    32
  0
VERTEX
  8
0
  5
3942
 10
117.693
 20
126.121
 30
0.000000
  70
    32
  0
VERTEX
  8
0
  5
3943
 10
117.703
 20
126.106
 30
0.000000
  70
    32
  0
VERTEX
  8
0
  5
3944
 10
117.713
 20
126.092
 30
0.000000
  70
    32
  0
VERTEX
  8
0
  5
3945
 10
117.722
 20
126.077
 30
0.000000
  70
    32
  0
VERTEX
  8
0
  5
3946
 10
117.732
 20
126.061
 30
0.000000
  70
    32
  0
VERTEX
  8
0
  5
3947
 10
117.742
 20
126.046
 30
0.000000
  70
    32
  0
VERTEX
  8
0
  5
3948
 10
117.751
 20
126.030
 30
0.000000
  70
    32
  0
VERTEX
  8
0
  5
3949
 10
117.760
 20
126.014
 30
0.000000
  70
    32
  0
VERTEX
  8
0
  5
394A
 10
117.770
 20
125.998
 30
0.000000
  70
    32
  0
VERTEX
  8
0
  5
394B
 10
117.779
 20
125.982
 30
0.000000
  70
    32
  0
VERTEX
  8
0
  5
394C
 10
117.788
 20
125.965
 30
0.000000
  70
    32
  0
VERTEX
  8
0
  5
394D
 10
117.797
 20
125.948
 30
0.000000
  70
    32
  0
VERTEX
  8
0
  5
394E
 10
117.806
 20
125.931
 30
0.000000
  70
    32
  0
VERTEX
  8
0
  5
394F
 10
117.814
 20
125.914
 30
0.000000
  70
    32
  0
VERTEX
  8
0
  5
3950
 10
117.823
 20
125.897
 30
0.000000
  70
    32
  0
VERTEX
  8
0
  5
3951
 10
117.831
 20
125.879
 30
0.000000
  70
    32
  0
VERTEX
  8
0
  5
3952
 10
117.840
 20
125.861
 30
0.000000
  70
    32
  0
VERTEX
  8
0
  5
3953
 10
117.848
 20
125.843
 30
0.000000
  70
    32
  0
VERTEX
  8
0
  5
3954
 10
117.856
 20
125.825
 30
0.000000
  70
    32
  0
VERTEX
  8
0
  5
3955
 10
117.864
 20
125.806
 30
0.000000
  70
    32
  0
VERTEX
  8
0
  5
3956
 10
117.872
 20
125.788
 30
0.000000
  70
    32
  0
VERTEX
  8
0
  5
3957
 10
117.880
 20
125.769
 30
0.000000
  70
    32
  0
VERTEX
  8
0
  5
3958
 10
117.888
 20
125.750
 30
0.000000
  70
    32
  0
VERTEX
  8
0
  5
3959
 10
117.896
 20
125.730
 30
0.000000
  70
    32
  0
VERTEX
  8
0
  5
395A
 10
117.903
 20
125.711
 30
0.000000
  70
    32
  0
VERTEX
  8
0
  5
395B
 10
117.910
 20
125.691
 30
0.000000
  70
    32
  0
VERTEX
  8
0
  5
395C
 10
117.918
 20
125.672
 30
0.000000
  70
    32
  0
VERTEX
  8
0
  5
395D
 10
117.925
 20
125.652
 30
0.000000
  70
    32
  0
VERTEX
  8
0
  5
395E
 10
117.932
 20
125.631
 30
0.000000
  70
    32
  0
VERTEX
  8
0
  5
395F
 10
117.939
 20
125.611
 30
0.000000
  70
    32
  0
VERTEX
  8
0
  5
3960
 10
117.945
 20
125.591
 30
0.000000
  70
    32
  0
VERTEX
  8
0
  5
3961
 10
117.952
 20
125.570
 30
0.000000
  70
    32
  0
VERTEX
  8
0
  5
3962
 10
117.959
 20
125.549
 30
0.000000
  70
    32
  0
VERTEX
  8
0
  5
3963
 10
117.965
 20
125.528
 30
0.000000
  70
    32
  0
VERTEX
  8
0
  5
3964
 10
117.971
 20
125.507
 30
0.000000
  70
    32
  0
VERTEX
  8
0
  5
3965
 10
117.977
 20
125.486
 30
0.000000
  70
    32
  0
VERTEX
  8
0
  5
3966
 10
117.983
 20
125.464
 30
0.000000
  70
    32
  0
VERTEX
  8
0
  5
3967
 10
117.989
 20
125.443
 30
0.000000
  70
    32
  0
VERTEX
  8
0
  5
3968
 10
117.995
 20
125.421
 30
0.000000
  70
    32
  0
VERTEX
  8
0
  5
3969
 10
118.000
 20
125.399
 30
0.000000
  70
    32
  0
VERTEX
  8
0
  5
396A
 10
118.006
 20
125.377
 30
0.000000
  70
    32
  0
VERTEX
  8
0
  5
396B
 10
118.011
 20
125.355
 30
0.000000
  70
    32
  0
VERTEX
  8
0
  5
396C
 10
118.016
 20
125.333
 30
0.000000
  70
    32
  0
VERTEX
  8
0
  5
396D
 10
118.021
 20
125.310
 30
0.000000
  70
    32
  0
VERTEX
  8
0
  5
396E
 10
118.026
 20
125.288
 30
0.000000
  70
    32
  0
VERTEX
  8
0
  5
396F
 10
118.031
 20
125.265
 30
0.000000
  70
    32
  0
VERTEX
  8
0
  5
3970
 10
118.036
 20
125.243
 30
0.000000
  70
    32
  0
VERTEX
  8
0
  5
3971
 10
118.040
 20
125.220
 30
0.000000
  70
    32
  0
VERTEX
  8
0
  5
3972
 10
118.045
 20
125.197
 30
0.000000
  70
    32
  0
VERTEX
  8
0
  5
3973
 10
118.049
 20
125.174
 30
0.000000
  70
    32
  0
VERTEX
  8
0
  5
3974
 10
118.053
 20
125.151
 30
0.000000
  70
    32
  0
VERTEX
  8
0
  5
3975
 10
118.057
 20
125.127
 30
0.000000
  70
    32
  0
VERTEX
  8
0
  5
3976
 10
118.060
 20
125.104
 30
0.000000
  70
    32
  0
VERTEX
  8
0
  5
3977
 10
118.064
 20
125.081
 30
0.000000
  70
    32
  0
VERTEX
  8
0
  5
3978
 10
118.068
 20
125.057
 30
0.000000
  70
    32
  0
VERTEX
  8
0
  5
3979
 10
118.071
 20
125.033
 30
0.000000
  70
    32
  0
VERTEX
  8
0
  5
397A
 10
118.074
 20
125.010
 30
0.000000
  70
    32
  0
VERTEX
  8
0
  5
397B
 10
118.077
 20
124.986
 30
0.000000
  70
    32
  0
VERTEX
  8
0
  5
397C
 10
118.080
 20
124.962
 30
0.000000
  70
    32
  0
VERTEX
  8
0
  5
397D
 10
118.083
 20
124.938
 30
0.000000
  70
    32
  0
VERTEX
  8
0
  5
397E
 10
118.086
 20
124.914
 30
0.000000
  70
    32
  0
VERTEX
  8
0
  5
397F
 10
118.088
 20
124.890
 30
0.000000
  70
    32
  0
VERTEX
  8
0
  5
3980
 10
118.090
 20
124.866
 30
0.000000
  70
    32
  0
VERTEX
  8
0
  5
3981
 10
118.092
 20
124.842
 30
0.000000
  70
    32
  0
VERTEX
  8
0
  5
3982
 10
118.094
 20
124.818
 30
0.000000
  70
    32
  0
VERTEX
  8
0
  5
3983
 10
118.096
 20
124.793
 30
0.000000
  70
    32
  0
VERTEX
  8
0
  5
3984
 10
118.098
 20
124.769
 30
0.000000
  70
    32
  0
VERTEX
  8
0
  5
3985
 10
118.100
 20
124.745
 30
0.000000
  70
    32
  0
VERTEX
  8
0
  5
3986
 10
118.101
 20
124.720
 30
0.000000
  70
    32
  0
VERTEX
  8
0
  5
3987
 10
118.102
 20
124.696
 30
0.000000
  70
    32
  0
VERTEX
  8
0
  5
3988
 10
118.103
 20
124.672
 30
0.000000
  70
    32
  0
VERTEX
  8
0
  5
3989
 10
118.104
 20
124.647
 30
0.000000
  70
    32
  0
VERTEX
  8
0
  5
398A
 10
118.105
 20
124.623
 30
0.000000
  70
    32
  0
VERTEX
  8
0
  5
398B
 10
118.106
 20
124.598
 30
0.000000
  70
    32
  0
VERTEX
  8
0
  5
398C
 10
118.107
 20
124.574
 30
0.000000
  70
    32
  0
VERTEX
  8
0
  5
398D
 10
118.107
 20
124.549
 30
0.000000
  70
    32
  0
VERTEX
  8
0
  5
398E
 10
118.107
 20
124.525
 30
0.000000
  70
    32
  0
VERTEX
  8
0
  5
398F
 10
118.107
 20
124.500
 30
0.000000
  70
    32
  0
SEQEND
  8
0
  5
3990
  0
POLYLINE
  5
326E
  8
0
 10
107.9928141639234
 20
126.5000000000009
 30
0.0
 66
     1
 70
     8
  0
VERTEX
  8
0
  5
3991
 10
107.993
 20
126.500
 30
0.000000
  70
    32
  0
VERTEX
  8
0
  5
3992
 10
107.981
 20
126.500
 30
0.000000
  70
    32
  0
VERTEX
  8
0
  5
3993
 10
107.968
 20
126.499
 30
0.000000
  70
    32
  0
VERTEX
  8
0
  5
3994
 10
107.956
 20
126.499
 30
0.000000
  70
    32
  0
VERTEX
  8
0
  5
3995
 10
107.944
 20
126.498
 30
0.000000
  70
    32
  0
VERTEX
  8
0
  5
3996
 10
107.931
 20
126.496
 30
0.000000
  70
    32
  0
VERTEX
  8
0
  5
3997
 10
107.919
 20
126.495
 30
0.000000
  70
    32
  0
VERTEX
  8
0
  5
3998
 10
107.907
 20
126.493
 30
0.000000
  70
    32
  0
VERTEX
  8
0
  5
3999
 10
107.895
 20
126.490
 30
0.000000
  70
    32
  0
VERTEX
  8
0
  5
399A
 10
107.883
 20
126.488
 30
0.000000
  70
    32
  0
VERTEX
  8
0
  5
399B
 10
107.870
 20
126.485
 30
0.000000
  70
    32
  0
VERTEX
  8
0
  5
399C
 10
107.858
 20
126.482
 30
0.000000
  70
    32
  0
VERTEX
  8
0
  5
399D
 10
107.846
 20
126.478
 30
0.000000
  70
    32
  0
VERTEX
  8
0
  5
399E
 10
107.834
 20
126.475
 30
0.000000
  70
    32
  0
VERTEX
  8
0
  5
399F
 10
107.822
 20
126.471
 30
0.000000
  70
    32
  0
VERTEX
  8
0
  5
39A0
 10
107.810
 20
126.466
 30
0.000000
  70
    32
  0
VERTEX
  8
0
  5
39A1
 10
107.798
 20
126.462
 30
0.000000
  70
    32
  0
VERTEX
  8
0
  5
39A2
 10
107.786
 20
126.457
 30
0.000000
  70
    32
  0
VERTEX
  8
0
  5
39A3
 10
107.774
 20
126.451
 30
0.000000
  70
    32
  0
VERTEX
  8
0
  5
39A4
 10
107.762
 20
126.446
 30
0.000000
  70
    32
  0
VERTEX
  8
0
  5
39A5
 10
107.750
 20
126.440
 30
0.000000
  70
    32
  0
VERTEX
  8
0
  5
39A6
 10
107.738
 20
126.434
 30
0.000000
  70
    32
  0
VERTEX
  8
0
  5
39A7
 10
107.726
 20
126.428
 30
0.000000
  70
    32
  0
VERTEX
  8
0
  5
39A8
 10
107.714
 20
126.421
 30
0.000000
  70
    32
  0
VERTEX
  8
0
  5
39A9
 10
107.703
 20
126.414
 30
0.000000
  70
    32
  0
VERTEX
  8
0
  5
39AA
 10
107.691
 20
126.407
 30
0.000000
  70
    32
  0
VERTEX
  8
0
  5
39AB
 10
107.679
 20
126.399
 30
0.000000
  70
    32
  0
VERTEX
  8
0
  5
39AC
 10
107.668
 20
126.391
 30
0.000000
  70
    32
  0
VERTEX
  8
0
  5
39AD
 10
107.656
 20
126.383
 30
0.000000
  70
    32
  0
VERTEX
  8
0
  5
39AE
 10
107.644
 20
126.375
 30
0.000000
  70
    32
  0
VERTEX
  8
0
  5
39AF
 10
107.633
 20
126.366
 30
0.000000
  70
    32
  0
VERTEX
  8
0
  5
39B0
 10
107.621
 20
126.357
 30
0.000000
  70
    32
  0
VERTEX
  8
0
  5
39B1
 10
107.610
 20
126.348
 30
0.000000
  70
    32
  0
VERTEX
  8
0
  5
39B2
 10
107.599
 20
126.338
 30
0.000000
  70
    32
  0
VERTEX
  8
0
  5
39B3
 10
107.588
 20
126.328
 30
0.000000
  70
    32
  0
VERTEX
  8
0
  5
39B4
 10
107.576
 20
126.318
 30
0.000000
  70
    32
  0
VERTEX
  8
0
  5
39B5
 10
107.565
 20
126.308
 30
0.000000
  70
    32
  0
VERTEX
  8
0
  5
39B6
 10
107.554
 20
126.297
 30
0.000000
  70
    32
  0
VERTEX
  8
0
  5
39B7
 10
107.543
 20
126.286
 30
0.000000
  70
    32
  0
VERTEX
  8
0
  5
39B8
 10
107.532
 20
126.275
 30
0.000000
  70
    32
  0
VERTEX
  8
0
  5
39B9
 10
107.521
 20
126.264
 30
0.000000
  70
    32
  0
VERTEX
  8
0
  5
39BA
 10
107.511
 20
126.252
 30
0.000000
  70
    32
  0
VERTEX
  8
0
  5
39BB
 10
107.500
 20
126.240
 30
0.000000
  70
    32
  0
VERTEX
  8
0
  5
39BC
 10
107.489
 20
126.228
 30
0.000000
  70
    32
  0
VERTEX
  8
0
  5
39BD
 10
107.479
 20
126.215
 30
0.000000
  70
    32
  0
VERTEX
  8
0
  5
39BE
 10
107.468
 20
126.203
 30
0.000000
  70
    32
  0
VERTEX
  8
0
  5
39BF
 10
107.458
 20
126.190
 30
0.000000
  70
    32
  0
VERTEX
  8
0
  5
39C0
 10
107.447
 20
126.176
 30
0.000000
  70
    32
  0
VERTEX
  8
0
  5
39C1
 10
107.437
 20
126.163
 30
0.000000
  70
    32
  0
VERTEX
  8
0
  5
39C2
 10
107.427
 20
126.149
 30
0.000000
  70
    32
  0
VERTEX
  8
0
  5
39C3
 10
107.417
 20
126.135
 30
0.000000
  70
    32
  0
VERTEX
  8
0
  5
39C4
 10
107.407
 20
126.121
 30
0.000000
  70
    32
  0
VERTEX
  8
0
  5
39C5
 10
107.397
 20
126.106
 30
0.000000
  70
    32
  0
VERTEX
  8
0
  5
39C6
 10
107.387
 20
126.092
 30
0.000000
  70
    32
  0
VERTEX
  8
0
  5
39C7
 10
107.378
 20
126.077
 30
0.000000
  70
    32
  0
VERTEX
  8
0
  5
39C8
 10
107.368
 20
126.061
 30
0.000000
  70
    32
  0
VERTEX
  8
0
  5
39C9
 10
107.358
 20
126.046
 30
0.000000
  70
    32
  0
VERTEX
  8
0
  5
39CA
 10
107.349
 20
126.030
 30
0.000000
  70
    32
  0
VERTEX
  8
0
  5
39CB
 10
107.340
 20
126.014
 30
0.000000
  70
    32
  0
VERTEX
  8
0
  5
39CC
 10
107.330
 20
125.998
 30
0.000000
  70
    32
  0
VERTEX
  8
0
  5
39CD
 10
107.321
 20
125.982
 30
0.000000
  70
    32
  0
VERTEX
  8
0
  5
39CE
 10
107.312
 20
125.965
 30
0.000000
  70
    32
  0
VERTEX
  8
0
  5
39CF
 10
107.303
 20
125.948
 30
0.000000
  70
    32
  0
VERTEX
  8
0
  5
39D0
 10
107.294
 20
125.931
 30
0.000000
  70
    32
  0
VERTEX
  8
0
  5
39D1
 10
107.286
 20
125.914
 30
0.000000
  70
    32
  0
VERTEX
  8
0
  5
39D2
 10
107.277
 20
125.897
 30
0.000000
  70
    32
  0
VERTEX
  8
0
  5
39D3
 10
107.269
 20
125.879
 30
0.000000
  70
    32
  0
VERTEX
  8
0
  5
39D4
 10
107.260
 20
125.861
 30
0.000000
  70
    32
  0
VERTEX
  8
0
  5
39D5
 10
107.252
 20
125.843
 30
0.000000
  70
    32
  0
VERTEX
  8
0
  5
39D6
 10
107.244
 20
125.825
 30
0.000000
  70
    32
  0
VERTEX
  8
0
  5
39D7
 10
107.236
 20
125.806
 30
0.000000
  70
    32
  0
VERTEX
  8
0
  5
39D8
 10
107.228
 20
125.788
 30
0.000000
  70
    32
  0
VERTEX
  8
0
  5
39D9
 10
107.220
 20
125.769
 30
0.000000
  70
    32
  0
VERTEX
  8
0
  5
39DA
 10
107.212
 20
125.750
 30
0.000000
  70
    32
  0
VERTEX
  8
0
  5
39DB
 10
107.204
 20
125.730
 30
0.000000
  70
    32
  0
VERTEX
  8
0
  5
39DC
 10
107.197
 20
125.711
 30
0.000000
  70
    32
  0
VERTEX
  8
0
  5
39DD
 10
107.190
 20
125.691
 30
0.000000
  70
    32
  0
VERTEX
  8
0
  5
39DE
 10
107.182
 20
125.672
 30
0.000000
  70
    32
  0
VERTEX
  8
0
  5
39DF
 10
107.175
 20
125.652
 30
0.000000
  70
    32
  0
VERTEX
  8
0
  5
39E0
 10
107.168
 20
125.631
 30
0.000000
  70
    32
  0
VERTEX
  8
0
  5
39E1
 10
107.161
 20
125.611
 30
0.000000
  70
    32
  0
VERTEX
  8
0
  5
39E2
 10
107.155
 20
125.591
 30
0.000000
  70
    32
  0
VERTEX
  8
0
  5
39E3
 10
107.148
 20
125.570
 30
0.000000
  70
    32
  0
VERTEX
  8
0
  5
39E4
 10
107.141
 20
125.549
 30
0.000000
  70
    32
  0
VERTEX
  8
0
  5
39E5
 10
107.135
 20
125.528
 30
0.000000
  70
    32
  0
VERTEX
  8
0
  5
39E6
 10
107.129
 20
125.507
 30
0.000000
  70
    32
  0
VERTEX
  8
0
  5
39E7
 10
107.123
 20
125.486
 30
0.000000
  70
    32
  0
VERTEX
  8
0
  5
39E8
 10
107.117
 20
125.464
 30
0.000000
  70
    32
  0
VERTEX
  8
0
  5
39E9
 10
107.111
 20
125.443
 30
0.000000
  70
    32
  0
VERTEX
  8
0
  5
39EA
 10
107.105
 20
125.421
 30
0.000000
  70
    32
  0
VERTEX
  8
0
  5
39EB
 10
107.100
 20
125.399
 30
0.000000
  70
    32
  0
VERTEX
  8
0
  5
39EC
 10
107.094
 20
125.377
 30
0.000000
  70
    32
  0
VERTEX
  8
0
  5
39ED
 10
107.089
 20
125.355
 30
0.000000
  70
    32
  0
VERTEX
  8
0
  5
39EE
 10
107.084
 20
125.333
 30
0.000000
  70
    32
  0
VERTEX
  8
0
  5
39EF
 10
107.079
 20
125.310
 30
0.000000
  70
    32
  0
VERTEX
  8
0
  5
39F0
 10
107.074
 20
125.288
 30
0.000000
  70
    32
  0
VERTEX
  8
0
  5
39F1
 10
107.069
 20
125.265
 30
0.000000
  70
    32
  0
VERTEX
  8
0
  5
39F2
 10
107.064
 20
125.243
 30
0.000000
  70
    32
  0
VERTEX
  8
0
  5
39F3
 10
107.060
 20
125.220
 30
0.000000
  70
    32
  0
VERTEX
  8
0
  5
39F4
 10
107.055
 20
125.197
 30
0.000000
  70
    32
  0
VERTEX
  8
0
  5
39F5
 10
107.051
 20
125.174
 30
0.000000
  70
    32
  0
VERTEX
  8
0
  5
39F6
 10
107.047
 20
125.151
 30
0.000000
  70
    32
  0
VERTEX
  8
0
  5
39F7
 10
107.043
 20
125.127
 30
0.000000
  70
    32
  0
VERTEX
  8
0
  5
39F8
 10
107.040
 20
125.104
 30
0.000000
  70
    32
  0
VERTEX
  8
0
  5
39F9
 10
107.036
 20
125.081
 30
0.000000
  70
    32
  0
VERTEX
  8
0
  5
39FA
 10
107.032
 20
125.057
 30
0.000000
  70
    32
  0
VERTEX
  8
0
  5
39FB
 10
107.029
 20
125.033
 30
0.000000
  70
    32
  0
VERTEX
  8
0
  5
39FC
 10
107.026
 20
125.010
 30
0.000000
  70
    32
  0
VERTEX
  8
0
  5
39FD
 10
107.023
 20
124.986
 30
0.000000
  70
    32
  0
VERTEX
  8
0
  5
39FE
 10
107.020
 20
124.962
 30
0.000000
  70
    32
  0
VERTEX
  8
0
  5
39FF
 10
107.017
 20
124.938
 30
0.000000
  70
    32
  0
VERTEX
  8
0
  5
3A00
 10
107.014
 20
124.914
 30
0.000000
  70
    32
  0
VERTEX
  8
0
  5
3A01
 10
107.012
 20
124.890
 30
0.000000
  70
    32
  0
VERTEX
  8
0
  5
3A02
 10
107.010
 20
124.866
 30
0.000000
  70
    32
  0
VERTEX
  8
0
  5
3A03
 10
107.008
 20
124.842
 30
0.000000
  70
    32
  0
VERTEX
  8
0
  5
3A04
 10
107.006
 20
124.818
 30
0.000000
  70
    32
  0
VERTEX
  8
0
  5
3A05
 10
107.004
 20
124.793
 30
0.000000
  70
    32
  0
VERTEX
  8
0
  5
3A06
 10
107.002
 20
124.769
 30
0.000000
  70
    32
  0
VERTEX
  8
0
  5
3A07
 10
107.000
 20
124.745
 30
0.000000
  70
    32
  0
VERTEX
  8
0
  5
3A08
 10
106.999
 20
124.720
 30
0.000000
  70
    32
  0
VERTEX
  8
0
  5
3A09
 10
106.998
 20
124.696
 30
0.000000
  70
    32
  0
VERTEX
  8
0
  5
3A0A
 10
106.997
 20
124.672
 30
0.000000
  70
    32
  0
VERTEX
  8
0
  5
3A0B
 10
106.996
 20
124.647
 30
0.000000
  70
    32
  0
VERTEX
  8
0
  5
3A0C
 10
106.995
 20
124.623
 30
0.000000
  70
    32
  0
VERTEX
  8
0
  5
3A0D
 10
106.994
 20
124.598
 30
0.000000
  70
    32
  0
VERTEX
  8
0
  5
3A0E
 10
106.993
 20
124.574
 30
0.000000
  70
    32
  0
VERTEX
  8
0
  5
3A0F
 10
106.993
 20
124.549
 30
0.000000
  70
    32
  0
VERTEX
  8
0
  5
3A10
 10
106.993
 20
124.525
 30
0.000000
  70
    32
  0
VERTEX
  8
0
  5
3A11
 10
106.993
 20
124.500
 30
0.000000
  70
    32
  0
SEQEND
  8
0
  5
3A12
  0
ARC
  5
326F
  8
0
 10
109.52265745301619
 20
119.00000000000099
 30
0.0
 40
1.0
 50
180.0
 51
270.0
  0
LINE
  5
3270
  8
0
 10
108.52265745301619
 20
122.8795191834506
 30
0.0
 11
108.52265745301619
 21
119.00000000000099
 31
0.0
  0
POLYLINE
  5
3271
  8
0
 10
107.9928141639234
 20
115.50000000000099
 30
0.0
 66
     1
 70
     8
  0
VERTEX
  8
0
  5
3A13
 10
107.993
 20
115.500
 30
0.000000
  70
    32
  0
VERTEX
  8
0
  5
3A14
 10
107.981
 20
115.500
 30
0.000000
  70
    32
  0
VERTEX
  8
0
  5
3A15
 10
107.968
 20
115.501
 30
0.000000
  70
    32
  0
VERTEX
  8
0
  5
3A16
 10
107.956
 20
115.501
 30
0.000000
  70
    32
  0
VERTEX
  8
0
  5
3A17
 10
107.944
 20
115.502
 30
0.000000
  70
    32
  0
VERTEX
  8
0
  5
3A18
 10
107.931
 20
115.504
 30
0.000000
  70
    32
  0
VERTEX
  8
0
  5
3A19
 10
107.919
 20
115.505
 30
0.000000
  70
    32
  0
VERTEX
  8
0
  5
3A1A
 10
107.907
 20
115.507
 30
0.000000
  70
    32
  0
VERTEX
  8
0
  5
3A1B
 10
107.895
 20
115.510
 30
0.000000
  70
    32
  0
VERTEX
  8
0
  5
3A1C
 10
107.883
 20
115.512
 30
0.000000
  70
    32
  0
VERTEX
  8
0
  5
3A1D
 10
107.870
 20
115.515
 30
0.000000
  70
    32
  0
VERTEX
  8
0
  5
3A1E
 10
107.858
 20
115.518
 30
0.000000
  70
    32
  0
VERTEX
  8
0
  5
3A1F
 10
107.846
 20
115.522
 30
0.000000
  70
    32
  0
VERTEX
  8
0
  5
3A20
 10
107.834
 20
115.525
 30
0.000000
  70
    32
  0
VERTEX
  8
0
  5
3A21
 10
107.822
 20
115.529
 30
0.000000
  70
    32
  0
VERTEX
  8
0
  5
3A22
 10
107.810
 20
115.534
 30
0.000000
  70
    32
  0
VERTEX
  8
0
  5
3A23
 10
107.798
 20
115.538
 30
0.000000
  70
    32
  0
VERTEX
  8
0
  5
3A24
 10
107.786
 20
115.543
 30
0.000000
  70
    32
  0
VERTEX
  8
0
  5
3A25
 10
107.774
 20
115.549
 30
0.000000
  70
    32
  0
VERTEX
  8
0
  5
3A26
 10
107.762
 20
115.554
 30
0.000000
  70
    32
  0
VERTEX
  8
0
  5
3A27
 10
107.750
 20
115.560
 30
0.000000
  70
    32
  0
VERTEX
  8
0
  5
3A28
 10
107.738
 20
115.566
 30
0.000000
  70
    32
  0
VERTEX
  8
0
  5
3A29
 10
107.726
 20
115.572
 30
0.000000
  70
    32
  0
VERTEX
  8
0
  5
3A2A
 10
107.714
 20
115.579
 30
0.000000
  70
    32
  0
VERTEX
  8
0
  5
3A2B
 10
107.703
 20
115.586
 30
0.000000
  70
    32
  0
VERTEX
  8
0
  5
3A2C
 10
107.691
 20
115.593
 30
0.000000
  70
    32
  0
VERTEX
  8
0
  5
3A2D
 10
107.679
 20
115.601
 30
0.000000
  70
    32
  0
VERTEX
  8
0
  5
3A2E
 10
107.668
 20
115.609
 30
0.000000
  70
    32
  0
VERTEX
  8
0
  5
3A2F
 10
107.656
 20
115.617
 30
0.000000
  70
    32
  0
VERTEX
  8
0
  5
3A30
 10
107.644
 20
115.625
 30
0.000000
  70
    32
  0
VERTEX
  8
0
  5
3A31
 10
107.633
 20
115.634
 30
0.000000
  70
    32
  0
VERTEX
  8
0
  5
3A32
 10
107.621
 20
115.643
 30
0.000000
  70
    32
  0
VERTEX
  8
0
  5
3A33
 10
107.610
 20
115.652
 30
0.000000
  70
    32
  0
VERTEX
  8
0
  5
3A34
 10
107.599
 20
115.662
 30
0.000000
  70
    32
  0
VERTEX
  8
0
  5
3A35
 10
107.588
 20
115.672
 30
0.000000
  70
    32
  0
VERTEX
  8
0
  5
3A36
 10
107.576
 20
115.682
 30
0.000000
  70
    32
  0
VERTEX
  8
0
  5
3A37
 10
107.565
 20
115.692
 30
0.000000
  70
    32
  0
VERTEX
  8
0
  5
3A38
 10
107.554
 20
115.703
 30
0.000000
  70
    32
  0
VERTEX
  8
0
  5
3A39
 10
107.543
 20
115.714
 30
0.000000
  70
    32
  0
VERTEX
  8
0
  5
3A3A
 10
107.532
 20
115.725
 30
0.000000
  70
    32
  0
VERTEX
  8
0
  5
3A3B
 10
107.521
 20
115.736
 30
0.000000
  70
    32
  0
VERTEX
  8
0
  5
3A3C
 10
107.511
 20
115.748
 30
0.000000
  70
    32
  0
VERTEX
  8
0
  5
3A3D
 10
107.500
 20
115.760
 30
0.000000
  70
    32
  0
VERTEX
  8
0
  5
3A3E
 10
107.489
 20
115.772
 30
0.000000
  70
    32
  0
VERTEX
  8
0
  5
3A3F
 10
107.479
 20
115.785
 30
0.000000
  70
    32
  0
VERTEX
  8
0
  5
3A40
 10
107.468
 20
115.797
 30
0.000000
  70
    32
  0
VERTEX
  8
0
  5
3A41
 10
107.458
 20
115.810
 30
0.000000
  70
    32
  0
VERTEX
  8
0
  5
3A42
 10
107.447
 20
115.824
 30
0.000000
  70
    32
  0
VERTEX
  8
0
  5
3A43
 10
107.437
 20
115.837
 30
0.000000
  70
    32
  0
VERTEX
  8
0
  5
3A44
 10
107.427
 20
115.851
 30
0.000000
  70
    32
  0
VERTEX
  8
0
  5
3A45
 10
107.417
 20
115.865
 30
0.000000
  70
    32
  0
VERTEX
  8
0
  5
3A46
 10
107.407
 20
115.879
 30
0.000000
  70
    32
  0
VERTEX
  8
0
  5
3A47
 10
107.397
 20
115.894
 30
0.000000
  70
    32
  0
VERTEX
  8
0
  5
3A48
 10
107.387
 20
115.908
 30
0.000000
  70
    32
  0
VERTEX
  8
0
  5
3A49
 10
107.378
 20
115.923
 30
0.000000
  70
    32
  0
VERTEX
  8
0
  5
3A4A
 10
107.368
 20
115.939
 30
0.000000
  70
    32
  0
VERTEX
  8
0
  5
3A4B
 10
107.358
 20
115.954
 30
0.000000
  70
    32
  0
VERTEX
  8
0
  5
3A4C
 10
107.349
 20
115.970
 30
0.000000
  70
    32
  0
VERTEX
  8
0
  5
3A4D
 10
107.340
 20
115.986
 30
0.000000
  70
    32
  0
VERTEX
  8
0
  5
3A4E
 10
107.330
 20
116.002
 30
0.000000
  70
    32
  0
VERTEX
  8
0
  5
3A4F
 10
107.321
 20
116.018
 30
0.000000
  70
    32
  0
VERTEX
  8
0
  5
3A50
 10
107.312
 20
116.035
 30
0.000000
  70
    32
  0
VERTEX
  8
0
  5
3A51
 10
107.303
 20
116.052
 30
0.000000
  70
    32
  0
VERTEX
  8
0
  5
3A52
 10
107.294
 20
116.069
 30
0.000000
  70
    32
  0
VERTEX
  8
0
  5
3A53
 10
107.286
 20
116.086
 30
0.000000
  70
    32
  0
VERTEX
  8
0
  5
3A54
 10
107.277
 20
116.103
 30
0.000000
  70
    32
  0
VERTEX
  8
0
  5
3A55
 10
107.269
 20
116.121
 30
0.000000
  70
    32
  0
VERTEX
  8
0
  5
3A56
 10
107.260
 20
116.139
 30
0.000000
  70
    32
  0
VERTEX
  8
0
  5
3A57
 10
107.252
 20
116.157
 30
0.000000
  70
    32
  0
VERTEX
  8
0
  5
3A58
 10
107.244
 20
116.175
 30
0.000000
  70
    32
  0
VERTEX
  8
0
  5
3A59
 10
107.236
 20
116.194
 30
0.000000
  70
    32
  0
VERTEX
  8
0
  5
3A5A
 10
107.228
 20
116.212
 30
0.000000
  70
    32
  0
VERTEX
  8
0
  5
3A5B
 10
107.220
 20
116.231
 30
0.000000
  70
    32
  0
VERTEX
  8
0
  5
3A5C
 10
107.212
 20
116.250
 30
0.000000
  70
    32
  0
VERTEX
  8
0
  5
3A5D
 10
107.204
 20
116.270
 30
0.000000
  70
    32
  0
VERTEX
  8
0
  5
3A5E
 10
107.197
 20
116.289
 30
0.000000
  70
    32
  0
VERTEX
  8
0
  5
3A5F
 10
107.190
 20
116.309
 30
0.000000
  70
    32
  0
VERTEX
  8
0
  5
3A60
 10
107.182
 20
116.328
 30
0.000000
  70
    32
  0
VERTEX
  8
0
  5
3A61
 10
107.175
 20
116.348
 30
0.000000
  70
    32
  0
VERTEX
  8
0
  5
3A62
 10
107.168
 20
116.369
 30
0.000000
  70
    32
  0
VERTEX
  8
0
  5
3A63
 10
107.161
 20
116.389
 30
0.000000
  70
    32
  0
VERTEX
  8
0
  5
3A64
 10
107.155
 20
116.409
 30
0.000000
  70
    32
  0
VERTEX
  8
0
  5
3A65
 10
107.148
 20
116.430
 30
0.000000
  70
    32
  0
VERTEX
  8
0
  5
3A66
 10
107.141
 20
116.451
 30
0.000000
  70
    32
  0
VERTEX
  8
0
  5
3A67
 10
107.135
 20
116.472
 30
0.000000
  70
    32
  0
VERTEX
  8
0
  5
3A68
 10
107.129
 20
116.493
 30
0.000000
  70
    32
  0
VERTEX
  8
0
  5
3A69
 10
107.123
 20
116.514
 30
0.000000
  70
    32
  0
VERTEX
  8
0
  5
3A6A
 10
107.117
 20
116.536
 30
0.000000
  70
    32
  0
VERTEX
  8
0
  5
3A6B
 10
107.111
 20
116.557
 30
0.000000
  70
    32
  0
VERTEX
  8
0
  5
3A6C
 10
107.105
 20
116.579
 30
0.000000
  70
    32
  0
VERTEX
  8
0
  5
3A6D
 10
107.100
 20
116.601
 30
0.000000
  70
    32
  0
VERTEX
  8
0
  5
3A6E
 10
107.094
 20
116.623
 30
0.000000
  70
    32
  0
VERTEX
  8
0
  5
3A6F
 10
107.089
 20
116.645
 30
0.000000
  70
    32
  0
VERTEX
  8
0
  5
3A70
 10
107.084
 20
116.667
 30
0.000000
  70
    32
  0
VERTEX
  8
0
  5
3A71
 10
107.079
 20
116.690
 30
0.000000
  70
    32
  0
VERTEX
  8
0
  5
3A72
 10
107.074
 20
116.712
 30
0.000000
  70
    32
  0
VERTEX
  8
0
  5
3A73
 10
107.069
 20
116.735
 30
0.000000
  70
    32
  0
VERTEX
  8
0
  5
3A74
 10
107.064
 20
116.757
 30
0.000000
  70
    32
  0
VERTEX
  8
0
  5
3A75
 10
107.060
 20
116.780
 30
0.000000
  70
    32
  0
VERTEX
  8
0
  5
3A76
 10
107.055
 20
116.803
 30
0.000000
  70
    32
  0
VERTEX
  8
0
  5
3A77
 10
107.051
 20
116.826
 30
0.000000
  70
    32
  0
VERTEX
  8
0
  5
3A78
 10
107.047
 20
116.849
 30
0.000000
  70
    32
  0
VERTEX
  8
0
  5
3A79
 10
107.043
 20
116.873
 30
0.000000
  70
    32
  0
VERTEX
  8
0
  5
3A7A
 10
107.040
 20
116.896
 30
0.000000
  70
    32
  0
VERTEX
  8
0
  5
3A7B
 10
107.036
 20
116.919
 30
0.000000
  70
    32
  0
VERTEX
  8
0
  5
3A7C
 10
107.032
 20
116.943
 30
0.000000
  70
    32
  0
VERTEX
  8
0
  5
3A7D
 10
107.029
 20
116.967
 30
0.000000
  70
    32
  0
VERTEX
  8
0
  5
3A7E
 10
107.026
 20
116.990
 30
0.000000
  70
    32
  0
VERTEX
  8
0
  5
3A7F
 10
107.023
 20
117.014
 30
0.000000
  70
    32
  0
VERTEX
  8
0
  5
3A80
 10
107.020
 20
117.038
 30
0.000000
  70
    32
  0
VERTEX
  8
0
  5
3A81
 10
107.017
 20
117.062
 30
0.000000
  70
    32
  0
VERTEX
  8
0
  5
3A82
 10
107.014
 20
117.086
 30
0.000000
  70
    32
  0
VERTEX
  8
0
  5
3A83
 10
107.012
 20
117.110
 30
0.000000
  70
    32
  0
VERTEX
  8
0
  5
3A84
 10
107.010
 20
117.134
 30
0.000000
  70
    32
  0
VERTEX
  8
0
  5
3A85
 10
107.008
 20
117.158
 30
0.000000
  70
    32
  0
VERTEX
  8
0
  5
3A86
 10
107.006
 20
117.182
 30
0.000000
  70
    32
  0
VERTEX
  8
0
  5
3A87
 10
107.004
 20
117.207
 30
0.000000
  70
    32
  0
VERTEX
  8
0
  5
3A88
 10
107.002
 20
117.231
 30
0.000000
  70
    32
  0
VERTEX
  8
0
  5
3A89
 10
107.000
 20
117.255
 30
0.000000
  70
    32
  0
VERTEX
  8
0
  5
3A8A
 10
106.999
 20
117.280
 30
0.000000
  70
    32
  0
VERTEX
  8
0
  5
3A8B
 10
106.998
 20
117.304
 30
0.000000
  70
    32
  0
VERTEX
  8
0
  5
3A8C
 10
106.997
 20
117.328
 30
0.000000
  70
    32
  0
VERTEX
  8
0
  5
3A8D
 10
106.996
 20
117.353
 30
0.000000
  70
    32
  0
VERTEX
  8
0
  5
3A8E
 10
106.995
 20
117.377
 30
0.000000
  70
    32
  0
VERTEX
  8
0
  5
3A8F
 10
106.994
 20
117.402
 30
0.000000
  70
    32
  0
VERTEX
  8
0
  5
3A90
 10
106.993
 20
117.426
 30
0.000000
  70
    32
  0
VERTEX
  8
0
  5
3A91
 10
106.993
 20
117.451
 30
0.000000
  70
    32
  0
VERTEX
  8
0
  5
3A92
 10
106.993
 20
117.475
 30
0.000000
  70
    32
  0
VERTEX
  8
0
  5
3A93
 10
106.993
 20
117.500
 30
0.000000
  70
    32
  0
SEQEND
  8
0
  5
3A94
  0
ARC
  5
3272
  8
0
 10
109.52265745301619
 20
122.8795191834506
 30
0.0
 40
1.0
 50
90.0
 51
180.0
  0
LINE
  5
3273
  8
0
 10
106.9928141639234
 20
124.5000000000009
 30
0.0
 11
106.9928141639234
 21
117.50000000000099
 31
0.0
  0
LINE
  5
3274
  8
0
 10
108.52265745301619
 20
119.00000000000099
 30
0.0
 11
106.9928141639234
 21
117.50000000000099
 31
0.0
  0
LINE
  5
3275
  8
0
 10
109.52265745301619
 20
118.00000000000099
 30
0.0
 11
107.9928141639234
 21
115.50000000000099
 31
0.0
  0
LINE
  5
3278
  8
0
 10
115.5773425469839
 20
118.00000000000099
 30
0.0
 11
117.1071858360767
 21
115.50000000000099
 31
0.0
  0
LINE
  5
3279
  8
0
 10
116.5773425469839
 20
119.00000000000099
 30
0.0
 11
118.1071858360767
 21
117.50000000000099
 31
0.0
  0
LINE
  5
327E
  8
0
 10
118.1071858360767
 20
124.5000000000009
 30
0.0
 11
116.5773425469839
 21
122.8795191834506
 31
0.0
  0
LINE
  5
327F
  8
0
 10
115.5773425469839
 20
123.8795191834506
 30
0.0
 11
117.1071858360767
 21
126.5000000000009
 31
0.0
  0
LINE
  5
3280
  8
0
 10
106.9928141639234
 20
124.5000000000009
 30
0.0
 11
108.52265745301619
 21
122.8795191834506
 31
0.0
  0
LINE
  5
3281
  8
0
 10
109.52265745301619
 20
123.8795191834506
 30
0.0
 11
107.9928141639234
 21
126.5000000000009
 31
0.0
  0
LINE
  5
3283
  8
0
 10
116.40000000000011
 20
129.50000000000091
 30
0.0
 11
116.40000000000011
 21
126.5000000000009
 31
0.0
  0
ARC
  5
3284
  8
0
 10
115.90000000000011
 20
129.50000000000091
 30
0.0
 40
0.5
 50
0.0
 51
90.0
  0
LINE
  5
3285
  8
0
 10
108.7
 20
129.50000000000091
 30
0.0
 11
116.40000000000011
 21
129.5000000000008
 31
0.0
  0
LINE
  5
3286
  8
0
 10
115.90000000000011
 20
130.00000000000091
 30
0.0
 11
109.2
 21
130.00000000000091
 31
0.0
  0
ARC
  5
3287
  8
0
 10
109.2
 20
129.50000000000091
 30
0.0
 40
0.5
 50
90.0
 51
180.0
  0
LINE
  5
3288
  8
0
 10
108.7
 20
129.50000000000091
 30
0.0
 11
108.7
 21
126.5000000000009
 31
0.0
  0
TEXT
  5
3357
  8
0
 62
     3
 10
0.0
 20
0.0
 30
0.0
 40
10.0
  1
BJ773-10050-SUS
  7
STANDARD1
  0
LINE
  5
33AE
  8
0
 10
42.950000000000003
 20
115.50000000000099
 30
0.0
 11
42.95000000000001
 21
94.000000000000966
 31
0.0
  0
LINE
  5
33B1
  8
0
 10
57.050000000000011
 20
115.50000000000099
 30
0.0
 11
57.050000000000011
 21
94.000000000000938
 31
0.0
  0
LINE
  5
33B2
  8
0
 10
119.59999999999999
 20
125.5000000000009
 30
0.0
 11
119.59999999999999
 21
94.000000000000938
 31
0.0
  0
LINE
  5
33B3
  8
0
 10
105.5000000000001
 20
125.5000000000009
 30
0.0
 11
105.5
 21
94.000000000000966
 31
0.0
  0
ARC
  5
34A9
  8
0
 10
50.0
 20
167.05000000000089
 30
0.0
 40
7.0499999999999989
 50
231.76770559408939
 51
308.23229440591041
  0
ARC
  5
34AA
  8
0
 10
50.0
 20
167.05000000000089
 30
0.0
 40
7.0499999999999989
 50
51.7677055940893
 51
128.23229440591069
  0
ARC
  5
34AB
  8
0
 10
44.70882189458888
 20
160.333904835635
 30
0.0
 40
1.5
 50
51.767705594090053
 51
86.391580273524823
  0
ARC
  5
34AC
  8
0
 10
55.29117810541112
 20
160.333904835635
 30
0.0
 40
1.5
 50
93.608419726474764
 51
128.23229440591081
  0
ARC
  5
34AD
  8
0
 10
55.291178105411163
 20
173.76609516436679
 30
0.0
 40
1.5
 50
231.7677055940888
 51
266.39158027352522
  0
ARC
  5
34AF
  8
0
 10
44.70882189458883
 20
173.76609516436679
 30
0.0
 40
1.5
 50
273.60841972647478
 51
308.23229440591109
  0
ARC
  5
3511
  8
0
 10
45.836110210726709
 20
125.48639039698639
 30
0.0
 40
1.032972345589376
 50
101.1080032871142
 51
179.24449688501869
  0
LINE
  5
3513
  8
0
 10
44.803227705455591
 20
125.50029232817521
 30
0.0
 11
44.803227705455619
 21
118.0000000000009
 31
0.0
  0
LINE
  5
3514
  8
0
 10
44.803227705455619
 20
118.0000000000009
 30
0.0
 11
25.500000000000028
 21
118.0000000000009
 31
0.0
  0
ARC
  5
3515
  8
0
 10
38.061929458672722
 20
118.07204476741801
 30
0.0
 40
6.7416832097474311
 50
337.5725213127086
 51
359.38769895411218
  0
ENDSEC
  0
EOF
