  0
SECTION
  2
HEADER
  9
$ACADVER
  1
AC1009
  9
$INSBASE
 10
0.0
 20
0.0
 30
0.0
  9
$EXTMIN
 10
0.0
 20
-2.960436562073669
 30
0.0
  9
$EXTMAX
 10
116.4870395634379
 20
146.85635116306889
 30
0.0
  9
$LIMMIN
 10
0.0
 20
0.0
  9
$LIMMAX
 10
12.0
 20
9.0
  9
$ORTHOMODE
 70
     1
  9
$REGENMODE
 70
     1
  9
$FILLMODE
 70
     1
  9
$QTEXTMODE
 70
     0
  9
$MIRRTEXT
 70
     0
  9
$DRAGMODE
 70
     2
  9
$LTSCALE
 40
5.0
  9
$OSMODE
 70
    37
  9
$ATTMODE
 70
     1
  9
$TEXTSIZE
 40
0.2
  9
$TRACEWID
 40
0.05
  9
$TEXTSTYLE
  7
STANDARD
  9
$CLAYER
  8
0
  9
$CELTYPE
  6
BYLAYER
  9
$CECOLOR
 62
   256
  9
$DIMSCALE
 40
1.0
  9
$DIMASZ
 40
0.18
  9
$DIMEXO
 40
0.0625
  9
$DIMDLI
 40
0.38
  9
$DIMRND
 40
0.0
  9
$DIMDLE
 40
0.0
  9
$DIMEXE
 40
0.18
  9
$DIMTP
 40
0.0
  9
$DIMTM
 40
0.0
  9
$DIMTXT
 40
0.18
  9
$DIMCEN
 40
0.09
  9
$DIMTSZ
 40
0.0
  9
$DIMTOL
 70
     0
  9
$DIMLIM
 70
     0
  9
$DIMTIH
 70
     1
  9
$DIMTOH
 70
     1
  9
$DIMSE1
 70
     0
  9
$DIMSE2
 70
     0
  9
$DIMTAD
 70
     0
  9
$DIMZIN
 70
     0
  9
$DIMBLK
  1

  9
$DIMASO
 70
     1
  9
$DIMSHO
 70
     1
  9
$DIMPOST
  1

  9
$DIMAPOST
  1

  9
$DIMALT
 70
     0
  9
$DIMALTD
 70
     2
  9
$DIMALTF
 40
25.399999999999999
  9
$DIMLFAC
 40
1.0
  9
$DIMTOFL
 70
     0
  9
$DIMTVP
 40
0.0
  9
$DIMTIX
 70
     0
  9
$DIMSOXD
 70
     0
  9
$DIMSAH
 70
     0
  9
$DIMBLK1
  1

  9
$DIMBLK2
  1

  9
$DIMSTYLE
  2
STANDARD
  9
$DIMCLRD
 70
     0
  9
$DIMCLRE
 70
     0
  9
$DIMCLRT
 70
     0
  9
$DIMTFAC
 40
1.0
  9
$DIMGAP
 40
0.09
  9
$LUNITS
 70
     2
  9
$LUPREC
 70
     4
  9
$SKETCHINC
 40
0.1
  9
$FILLETRAD
 40
0.0
  9
$AUNITS
 70
     0
  9
$AUPREC
 70
     0
  9
$MENU
  1
.
  9
$ELEVATION
 40
0.0
  9
$PELEVATION
 40
0.0
  9
$THICKNESS
 40
0.0
  9
$LIMCHECK
 70
     0
  9
$BLIPMODE
 70
     0
  9
$CHAMFERA
 40
0.0
  9
$CHAMFERB
 40
0.0
  9
$SKPOLY
 70
     0
  9
$TDCREATE
 40
2453083.4120647679
  9
$TDUPDATE
 40
2457114.5892576622
  9
$TDINDWG
 40
0.2861478125
  9
$TDUSRTIMER
 40
0.2861476968
  9
$USRTIMER
 70
     1
  9
$ANGBASE
 50
0.0
  9
$ANGDIR
 70
     0
  9
$PDMODE
 70
     0
  9
$PDSIZE
 40
0.0
  9
$PLINEWID
 40
0.0
  9
$COORDS
 70
     1
  9
$SPLFRAME
 70
     0
  9
$SPLINETYPE
 70
     6
  9
$SPLINESEGS
 70
     8
  9
$ATTDIA
 70
     0
  9
$ATTREQ
 70
     1
  9
$HANDLING
 70
     1
  9
$HANDSEED
  5
CEA
  9
$SURFTAB1
 70
     6
  9
$SURFTAB2
 70
     6
  9
$SURFTYPE
 70
     6
  9
$SURFU
 70
     6
  9
$SURFV
 70
     6
  9
$UCSNAME
  2

  9
$UCSORG
 10
0.0
 20
0.0
 30
0.0
  9
$UCSXDIR
 10
1.0
 20
0.0
 30
0.0
  9
$UCSYDIR
 10
0.0
 20
1.0
 30
0.0
  9
$PUCSNAME
  2

  9
$PUCSORG
 10
0.0
 20
0.0
 30
0.0
  9
$PUCSXDIR
 10
1.0
 20
0.0
 30
0.0
  9
$PUCSYDIR
 10
0.0
 20
1.0
 30
0.0
  9
$USERI1
 70
     0
  9
$USERI2
 70
     1
  9
$USERI3
 70
     0
  9
$USERI4
 70
     0
  9
$USERI5
 70
     0
  9
$USERR1
 40
0.0
  9
$USERR2
 40
0.0
  9
$USERR3
 40
0.0
  9
$USERR4
 40
0.0
  9
$USERR5
 40
0.0
  9
$WORLDVIEW
 70
     1
  9
$SHADEDGE
 70
     3
  9
$SHADEDIF
 70
    70
  9
$TILEMODE
 70
     1
  9
$MAXACTVP
 70
    64
  9
$PLIMCHECK
 70
     0
  9
$PEXTMIN
 10
0.0
 20
0.0
 30
0.0
  9
$PEXTMAX
 10
0.0
 20
0.0
 30
0.0
  9
$PLIMMIN
 10
0.0
 20
0.0
  9
$PLIMMAX
 10
12.0
 20
9.0
  9
$UNITMODE
 70
     0
  9
$VISRETAIN
 70
     1
  9
$PLINEGEN
 70
     0
  9
$PSLTSCALE
 70
     1
  0
ENDSEC
  0
SECTION
  2
TABLES
  0
TABLE
  2
VPORT
 70
     1
  0
VPORT
  2
*ACTIVE
 70
     0
 10
0.0
 20
0.0
 11
1.0
 21
1.0
 12
174.547983310153
 22
100.0
 13
0.0
 23
0.0
 14
0.5
 24
0.5
 15
0.5
 25
0.5
 16
0.0
 26
0.0
 36
1.0
 17
0.0
 27
0.0
 37
0.0
 40
200.0
 41
1.7454798331015291
 42
50.0
 43
0.0
 44
0.0
 50
0.0
 51
0.0
 71
     0
 72
  1000
 73
     1
 74
     2
 75
     0
 76
     0
 77
     0
 78
     0
  0
ENDTAB
  0
TABLE
  2
LTYPE
 70
     3
  0
LTYPE
  2
CONTINUOUS
 70
     0
  3
Solid Line
 72
    65
 73
     0
 40
0.0
  0
LTYPE
  2
CENTER
 70
     0
  3
____ _ ____ _ ____ _ ____ _ ____ _ ____ _ ____
 72
    65
 73
     4
 40
2.0
 49
1.25
 49
-0.25
 49
0.25
 49
-0.25
  0
LTYPE
  2
PHANTOM2
 70
     0
  3
___ _ _ ___ _ _ ___ _ _ ___ _ _
 72
    65
 73
     6
 40
1.25
 49
0.625
 49
-0.125
 49
0.125
 49
-0.125
 49
0.125
 49
-0.125
  0
ENDTAB
  0
TABLE
  2
LAYER
 70
     2
  0
LAYER
  2
0
 70
     0
 62
     7
  6
CONTINUOUS
  0
LAYER
  2
1
 70
     0
 62
     1
  6
CENTER
  0
ENDTAB
  0
TABLE
  2
STYLE
 70
     2
  0
STYLE
  2
STANDARD
 70
     0
 40
0.0
 41
1.0
 50
0.0
 71
     0
 42
0.2
  3
simplex.shx
  4
bigfont.shx
  0
STYLE
  2
STANDARD1
 70
     0
 40
0.0
 41
1.0
 50
0.0
 71
     0
 42
3.0
  3
txt
  4

  0
ENDTAB
  0
TABLE
  2
VIEW
 70
     0
  0
ENDTAB
  0
TABLE
  2
UCS
 70
     0
  0
ENDTAB
  0
TABLE
  2
APPID
 70
     4
  0
APPID
  2
ACAD
 70
     0
  0
APPID
  2
ACAD_MLEADERVER
 70
     0
  0
APPID
  2
ACAD_EXEMPT_FROM_CAD_STANDARDS
 70
     0
  0
APPID
  2
ACAD_NAV_VCDISPLAY
 70
     0
  0
ENDTAB
  0
TABLE
  2
DIMSTYLE
 70
     1
  0
DIMSTYLE
  2
STANDARD
 70
     0
  3

  4

  5

  6

  7

 40
1.0
 41
0.18
 42
0.0625
 43
0.38
 44
0.18
 45
0.0
 46
0.0
 47
0.0
 48
0.0
140
0.18
141
0.09
142
0.0
143
25.399999999999999
144
1.0
145
0.0
146
1.0
147
0.09
 71
     0
 72
     0
 73
     1
 74
     1
 75
     0
 76
     0
 77
     0
 78
     0
170
     0
171
     2
172
     0
173
     0
174
     0
175
     0
176
     0
177
     0
178
     0
  0
ENDTAB
  0
ENDSEC
  0
SECTION
  2
BLOCKS
  0
BLOCK
  8
0
  2
$MODEL_SPACE
 70
     0
 10
0.0
 20
0.0
 30
0.0
  3
$MODEL_SPACE
  1

  0
ENDBLK
  5
21
  8
0
  0
BLOCK
 67
     1
  8
0
  2
$PAPER_SPACE
 70
     0
 10
0.0
 20
0.0
 30
0.0
  3
$PAPER_SPACE
  1

  0
ENDBLK
  5
5B
 67
     1
  8
0
  0
ENDSEC
  0
SECTION
  2
ENTITIES
  0
LINE
  5
A65
  8
0
 10
99.753069986716412
 20
66.164819778381613
 30
0.0
 11
99.753069986716369
 21
37.564819778381491
 31
0.0
  0
LINE
  5
A66
  8
0
 10
104.7530293794167
 20
37.564819778381512
 30
0.0
 11
104.7530293794167
 21
66.164819778381613
 31
0.0
  0
LINE
  5
A67
  8
0
 10
99.753069986716383
 20
37.564819778381491
 30
0.0
 11
100.4810116534359
 21
35.564819778381512
 31
0.0
  0
LINE
  5
A68
  8
0
 10
100.4810116534359
 20
35.564819778381498
 30
0.0
 11
104.0002531538445
 21
35.564819778381498
 31
0.0
  0
LINE
  5
A69
  8
0
 10
104.7530293794165
 20
37.564819778381512
 30
0.0
 11
99.753069986716383
 21
37.564819778381491
 31
0.0
  0
LINE
  5
A6A
  8
0
 10
104.7530293794165
 20
37.564819778381491
 30
0.0
 11
104.025087712697
 21
35.564819778381512
 31
0.0
  0
LINE
  5
A7C
  8
1
 10
102.25304968306629
 20
107.6103511630907
 30
0.0
 11
102.25304968306639
 21
30.564819778381501
 31
0.0
  0
ARC
  5
A7D
  8
0
 10
102.25304968306639
 20
75.68799987833485
 30
0.0
 40
2.0000000000001559
 50
113.5781784782002
 51
66.421821521798876
  0
LINE
  5
A7E
  8
0
 10
101.4530496830666
 20
101.8103511630906
 30
0.0
 11
101.4530496830664
 21
75.687999878334864
 31
0.0
  0
LINE
  5
A7F
  8
0
 10
103.05304968306621
 20
101.8103511630906
 30
0.0
 11
103.0530496830664
 21
75.687999878334864
 31
0.0
  0
ARC
  5
A80
  8
0
 10
102.25304968306639
 20
75.68799987833485
 30
0.0
 40
0.8000000000000113
 50
179.99999999999901
 51
0.0000000000010248
  0
ARC
  5
A81
  8
0
 10
102.25304968306639
 20
101.8103511630906
 30
0.0
 40
0.8000000000000113
 50
359.99999999999898
 51
180.00000000000099
  0
LINE
  5
A82
  8
1
 10
33.153049683066413
 20
137.10635116307651
 30
0.0
 11
71.353049683066416
 21
137.10635116307651
 31
0.0
  0
ARC
  5
A83
  8
0
 10
38.966231271727828
 20
137.10635116307651
 30
0.0
 40
0.8
 50
90.0
 51
270.0
  0
ARC
  5
A84
  8
0
 10
65.539868094404966
 20
137.10635116307651
 30
0.0
 40
0.8
 50
270.0
 51
90.0
  0
LINE
  5
A85
  8
0
 10
38.966231271727828
 20
136.3063511630765
 30
0.0
 11
65.539868094404966
 21
136.3063511630765
 31
0.0
  0
LINE
  5
A86
  8
0
 10
38.966231271727828
 20
137.90635116307649
 30
0.0
 11
65.539868094404966
 21
137.90635116307649
 31
0.0
  0
LINE
  5
A87
  8
1
 10
52.253049683066394
 20
127.356351163084
 30
0.0
 11
52.253049683066401
 21
146.85635116306889
 31
0.0
  0
LINE
  5
B05
  8
0
 10
56.876049683072729
 20
66.164819778381499
 30
0.0
 11
47.630049683060122
 21
66.164819778381499
 31
0.0
  0
LINE
  5
B06
  8
0
 10
57.003049683036252
 20
66.291819778401916
 30
0.0
 11
47.503049683096599
 21
66.291819778401916
 31
0.0
  0
LINE
  5
B07
  8
0
 10
57.003049683058819
 20
78.91081977837014
 30
0.0
 11
47.503049683074032
 21
78.91081977837014
 31
0.0
  0
LINE
  5
B08
  8
0
 10
56.74904968305232
 20
79.164819778376753
 30
0.0
 11
47.757049683080588
 21
79.164819778376753
 31
0.0
  0
LINE
  5
B09
  8
0
 10
47.503049683096599
 20
66.291819778401916
 30
0.0
 11
47.630049683060179
 21
66.164819778381499
 31
0.0
  0
LINE
  5
B0A
  8
0
 10
47.503049683073982
 20
78.91081977837014
 30
0.0
 11
47.503049683066529
 21
77.90084361780832
 31
0.0
  0
LINE
  5
B0B
  8
0
 10
47.503049683066187
 20
73.900843617807695
 30
0.0
 11
47.503049683097849
 21
66.291819778401916
 31
0.0
  0
LINE
  5
B0C
  8
0
 10
47.757049683080588
 20
79.164819778376753
 30
0.0
 11
47.503049683073982
 21
78.91081977837014
 31
0.0
  0
ARC
  5
B0D
  8
0
 10
42.986021769701367
 20
75.900843617808349
 30
0.0
 40
4.9399940455550668
 50
336.11772165125461
 51
23.882278348734751
  0
LINE
  5
B0E
  8
0
 10
56.749049683052263
 20
79.164819778376753
 30
0.0
 11
57.003049683058869
 21
78.91081977837014
 31
0.0
  0
LINE
  5
B0F
  8
0
 10
57.003049683066664
 20
73.900843617807837
 30
0.0
 11
57.003049683035002
 21
66.291819778401916
 31
0.0
  0
LINE
  5
B10
  8
0
 10
57.003049683058869
 20
78.91081977837014
 30
0.0
 11
57.003049683066322
 21
77.90084361780832
 31
0.0
  0
LINE
  5
B11
  8
0
 10
57.003049683036252
 20
66.291819778401916
 30
0.0
 11
56.876049683072679
 21
66.164819778381499
 31
0.0
  0
ARC
  5
B12
  8
0
 10
61.520077596431527
 20
75.900843617808349
 30
0.0
 40
4.9399940455550668
 50
156.11772165126351
 51
203.88227834874721
  0
LINE
  5
B13
  8
0
 10
49.753069986716383
 20
39.728221553831951
 30
0.0
 11
49.753069986716369
 21
37.564819778381512
 31
0.0
  0
ARC
  5
B14
  8
0
 10
54.043175034709421
 20
40.446520666106721
 30
0.0
 40
1.009874648356931
 50
314.66121014575998
 51
45.338789854240851
  0
ARC
  5
B15
  8
0
 10
55.912431847942187
 20
40.446520666107098
 30
0.0
 40
1.363879649645745
 50
148.220025180519
 51
211.7799748194812
  0
ARC
  5
B16
  8
0
 10
48.593667518190557
 20
40.446520666107098
 30
0.0
 40
1.363879649645745
 50
328.22002518051897
 51
31.77997481948011
  0
ARC
  5
B17
  8
0
 10
50.462924331423309
 20
40.446520666106721
 30
0.0
 40
1.009874648356931
 50
134.66121014575879
 51
225.33878985424079
  0
ARC
  5
B18
  8
0
 10
52.253049683066443
 20
88.510351163090661
 30
0.0
 40
12.5
 50
290.67020770231352
 51
249.32979229768651
  0
ARC
  5
B19
  8
0
 10
52.253049683066443
 20
88.510351163090661
 30
0.0
 40
14.1
 50
288.142719827988
 51
251.857280172012
  0
LINE
  5
B1A
  8
1
 10
52.253049683066443
 20
107.6103511630906
 30
0.0
 11
52.253049683066372
 21
30.564819778381501
 31
0.0
  0
LINE
  5
B1B
  8
1
 10
33.153049683066413
 20
88.510351163090661
 30
0.0
 11
71.353049683066402
 21
88.510351163090661
 31
0.0
  0
LINE
  5
B1C
  8
0
 10
49.753069986716369
 20
66.164819778381542
 30
0.0
 11
49.753069986716412
 21
41.164819778381521
 31
0.0
  0
LINE
  5
B1D
  8
0
 10
54.753029379416667
 20
41.164819778381172
 30
0.0
 11
54.753029379416667
 21
66.164819778381542
 31
0.0
  0
LINE
  5
B1E
  8
0
 10
54.753029379416667
 20
37.564819778381512
 30
0.0
 11
54.753029379416667
 21
39.728221553832341
 31
0.0
  0
LINE
  5
B1F
  8
0
 10
49.753069986716369
 20
37.564819778381512
 30
0.0
 11
50.481011653435878
 21
35.564819778381512
 31
0.0
  0
LINE
  5
B20
  8
0
 10
50.481011653435878
 20
35.564819778381512
 30
0.0
 11
54.00025315384444
 21
35.564819778381512
 31
0.0
  0
LINE
  5
B21
  8
0
 10
54.753029379416503
 20
37.564819778381512
 30
0.0
 11
49.753069986716369
 21
37.564819778381512
 31
0.0
  0
LINE
  5
B22
  8
0
 10
54.753029379416454
 20
37.564819778381512
 30
0.0
 11
54.02508771269693
 21
35.564819778381512
 31
0.0
  0
LINE
  5
B3D
  8
0
 10
107.0030496830362
 20
66.291819778402015
 30
0.0
 11
106.87604968307269
 21
66.164819778381599
 31
0.0
  0
LINE
  5
B3E
  8
0
 10
107.0030496830875
 20
78.910819778370239
 30
0.0
 11
107.003049683035
 21
66.291819778402015
 31
0.0
  0
LINE
  5
B3F
  8
0
 10
107.0030496830362
 20
66.291819778402015
 30
0.0
 11
97.503049683096634
 21
66.291819778402015
 31
0.0
  0
LINE
  5
B40
  8
0
 10
106.87604968307269
 20
66.164819778381599
 30
0.0
 11
97.630049683060136
 21
66.164819778381599
 31
0.0
  0
LINE
  5
B41
  8
0
 10
97.503049683045347
 20
78.910819778370239
 30
0.0
 11
97.503049683097871
 21
66.291819778402015
 31
0.0
  0
LINE
  5
B42
  8
0
 10
97.503049683096634
 20
66.291819778402015
 30
0.0
 11
97.630049683060193
 21
66.164819778381599
 31
0.0
  0
LINE
  5
B43
  8
0
 10
106.74904968305221
 20
79.164819778376852
 30
0.0
 11
107.0030496830589
 21
78.910819778370239
 31
0.0
  0
LINE
  5
B44
  8
0
 10
97.757049683080623
 20
79.164819778376852
 30
0.0
 11
97.503049683073996
 21
78.910819778370239
 31
0.0
  0
LINE
  5
B45
  8
0
 10
106.74904968305231
 20
79.164819778376852
 30
0.0
 11
103.0530496830664
 21
79.164819778376852
 31
0.0
  0
LINE
  5
B46
  8
0
 10
107.0030496830588
 20
78.910819778370239
 30
0.0
 11
103.0530496830664
 21
78.910819778370239
 31
0.0
  0
LINE
  5
B47
  8
0
 10
101.4530496830664
 20
79.164819778376852
 30
0.0
 11
97.757049683080623
 21
79.164819778376852
 31
0.0
  0
LINE
  5
B48
  8
0
 10
101.4530496830664
 20
78.910819778370239
 30
0.0
 11
97.503049683074053
 21
78.910819778370239
 31
0.0
  0
CIRCLE
  5
B4C
  8
0
 10
102.25304968306639
 20
40.446520666106927
 30
0.0
 40
0.7182991122746643
  0
ARC
  5
B52
  8
0
 10
52.253049683066408
 20
137.10635116307651
 30
0.0
 40
4.4959999999858482
 50
10.24955734974859
 51
169.75044265025139
  0
ARC
  5
B53
  8
0
 10
52.253049683066408
 20
137.10635116307651
 30
0.0
 40
4.7499999999924682
 50
9.696028398164346
 51
170.3039716018356
  0
ARC
  5
B54
  8
0
 10
52.253049683066408
 20
137.10635116307651
 30
0.0
 40
4.4959999999858482
 50
190.24955734974819
 51
349.75044265025178
  0
ARC
  5
B55
  8
0
 10
52.253049683066408
 20
137.10635116307651
 30
0.0
 40
4.7499999999924682
 50
189.696028398164
 51
350.303971601836
  0
TEXT
  5
C04
  8
0
 62
     3
 10
0.0
 20
0.0
 30
0.0
 40
10.0
  1
BJ774-05025-SUS
  7
STANDARD1
  0
ENDSEC
  0
EOF
