  0
SECTION
  2
HEADER
  9
$ACADVER
  1
AC1009
  9
$INSBASE
 10
0.0
 20
0.0
 30
0.0
  9
$EXTMIN
 10
0.0
 20
-2.960436562073669
 30
0.0
  9
$EXTMAX
 10
116.4870395634379
 20
131.60235116306231
 30
0.0
  9
$LIMMIN
 10
0.0
 20
0.0
  9
$LIMMAX
 10
12.0
 20
9.0
  9
$ORTHOMODE
 70
     1
  9
$REGENMODE
 70
     1
  9
$FILLMODE
 70
     1
  9
$QTEXTMODE
 70
     0
  9
$MIRRTEXT
 70
     0
  9
$DRAGMODE
 70
     2
  9
$LTSCALE
 40
5.0
  9
$OSMODE
 70
    37
  9
$ATTMODE
 70
     1
  9
$TEXTSIZE
 40
0.2
  9
$TRACEWID
 40
0.05
  9
$TEXTSTYLE
  7
STANDARD
  9
$CLAYER
  8
0
  9
$CELTYPE
  6
BYLAYER
  9
$CECOLOR
 62
   256
  9
$DIMSCALE
 40
1.0
  9
$DIMASZ
 40
0.18
  9
$DIMEXO
 40
0.0625
  9
$DIMDLI
 40
0.38
  9
$DIMRND
 40
0.0
  9
$DIMDLE
 40
0.0
  9
$DIMEXE
 40
0.18
  9
$DIMTP
 40
0.0
  9
$DIMTM
 40
0.0
  9
$DIMTXT
 40
0.18
  9
$DIMCEN
 40
0.09
  9
$DIMTSZ
 40
0.0
  9
$DIMTOL
 70
     0
  9
$DIMLIM
 70
     0
  9
$DIMTIH
 70
     1
  9
$DIMTOH
 70
     1
  9
$DIMSE1
 70
     0
  9
$DIMSE2
 70
     0
  9
$DIMTAD
 70
     0
  9
$DIMZIN
 70
     0
  9
$DIMBLK
  1

  9
$DIMASO
 70
     1
  9
$DIMSHO
 70
     1
  9
$DIMPOST
  1

  9
$DIMAPOST
  1

  9
$DIMALT
 70
     0
  9
$DIMALTD
 70
     2
  9
$DIMALTF
 40
25.399999999999999
  9
$DIMLFAC
 40
1.0
  9
$DIMTOFL
 70
     0
  9
$DIMTVP
 40
0.0
  9
$DIMTIX
 70
     0
  9
$DIMSOXD
 70
     0
  9
$DIMSAH
 70
     0
  9
$DIMBLK1
  1

  9
$DIMBLK2
  1

  9
$DIMSTYLE
  2
STANDARD
  9
$DIMCLRD
 70
     0
  9
$DIMCLRE
 70
     0
  9
$DIMCLRT
 70
     0
  9
$DIMTFAC
 40
1.0
  9
$DIMGAP
 40
0.09
  9
$LUNITS
 70
     2
  9
$LUPREC
 70
     4
  9
$SKETCHINC
 40
0.1
  9
$FILLETRAD
 40
0.0
  9
$AUNITS
 70
     0
  9
$AUPREC
 70
     0
  9
$MENU
  1
.
  9
$ELEVATION
 40
0.0
  9
$PELEVATION
 40
0.0
  9
$THICKNESS
 40
0.0
  9
$LIMCHECK
 70
     0
  9
$BLIPMODE
 70
     0
  9
$CHAMFERA
 40
0.0
  9
$CHAMFERB
 40
0.0
  9
$SKPOLY
 70
     0
  9
$TDCREATE
 40
2453083.4120647679
  9
$TDUPDATE
 40
2457114.5892742709
  9
$TDINDWG
 40
0.2115548843
  9
$TDUSRTIMER
 40
0.2115547685
  9
$USRTIMER
 70
     1
  9
$ANGBASE
 50
0.0
  9
$ANGDIR
 70
     0
  9
$PDMODE
 70
     0
  9
$PDSIZE
 40
0.0
  9
$PLINEWID
 40
0.0
  9
$COORDS
 70
     1
  9
$SPLFRAME
 70
     0
  9
$SPLINETYPE
 70
     6
  9
$SPLINESEGS
 70
     8
  9
$ATTDIA
 70
     0
  9
$ATTREQ
 70
     1
  9
$HANDLING
 70
     1
  9
$HANDSEED
  5
B8C
  9
$SURFTAB1
 70
     6
  9
$SURFTAB2
 70
     6
  9
$SURFTYPE
 70
     6
  9
$SURFU
 70
     6
  9
$SURFV
 70
     6
  9
$UCSNAME
  2

  9
$UCSORG
 10
0.0
 20
0.0
 30
0.0
  9
$UCSXDIR
 10
1.0
 20
0.0
 30
0.0
  9
$UCSYDIR
 10
0.0
 20
1.0
 30
0.0
  9
$PUCSNAME
  2

  9
$PUCSORG
 10
0.0
 20
0.0
 30
0.0
  9
$PUCSXDIR
 10
1.0
 20
0.0
 30
0.0
  9
$PUCSYDIR
 10
0.0
 20
1.0
 30
0.0
  9
$USERI1
 70
     0
  9
$USERI2
 70
     1
  9
$USERI3
 70
     0
  9
$USERI4
 70
     0
  9
$USERI5
 70
     0
  9
$USERR1
 40
0.0
  9
$USERR2
 40
0.0
  9
$USERR3
 40
0.0
  9
$USERR4
 40
0.0
  9
$USERR5
 40
0.0
  9
$WORLDVIEW
 70
     1
  9
$SHADEDGE
 70
     3
  9
$SHADEDIF
 70
    70
  9
$TILEMODE
 70
     1
  9
$MAXACTVP
 70
    64
  9
$PLIMCHECK
 70
     0
  9
$PEXTMIN
 10
0.0
 20
0.0
 30
0.0
  9
$PEXTMAX
 10
0.0
 20
0.0
 30
0.0
  9
$PLIMMIN
 10
0.0
 20
0.0
  9
$PLIMMAX
 10
12.0
 20
9.0
  9
$UNITMODE
 70
     0
  9
$VISRETAIN
 70
     1
  9
$PLINEGEN
 70
     0
  9
$PSLTSCALE
 70
     1
  0
ENDSEC
  0
SECTION
  2
TABLES
  0
TABLE
  2
VPORT
 70
     1
  0
VPORT
  2
*ACTIVE
 70
     0
 10
0.0
 20
0.0
 11
1.0
 21
1.0
 12
174.547983310153
 22
100.0
 13
0.0
 23
0.0
 14
0.5
 24
0.5
 15
0.5
 25
0.5
 16
0.0
 26
0.0
 36
1.0
 17
0.0
 27
0.0
 37
0.0
 40
200.0
 41
1.7454798331015291
 42
50.0
 43
0.0
 44
0.0
 50
0.0
 51
0.0
 71
     0
 72
  1000
 73
     1
 74
     2
 75
     0
 76
     0
 77
     0
 78
     0
  0
ENDTAB
  0
TABLE
  2
LTYPE
 70
     3
  0
LTYPE
  2
CONTINUOUS
 70
     0
  3
Solid Line
 72
    65
 73
     0
 40
0.0
  0
LTYPE
  2
CENTER
 70
     0
  3
____ _ ____ _ ____ _ ____ _ ____ _ ____ _ ____
 72
    65
 73
     4
 40
2.0
 49
1.25
 49
-0.25
 49
0.25
 49
-0.25
  0
LTYPE
  2
PHANTOM2
 70
     0
  3
___ _ _ ___ _ _ ___ _ _ ___ _ _
 72
    65
 73
     6
 40
1.25
 49
0.625
 49
-0.125
 49
0.125
 49
-0.125
 49
0.125
 49
-0.125
  0
ENDTAB
  0
TABLE
  2
LAYER
 70
     2
  0
LAYER
  2
0
 70
     0
 62
     7
  6
CONTINUOUS
  0
LAYER
  2
1
 70
     0
 62
     1
  6
CENTER
  0
ENDTAB
  0
TABLE
  2
STYLE
 70
     2
  0
STYLE
  2
STANDARD
 70
     0
 40
0.0
 41
1.0
 50
0.0
 71
     0
 42
0.2
  3
simplex.shx
  4
bigfont.shx
  0
STYLE
  2
STANDARD1
 70
     0
 40
0.0
 41
1.0
 50
0.0
 71
     0
 42
3.0
  3
txt
  4

  0
ENDTAB
  0
TABLE
  2
VIEW
 70
     0
  0
ENDTAB
  0
TABLE
  2
UCS
 70
     0
  0
ENDTAB
  0
TABLE
  2
APPID
 70
     4
  0
APPID
  2
ACAD
 70
     0
  0
APPID
  2
ACAD_MLEADERVER
 70
     0
  0
APPID
  2
ACAD_EXEMPT_FROM_CAD_STANDARDS
 70
     0
  0
APPID
  2
ACAD_NAV_VCDISPLAY
 70
     0
  0
ENDTAB
  0
TABLE
  2
DIMSTYLE
 70
     1
  0
DIMSTYLE
  2
STANDARD
 70
     0
  3

  4

  5

  6

  7

 40
1.0
 41
0.18
 42
0.0625
 43
0.38
 44
0.18
 45
0.0
 46
0.0
 47
0.0
 48
0.0
140
0.18
141
0.09
142
0.0
143
25.399999999999999
144
1.0
145
0.0
146
1.0
147
0.09
 71
     0
 72
     0
 73
     1
 74
     1
 75
     0
 76
     0
 77
     0
 78
     0
170
     0
171
     2
172
     0
173
     0
174
     0
175
     0
176
     0
177
     0
178
     0
  0
ENDTAB
  0
ENDSEC
  0
SECTION
  2
BLOCKS
  0
BLOCK
  8
0
  2
$MODEL_SPACE
 70
     0
 10
0.0
 20
0.0
 30
0.0
  3
$MODEL_SPACE
  1

  0
ENDBLK
  5
21
  8
0
  0
BLOCK
 67
     1
  8
0
  2
$PAPER_SPACE
 70
     0
 10
0.0
 20
0.0
 30
0.0
  3
$PAPER_SPACE
  1

  0
ENDBLK
  5
5B
 67
     1
  8
0
  0
ENDSEC
  0
SECTION
  2
ENTITIES
  0
LINE
  5
8D3
  8
0
 10
49.992637199100642
 20
28.16481977838151
 30
0.0
 11
54.553049683066348
 21
28.16481977838151
 31
0.0
  0
LINE
  5
8D5
  8
0
 10
56.876049683072701
 20
51.164819778381542
 30
0.0
 11
47.630049683060101
 21
51.164819778381549
 31
0.0
  0
LINE
  5
8D6
  8
0
 10
57.003049683036217
 20
51.291819778401972
 30
0.0
 11
47.503049683096577
 21
51.291819778401958
 31
0.0
  0
LINE
  5
8D7
  8
0
 10
57.003049683058791
 20
63.910819778370183
 30
0.0
 11
47.503049683074018
 21
63.910819778370183
 31
0.0
  0
LINE
  5
8D8
  8
0
 10
56.749049683052277
 20
64.164819778376796
 30
0.0
 11
47.757049683080567
 21
64.164819778376796
 31
0.0
  0
LINE
  5
8DC
  8
0
 10
49.253049683066401
 20
51.16481977837018
 30
0.0
 11
49.253049683066337
 21
36.164819778381549
 31
0.0
  0
LINE
  5
8DD
  8
0
 10
49.253049683066379
 20
34.164819778381172
 30
0.0
 11
49.253049683066379
 21
30.164819778381521
 31
0.0
  0
LINE
  5
8E0
  8
0
 10
47.503049683096577
 20
51.291819778401972
 30
0.0
 11
47.630049683060157
 21
51.164819778381549
 31
0.0
  0
LINE
  5
8E1
  8
0
 10
47.503049683073947
 20
63.910819778370183
 30
0.0
 11
47.503049683066507
 21
62.900843617808349
 31
0.0
  0
LINE
  5
8E2
  8
0
 10
47.503049683066173
 20
58.900843617807737
 30
0.0
 11
47.503049683097828
 21
51.291819778401972
 31
0.0
  0
LINE
  5
8E5
  8
0
 10
47.757049683080567
 20
64.164819778376796
 30
0.0
 11
47.503049683073947
 21
63.910819778370183
 31
0.0
  0
LINE
  5
901
  8
1
 10
52.253049683066401
 20
92.610351163090655
 30
0.0
 11
52.253049683066401
 21
23.16481977838151
 31
0.0
  0
ARC
  5
910
  8
0
 10
46.512692843506287
 20
35.164819778381258
 30
0.0
 40
2.9171142603819931
 50
339.95216604499592
 51
20.047833955030761
  0
LINE
  5
919
  8
0
 10
49.253049683066401
 20
30.164819778381521
 30
0.0
 11
55.25304968306628
 21
30.164819778381499
 31
0.0
  0
LINE
  5
923
  8
0
 10
49.253049683066571
 20
30.164819778381499
 30
0.0
 11
49.95304968306656
 21
28.16481977838151
 31
0.0
  0
ARC
  5
943
  8
0
 10
42.98602176970136
 20
60.900843617808391
 30
0.0
 40
4.9399940455550668
 50
336.11772165125302
 51
23.882278348735781
  0
LINE
  5
945
  8
0
 10
56.749049683052228
 20
64.164819778376796
 30
0.0
 11
57.00304968305884
 21
63.910819778370183
 31
0.0
  0
LINE
  5
946
  8
0
 10
57.003049683066628
 20
58.900843617807872
 30
0.0
 11
57.003049683034959
 21
51.291819778401972
 31
0.0
  0
LINE
  5
947
  8
0
 10
57.00304968305884
 20
63.910819778370183
 30
0.0
 11
57.00304968306628
 21
62.900843617808349
 31
0.0
  0
LINE
  5
948
  8
0
 10
57.003049683036217
 20
51.291819778401972
 30
0.0
 11
56.876049683072637
 21
51.164819778381549
 31
0.0
  0
ARC
  5
94D
  8
0
 10
52.253049683066401
 20
73.510351163090661
 30
0.0
 40
12.5
 50
290.67020770231392
 51
249.3297922976864
  0
ARC
  5
94F
  8
0
 10
52.253049683066401
 20
73.510351163090661
 30
0.0
 40
14.1
 50
288.14271982798812
 51
251.85728017201211
  0
LINE
  5
951
  8
1
 10
33.153049683066413
 20
73.510351163090661
 30
0.0
 11
71.353049683066416
 21
73.510351163090661
 31
0.0
  0
ARC
  5
95B
  8
0
 10
61.520077596431499
 20
60.900843617808391
 30
0.0
 40
4.9399940455550668
 50
156.11772165126419
 51
203.88227834874701
  0
LINE
  5
985
  8
0
 10
55.25304968306623
 20
30.164819778381499
 30
0.0
 11
54.553049683066241
 21
28.16481977838151
 31
0.0
  0
ARC
  5
986
  8
0
 10
57.993406522626479
 20
35.164819778381258
 30
0.0
 40
2.9171142603819931
 50
159.9521660449692
 51
200.04783395500419
  0
LINE
  5
987
  8
0
 10
55.253049683066379
 20
34.164819778381172
 30
0.0
 11
55.253049683066379
 21
30.164819778381499
 31
0.0
  0
LINE
  5
988
  8
0
 10
55.253049683066401
 20
51.16481977837018
 30
0.0
 11
55.25304968306645
 21
36.16481977838157
 31
0.0
  0
LINE
  5
98D
  8
1
 10
52.253049683066401
 20
112.6103511630906
 30
0.0
 11
52.253049683066401
 21
131.60235116306231
 31
0.0
  0
ARC
  5
98E
  8
0
 10
52.253049683066401
 20
122.1063511630765
 30
0.0
 40
4.7499999999924389
 50
189.6960283981642
 51
350.30397160183583
  0
ARC
  5
98F
  8
0
 10
52.253049683066401
 20
122.1063511630765
 30
0.0
 40
4.495999999985826
 50
190.24955734974839
 51
349.75044265025161
  0
LINE
  5
991
  8
0
 10
38.966231271727828
 20
122.90635116307649
 30
0.0
 11
65.539868094404966
 21
122.90635116307649
 31
0.0
  0
LINE
  5
992
  8
0
 10
38.966231271727828
 20
121.3063511630765
 30
0.0
 11
65.539868094404966
 21
121.3063511630765
 31
0.0
  0
ARC
  5
995
  8
0
 10
65.539868094404966
 20
122.1063511630765
 30
0.0
 40
0.8
 50
270.0
 51
90.0
  0
ARC
  5
996
  8
0
 10
38.966231271727828
 20
122.1063511630765
 30
0.0
 40
0.8
 50
90.0
 51
270.0
  0
ARC
  5
997
  8
0
 10
52.253049683066401
 20
122.1063511630765
 30
0.0
 40
4.7499999999924389
 50
9.6960283981642217
 51
170.30397160183571
  0
ARC
  5
998
  8
0
 10
52.253049683066401
 20
122.1063511630765
 30
0.0
 40
4.495999999985826
 50
10.249557349748409
 51
169.75044265025161
  0
LINE
  5
999
  8
1
 10
33.153049683066413
 20
122.1063511630765
 30
0.0
 11
71.353049683066416
 21
122.1063511630765
 31
0.0
  0
ARC
  5
9B6
  8
0
 10
49.753049683066379
 20
35.164819778381357
 30
0.0
 40
1.0
 50
117.47903396379451
 51
242.52096603620839
  0
ARC
  5
9B9
  8
0
 10
54.753049683066301
 20
35.164819778381357
 30
0.0
 40
1.0
 50
297.47903396379161
 51
62.520966036205479
  0
CIRCLE
  5
9C6
  8
0
 10
102.25304968306639
 20
35.164819778381329
 30
0.0
 40
0.8871999999999999
  0
LINE
  5
9C7
  8
0
 10
105.25304968306619
 20
30.164819778381592
 30
0.0
 11
104.55304968306621
 21
28.164819778381609
 31
0.0
  0
LINE
  5
9C8
  8
0
 10
105.25304968306639
 20
30.164819778381609
 30
0.0
 11
99.253049683066507
 21
30.164819778381592
 31
0.0
  0
LINE
  5
9C9
  8
0
 10
104.5134621670321
 20
28.164819778381609
 30
0.0
 11
99.953049683066439
 21
28.164819778381609
 31
0.0
  0
LINE
  5
9CA
  8
0
 10
99.253049683066507
 20
30.164819778381592
 30
0.0
 11
99.953049683066496
 21
28.164819778381609
 31
0.0
  0
LINE
  5
9CB
  8
0
 10
105.25304968306639
 20
51.164819778370209
 30
0.0
 11
105.25304968306639
 21
30.164819778381609
 31
0.0
  0
LINE
  5
9CC
  8
0
 10
99.253049683066394
 20
51.164819778370209
 30
0.0
 11
99.253049683066308
 21
30.164819778381592
 31
0.0
  0
LINE
  5
9CD
  8
0
 10
103.0530496830664
 20
64.164819778376824
 30
0.0
 11
106.74904968305221
 21
64.164819778376824
 31
0.0
  0
LINE
  5
9CE
  8
0
 10
103.0530496830664
 20
63.910819778370211
 30
0.0
 11
107.0030496830588
 21
63.910819778370211
 31
0.0
  0
LINE
  5
9CF
  8
0
 10
107.0030496830874
 20
63.910819778370211
 30
0.0
 11
107.0030496830349
 21
51.291819778402001
 31
0.0
  0
LINE
  5
9D0
  8
0
 10
97.503049683045333
 20
63.910819778370211
 30
0.0
 11
97.503049683097842
 21
51.291819778402001
 31
0.0
  0
LINE
  5
9D1
  8
0
 10
97.630049683060093
 20
51.164819778381592
 30
0.0
 11
106.87604968307269
 21
51.164819778381592
 31
0.0
  0
LINE
  5
9D2
  8
0
 10
97.503049683096577
 20
51.291819778402008
 30
0.0
 11
107.0030496830362
 21
51.291819778402001
 31
0.0
  0
LINE
  5
9D3
  8
0
 10
107.0030496830362
 20
51.291819778402001
 30
0.0
 11
106.87604968307259
 21
51.164819778381592
 31
0.0
  0
LINE
  5
9D4
  8
0
 10
97.503049683096577
 20
51.291819778402001
 30
0.0
 11
97.63004968306015
 21
51.164819778381592
 31
0.0
  0
LINE
  5
9D5
  8
0
 10
97.503049683074025
 20
63.910819778370211
 30
0.0
 11
101.4530496830664
 21
63.910819778370211
 31
0.0
  0
LINE
  5
9D6
  8
0
 10
97.75704968308051
 20
64.164819778376852
 30
0.0
 11
101.4530496830664
 21
64.164819778376824
 31
0.0
  0
LINE
  5
9D7
  8
0
 10
106.74904968305221
 20
64.164819778376824
 30
0.0
 11
107.0030496830588
 21
63.910819778370211
 31
0.0
  0
LINE
  5
9D8
  8
0
 10
97.757049683080567
 20
64.164819778376824
 30
0.0
 11
97.503049683073954
 21
63.910819778370211
 31
0.0
  0
ARC
  5
9D9
  8
0
 10
102.25304968306639
 20
86.810351163090658
 30
0.0
 40
0.8000000000000113
 50
359.99999999999898
 51
180.00000000000099
  0
ARC
  5
9DA
  8
0
 10
102.25304968306639
 20
60.900843617807922
 30
0.0
 40
0.8000000000000113
 50
179.99999999999901
 51
0.0000000000010248
  0
LINE
  5
9DB
  8
0
 10
103.05304968306621
 20
86.810351163090658
 30
0.0
 11
103.0530496830664
 21
60.900843617807922
 31
0.0
  0
LINE
  5
9DC
  8
0
 10
101.4530496830666
 20
86.810351163090658
 30
0.0
 11
101.4530496830664
 21
60.900843617807922
 31
0.0
  0
ARC
  5
9DD
  8
0
 10
102.25304968306639
 20
60.900843617807922
 30
0.0
 40
2.0000000000001559
 50
113.5781784782002
 51
66.421821521798876
  0
LINE
  5
9DE
  8
1
 10
102.25304968306629
 20
92.610351163090684
 30
0.0
 11
102.25304968306639
 21
23.164819778381609
 31
0.0
  0
TEXT
  5
AA6
  8
0
 62
     3
 10
0.0
 20
0.0
 30
0.0
 40
10.0
  1
BJ774-06015-SUS
  7
STANDARD1
  0
ENDSEC
  0
EOF
