  0
SECTION
  2
HEADER
  9
$ACADVER
  1
AC1009
  9
$INSBASE
 10
0.0
 20
0.0
 30
0.0
  9
$EXTMIN
 10
0.0
 20
-2.960436562073669
 30
0.0
  9
$EXTMAX
 10
116.4870395634379
 20
198.80005553180629
 30
0.0
  9
$LIMMIN
 10
0.0
 20
0.0
  9
$LIMMAX
 10
12.0
 20
9.0
  9
$ORTHOMODE
 70
     1
  9
$REGENMODE
 70
     1
  9
$FILLMODE
 70
     1
  9
$QTEXTMODE
 70
     0
  9
$MIRRTEXT
 70
     0
  9
$DRAGMODE
 70
     2
  9
$LTSCALE
 40
10.0
  9
$OSMODE
 70
    37
  9
$ATTMODE
 70
     1
  9
$TEXTSIZE
 40
0.2
  9
$TRACEWID
 40
0.05
  9
$TEXTSTYLE
  7
STANDARD
  9
$CLAYER
  8
0
  9
$CELTYPE
  6
BYLAYER
  9
$CECOLOR
 62
   256
  9
$DIMSCALE
 40
1.0
  9
$DIMASZ
 40
0.18
  9
$DIMEXO
 40
0.0625
  9
$DIMDLI
 40
0.38
  9
$DIMRND
 40
0.0
  9
$DIMDLE
 40
0.0
  9
$DIMEXE
 40
0.18
  9
$DIMTP
 40
0.0
  9
$DIMTM
 40
0.0
  9
$DIMTXT
 40
0.18
  9
$DIMCEN
 40
0.09
  9
$DIMTSZ
 40
0.0
  9
$DIMTOL
 70
     0
  9
$DIMLIM
 70
     0
  9
$DIMTIH
 70
     1
  9
$DIMTOH
 70
     1
  9
$DIMSE1
 70
     0
  9
$DIMSE2
 70
     0
  9
$DIMTAD
 70
     0
  9
$DIMZIN
 70
     0
  9
$DIMBLK
  1

  9
$DIMASO
 70
     1
  9
$DIMSHO
 70
     1
  9
$DIMPOST
  1

  9
$DIMAPOST
  1

  9
$DIMALT
 70
     0
  9
$DIMALTD
 70
     2
  9
$DIMALTF
 40
25.399999999999999
  9
$DIMLFAC
 40
1.0
  9
$DIMTOFL
 70
     0
  9
$DIMTVP
 40
0.0
  9
$DIMTIX
 70
     0
  9
$DIMSOXD
 70
     0
  9
$DIMSAH
 70
     0
  9
$DIMBLK1
  1

  9
$DIMBLK2
  1

  9
$DIMSTYLE
  2
STANDARD
  9
$DIMCLRD
 70
     0
  9
$DIMCLRE
 70
     0
  9
$DIMCLRT
 70
     0
  9
$DIMTFAC
 40
1.0
  9
$DIMGAP
 40
0.09
  9
$LUNITS
 70
     2
  9
$LUPREC
 70
     4
  9
$SKETCHINC
 40
0.1
  9
$FILLETRAD
 40
0.0
  9
$AUNITS
 70
     0
  9
$AUPREC
 70
     0
  9
$MENU
  1
.
  9
$ELEVATION
 40
0.0
  9
$PELEVATION
 40
0.0
  9
$THICKNESS
 40
0.0
  9
$LIMCHECK
 70
     0
  9
$BLIPMODE
 70
     0
  9
$CHAMFERA
 40
0.0
  9
$CHAMFERB
 40
0.0
  9
$SKPOLY
 70
     0
  9
$TDCREATE
 40
2453083.4120647679
  9
$TDUPDATE
 40
2457114.5893887379
  9
$TDINDWG
 40
0.2602432639
  9
$TDUSRTIMER
 40
2456598.4105744329
  9
$USRTIMER
 70
     1
  9
$ANGBASE
 50
0.0
  9
$ANGDIR
 70
     0
  9
$PDMODE
 70
     0
  9
$PDSIZE
 40
0.0
  9
$PLINEWID
 40
0.0
  9
$COORDS
 70
     1
  9
$SPLFRAME
 70
     0
  9
$SPLINETYPE
 70
     6
  9
$SPLINESEGS
 70
     8
  9
$ATTDIA
 70
     0
  9
$ATTREQ
 70
     1
  9
$HANDLING
 70
     1
  9
$HANDSEED
  5
1138
  9
$SURFTAB1
 70
     6
  9
$SURFTAB2
 70
     6
  9
$SURFTYPE
 70
     6
  9
$SURFU
 70
     6
  9
$SURFV
 70
     6
  9
$UCSNAME
  2

  9
$UCSORG
 10
0.0
 20
0.0
 30
0.0
  9
$UCSXDIR
 10
1.0
 20
0.0
 30
0.0
  9
$UCSYDIR
 10
0.0
 20
1.0
 30
0.0
  9
$PUCSNAME
  2

  9
$PUCSORG
 10
0.0
 20
0.0
 30
0.0
  9
$PUCSXDIR
 10
1.0
 20
0.0
 30
0.0
  9
$PUCSYDIR
 10
0.0
 20
1.0
 30
0.0
  9
$USERI1
 70
     0
  9
$USERI2
 70
     1
  9
$USERI3
 70
     0
  9
$USERI4
 70
     0
  9
$USERI5
 70
     0
  9
$USERR1
 40
0.0
  9
$USERR2
 40
0.0
  9
$USERR3
 40
0.0
  9
$USERR4
 40
0.0
  9
$USERR5
 40
0.0
  9
$WORLDVIEW
 70
     1
  9
$SHADEDGE
 70
     3
  9
$SHADEDIF
 70
    70
  9
$TILEMODE
 70
     1
  9
$MAXACTVP
 70
    64
  9
$PLIMCHECK
 70
     0
  9
$PEXTMIN
 10
0.0
 20
0.0
 30
0.0
  9
$PEXTMAX
 10
0.0
 20
0.0
 30
0.0
  9
$PLIMMIN
 10
0.0
 20
0.0
  9
$PLIMMAX
 10
12.0
 20
9.0
  9
$UNITMODE
 70
     0
  9
$VISRETAIN
 70
     1
  9
$PLINEGEN
 70
     0
  9
$PSLTSCALE
 70
     1
  0
ENDSEC
  0
SECTION
  2
TABLES
  0
TABLE
  2
VPORT
 70
     1
  0
VPORT
  2
*ACTIVE
 70
     0
 10
0.0
 20
0.0
 11
1.0
 21
1.0
 12
174.547983310153
 22
100.0
 13
0.0
 23
0.0
 14
0.5
 24
0.5
 15
0.5
 25
0.5
 16
0.0
 26
0.0
 36
1.0
 17
0.0
 27
0.0
 37
0.0
 40
200.0
 41
1.7454798331015291
 42
50.0
 43
0.0
 44
0.0
 50
0.0
 51
0.0
 71
     0
 72
  1000
 73
     1
 74
     2
 75
     0
 76
     0
 77
     0
 78
     0
  0
ENDTAB
  0
TABLE
  2
LTYPE
 70
     3
  0
LTYPE
  2
CONTINUOUS
 70
     0
  3
Solid Line
 72
    65
 73
     0
 40
0.0
  0
LTYPE
  2
CENTER
 70
     0
  3
____ _ ____ _ ____ _ ____ _ ____ _ ____ _ ____
 72
    65
 73
     4
 40
2.0
 49
1.25
 49
-0.25
 49
0.25
 49
-0.25
  0
LTYPE
  2
PHANTOM2
 70
     0
  3
___ _ _ ___ _ _ ___ _ _ ___ _ _
 72
    65
 73
     6
 40
1.25
 49
0.625
 49
-0.125
 49
0.125
 49
-0.125
 49
0.125
 49
-0.125
  0
ENDTAB
  0
TABLE
  2
LAYER
 70
     2
  0
LAYER
  2
0
 70
     0
 62
     7
  6
CONTINUOUS
  0
LAYER
  2
1
 70
     0
 62
     1
  6
CENTER
  0
ENDTAB
  0
TABLE
  2
STYLE
 70
     2
  0
STYLE
  2
STANDARD
 70
     0
 40
0.0
 41
1.0
 50
0.0
 71
     0
 42
0.2
  3
simplex.shx
  4
bigfont.shx
  0
STYLE
  2
STANDARD1
 70
     0
 40
0.0
 41
1.0
 50
0.0
 71
     0
 42
3.0
  3
txt
  4

  0
ENDTAB
  0
TABLE
  2
VIEW
 70
     0
  0
ENDTAB
  0
TABLE
  2
UCS
 70
     0
  0
ENDTAB
  0
TABLE
  2
APPID
 70
     4
  0
APPID
  2
ACAD
 70
     0
  0
APPID
  2
ACAD_MLEADERVER
 70
     0
  0
APPID
  2
ACAD_NAV_VCDISPLAY
 70
     0
  0
APPID
  2
ACAD_EXEMPT_FROM_CAD_STANDARDS
 70
     0
  0
ENDTAB
  0
TABLE
  2
DIMSTYLE
 70
     1
  0
DIMSTYLE
  2
STANDARD
 70
     0
  3

  4

  5

  6

  7

 40
1.0
 41
0.18
 42
0.0625
 43
0.38
 44
0.18
 45
0.0
 46
0.0
 47
0.0
 48
0.0
140
0.18
141
0.09
142
0.0
143
25.399999999999999
144
1.0
145
0.0
146
1.0
147
0.09
 71
     0
 72
     0
 73
     1
 74
     1
 75
     0
 76
     0
 77
     0
 78
     0
170
     0
171
     2
172
     0
173
     0
174
     0
175
     0
176
     0
177
     0
178
     0
  0
ENDTAB
  0
ENDSEC
  0
SECTION
  2
BLOCKS
  0
BLOCK
  8
0
  2
$MODEL_SPACE
 70
     0
 10
0.0
 20
0.0
 30
0.0
  3
$MODEL_SPACE
  1

  0
ENDBLK
  5
21
  8
0
  0
BLOCK
 67
     1
  8
0
  2
$PAPER_SPACE
 70
     0
 10
0.0
 20
0.0
 30
0.0
  3
$PAPER_SPACE
  1

  0
ENDBLK
  5
5B
 67
     1
  8
0
  0
ENDSEC
  0
SECTION
  2
ENTITIES
  0
LINE
  5
DD7
  8
0
 10
55.553049683066433
 20
23.16481977838151
 30
0.0
 11
48.953049683066432
 21
23.16481977838151
 31
0.0
  0
LINE
  5
DD9
  8
0
 10
57.499049683066517
 20
134.66481977838151
 30
0.0
 11
47.007049683066413
 21
134.66481977838151
 31
0.0
  0
LINE
  5
DDA
  8
0
 10
57.626049683066491
 20
121.6648197783815
 30
0.0
 11
46.880049683066382
 21
121.6648197783815
 31
0.0
  0
LINE
  5
DDB
  8
0
 10
57.753049683066472
 20
134.41081977838149
 30
0.0
 11
46.753049683066422
 21
134.41081977838149
 31
0.0
  0
LINE
  5
DDC
  8
0
 10
57.75304968306645
 20
121.79181977838149
 30
0.0
 11
46.753049683066457
 21
121.79181977838149
 31
0.0
  0
LINE
  5
DE3
  8
0
 10
48.253049683066457
 20
121.6648197783815
 30
0.0
 11
48.253049683066457
 21
31.66481977838151
 31
0.0
  0
LINE
  5
DE4
  8
0
 10
48.2530496830665
 20
28.464819778381582
 30
0.0
 11
48.2530496830665
 21
25.16481977838151
 31
0.0
  0
LINE
  5
DE7
  8
0
 10
47.007049683066413
 20
134.66481977838151
 30
0.0
 11
46.753049683066422
 21
134.41081977838149
 31
0.0
  0
LINE
  5
DEA
  8
0
 10
46.753049683066457
 20
121.79181977838149
 30
0.0
 11
46.880049683066431
 21
121.6648197783815
 31
0.0
  0
LINE
  5
DEB
  8
0
 10
46.753049683066422
 20
134.41081977838149
 30
0.0
 11
46.753049683066422
 21
133.35481804934781
 31
0.0
  0
LINE
  5
DEC
  8
0
 10
46.753049683066422
 20
129.1548180493478
 30
0.0
 11
46.753049683066457
 21
121.79181977838149
 31
0.0
  0
LINE
  5
E03
  8
1
 10
52.25304968306645
 20
162.68755553180651
 30
0.0
 11
52.253049683066408
 21
18.16481977838151
 31
0.0
  0
LINE
  5
E09
  8
0
 10
48.2530496830665
 20
25.16481977838151
 30
0.0
 11
48.953049683066432
 21
23.16481977838151
 31
0.0
  0
LINE
  5
E0A
  8
0
 10
48.2530496830665
 20
25.16481977838151
 30
0.0
 11
56.253049683066401
 21
25.16481977838151
 31
0.0
  0
ARC
  5
E1B
  8
0
 10
44.505245621638807
 20
30.064819778381491
 30
0.0
 40
4.0750503411434789
 50
336.88155651701868
 51
23.118443482981899
  0
ARC
  5
E1E
  8
0
 10
49.203049683066403
 20
30.077878668009671
 30
0.0
 40
1.6000000000000001
 50
122.416726681987
 51
237.90181250092951
  0
ARC
  5
E22
  8
0
 10
55.303049683066497
 20
30.077878668009671
 30
0.0
 40
1.6000000000000001
 50
302.0981874990706
 51
57.583273318012921
  0
ARC
  5
E23
  8
0
 10
60.000853744494101
 20
30.064819778381491
 30
0.0
 40
4.0750503411434789
 50
156.88155651701811
 51
203.11844348298129
  0
LINE
  5
E24
  8
0
 10
56.253049683066422
 20
28.464819778381582
 30
0.0
 11
56.253049683066422
 21
25.16481977838151
 31
0.0
  0
LINE
  5
E25
  8
0
 10
56.253049683066472
 20
121.6648197783815
 30
0.0
 11
56.253049683066429
 21
31.664819778381489
 31
0.0
  0
LINE
  5
E26
  8
0
 10
56.253049683066422
 20
25.16481977838151
 30
0.0
 11
55.553049683066462
 21
23.16481977838151
 31
0.0
  0
ARC
  5
E46
  8
0
 10
41.809448726446313
 20
131.2548180493479
 30
0.0
 40
5.371144237338596
 50
336.98462398279821
 51
23.015376017201881
  0
ARC
  5
E5E
  8
0
 10
52.253049683066472
 20
143.58755553180649
 30
0.0
 40
12.5
 50
294.3626851335153
 51
245.63731486648419
  0
ARC
  5
E60
  8
0
 10
52.253049683066472
 20
143.58755553180649
 30
0.0
 40
14.1
 50
291.34591643537811
 51
248.6540835646216
  0
LINE
  5
E61
  8
1
 10
33.153049683066477
 20
143.58755553180649
 30
0.0
 11
71.353049683066473
 21
143.58755553180649
 31
0.0
  0
LINE
  5
E6F
  8
1
 10
33.30704689904568
 20
188.2438055318064
 30
0.0
 11
71.199052467087299
 21
188.2438055318064
 31
0.0
  0
LINE
  5
E74
  8
0
 10
39.107046899045677
 20
187.44380553180639
 30
0.0
 11
65.399052467087273
 21
187.44380553180639
 31
0.0
  0
LINE
  5
E75
  8
0
 10
39.107046899045677
 20
189.04380553180641
 30
0.0
 11
65.399052467087273
 21
189.04380553180641
 31
0.0
  0
ARC
  5
E78
  8
0
 10
65.399052467087273
 20
188.2438055318064
 30
0.0
 40
0.7999999999999972
 50
270.0
 51
90.0
  0
ARC
  5
E7B
  8
0
 10
39.107046899045677
 20
188.2438055318064
 30
0.0
 40
0.7999999999999972
 50
90.0
 51
270.0
  0
LINE
  5
E80
  8
1
 10
52.25304968306645
 20
198.80005553180629
 30
0.0
 11
52.25304968306645
 21
177.68755553180651
 31
0.0
  0
ARC
  5
E87
  8
0
 10
62.696650639686588
 20
131.2548180493479
 30
0.0
 40
5.371144237338596
 50
156.9846239827981
 51
203.01537601720179
  0
LINE
  5
E88
  8
0
 10
57.753049683066493
 20
129.1548180493478
 30
0.0
 11
57.75304968306645
 21
121.79181977838149
 31
0.0
  0
LINE
  5
E89
  8
0
 10
57.753049683066493
 20
134.41081977838149
 30
0.0
 11
57.753049683066493
 21
133.35481804934781
 31
0.0
  0
LINE
  5
E8A
  8
0
 10
57.75304968306645
 20
121.79181977838149
 30
0.0
 11
57.626049683066469
 21
121.6648197783815
 31
0.0
  0
LINE
  5
E8B
  8
0
 10
57.499049683066488
 20
134.66481977838151
 30
0.0
 11
57.753049683066493
 21
134.41081977838149
 31
0.0
  0
ARC
  5
E9E
  8
0
 10
52.253049683066472
 20
188.2438055318064
 30
0.0
 40
5.2460000000000662
 50
8.7716673537968131
 51
171.2283326462032
  0
ARC
  5
E9F
  8
0
 10
52.25304968306645
 20
188.2438055318064
 30
0.0
 40
5.5000000000000284
 50
8.3636017890267809
 51
171.6363982109732
  0
ARC
  5
EA0
  8
0
 10
52.253049683066472
 20
188.2438055318064
 30
0.0
 40
5.2460000000000662
 50
188.7716673537968
 51
351.22833264620323
  0
ARC
  5
EA1
  8
0
 10
52.25304968306645
 20
188.2438055318064
 30
0.0
 40
5.5000000000000284
 50
188.3636017890268
 51
351.63639821097348
  0
LINE
  5
EBA
  8
0
 10
103.0530496830664
 20
134.41081977838141
 30
0.0
 11
107.75304968306639
 21
134.41081977838141
 31
0.0
  0
LINE
  5
EBB
  8
0
 10
103.0530496830664
 20
134.6648197783814
 30
0.0
 11
107.4990496830664
 21
134.6648197783814
 31
0.0
  0
LINE
  5
EBC
  8
0
 10
97.007049683066384
 20
134.6648197783814
 30
0.0
 11
101.4530496830663
 21
134.6648197783814
 31
0.0
  0
LINE
  5
EBD
  8
0
 10
96.880049683066375
 20
121.6648197783815
 30
0.0
 11
107.6260496830665
 21
121.6648197783815
 31
0.0
  0
LINE
  5
EBE
  8
0
 10
96.753049683066394
 20
134.41081977838141
 30
0.0
 11
101.4530496830663
 21
134.41081977838141
 31
0.0
  0
LINE
  5
EBF
  8
0
 10
96.753049683066422
 20
121.79181977838149
 30
0.0
 11
107.75304968306639
 21
121.79181977838149
 31
0.0
  0
LINE
  5
EC0
  8
0
 10
107.4990496830664
 20
134.6648197783814
 30
0.0
 11
107.75304968306639
 21
134.41081977838141
 31
0.0
  0
LINE
  5
EC1
  8
0
 10
107.75304968306639
 20
121.79181977838149
 30
0.0
 11
107.6260496830664
 21
121.6648197783815
 31
0.0
  0
LINE
  5
EC2
  8
0
 10
107.75304968306639
 20
134.41081977838141
 30
0.0
 11
107.75304968306639
 21
121.79181977838149
 31
0.0
  0
LINE
  5
EC3
  8
0
 10
96.753049683066365
 20
134.41081977838141
 30
0.0
 11
96.753049683066422
 21
121.79181977838149
 31
0.0
  0
LINE
  5
EC4
  8
0
 10
96.753049683066422
 20
121.79181977838149
 30
0.0
 11
96.880049683066403
 21
121.6648197783815
 31
0.0
  0
LINE
  5
EC5
  8
0
 10
97.007049683066384
 20
134.6648197783814
 30
0.0
 11
96.753049683066394
 21
134.41081977838141
 31
0.0
  0
ARC
  5
EC6
  8
0
 10
102.25304968306629
 20
156.8875555318065
 30
0.0
 40
0.8
 50
0.0
 51
180.0
  0
LINE
  5
EC7
  8
0
 10
103.0530496830664
 20
131.2548180493479
 30
0.0
 11
103.0530496830664
 21
156.8875555318065
 31
0.0
  0
LINE
  5
EC8
  8
0
 10
101.4530496830663
 20
131.2548180493479
 30
0.0
 11
101.4530496830663
 21
156.8875555318065
 31
0.0
  0
ARC
  5
EC9
  8
0
 10
102.25304968306629
 20
131.2548180493479
 30
0.0
 40
0.8
 50
180.0
 51
0.0
  0
ARC
  5
ECA
  8
0
 10
102.25304968306629
 20
131.2548180493479
 30
0.0
 40
2.0999999999999801
 50
112.3926878054023
 51
67.607312194597682
  0
CIRCLE
  5
ECB
  8
0
 10
102.25304968306639
 20
30.073431027706821
 30
0.0
 40
1.355121980412255
  0
LINE
  5
ECC
  8
0
 10
98.953049683066411
 20
23.0378197783815
 30
0.0
 11
105.5530496830664
 21
23.0378197783815
 31
0.0
  0
LINE
  5
ECD
  8
0
 10
106.25304968306639
 20
121.5378197783815
 30
0.0
 11
106.25304968306649
 21
25.0378197783815
 31
0.0
  0
LINE
  5
ECE
  8
1
 10
102.25304968306639
 20
162.68755553180651
 30
0.0
 11
102.25304968306629
 21
18.0378197783815
 31
0.0
  0
LINE
  5
ECF
  8
0
 10
106.25304968306629
 20
25.0378197783815
 30
0.0
 11
105.5530496830664
 21
23.0378197783815
 31
0.0
  0
LINE
  5
ED0
  8
0
 10
106.25304968306629
 20
25.0378197783815
 30
0.0
 11
98.253049683066465
 21
25.0378197783815
 31
0.0
  0
LINE
  5
ED1
  8
0
 10
98.253049683066408
 20
121.5378197783815
 30
0.0
 11
98.253049683066408
 21
25.0378197783815
 31
0.0
  0
LINE
  5
ED2
  8
0
 10
98.253049683066422
 20
25.0378197783815
 30
0.0
 11
98.953049683066411
 21
23.0378197783815
 31
0.0
  0
TEXT
  5
FB3
  8
0
 62
     3
 10
0.0
 20
0.0
 30
0.0
 40
10.0
  1
BJ774-08090-SUS
  7
STANDARD1
  0
ENDSEC
  0
EOF
