  0
SECTION
  2
HEADER
  9
$ACADVER
  1
AC1009
  9
$INSBASE
 10
0.0
 20
0.0
 30
0.0
  9
$EXTMIN
 10
0.0
 20
-2.960436562073669
 30
0.0
  9
$EXTMAX
 10
126.75
 20
181.74999999999989
 30
0.0
  9
$LIMMIN
 10
0.0
 20
0.0
  9
$LIMMAX
 10
12.0
 20
9.0
  9
$ORTHOMODE
 70
     1
  9
$REGENMODE
 70
     1
  9
$FILLMODE
 70
     1
  9
$QTEXTMODE
 70
     0
  9
$MIRRTEXT
 70
     0
  9
$DRAGMODE
 70
     2
  9
$LTSCALE
 40
5.0
  9
$OSMODE
 70
    37
  9
$ATTMODE
 70
     1
  9
$TEXTSIZE
 40
0.2
  9
$TRACEWID
 40
0.05
  9
$TEXTSTYLE
  7
STANDARD
  9
$CLAYER
  8
0
  9
$CELTYPE
  6
BYLAYER
  9
$CECOLOR
 62
   256
  9
$DIMSCALE
 40
1.0
  9
$DIMASZ
 40
0.18
  9
$DIMEXO
 40
0.0625
  9
$DIMDLI
 40
0.38
  9
$DIMRND
 40
0.0
  9
$DIMDLE
 40
0.0
  9
$DIMEXE
 40
0.18
  9
$DIMTP
 40
0.0
  9
$DIMTM
 40
0.0
  9
$DIMTXT
 40
1.5
  9
$DIMCEN
 40
0.0
  9
$DIMTSZ
 40
0.0
  9
$DIMTOL
 70
     0
  9
$DIMLIM
 70
     0
  9
$DIMTIH
 70
     1
  9
$DIMTOH
 70
     1
  9
$DIMSE1
 70
     0
  9
$DIMSE2
 70
     0
  9
$DIMTAD
 70
     0
  9
$DIMZIN
 70
     8
  9
$DIMBLK
  1

  9
$DIMASO
 70
     1
  9
$DIMSHO
 70
     1
  9
$DIMPOST
  1

  9
$DIMAPOST
  1

  9
$DIMALT
 70
     0
  9
$DIMALTD
 70
     2
  9
$DIMALTF
 40
25.399999999999999
  9
$DIMLFAC
 40
1.0
  9
$DIMTOFL
 70
     0
  9
$DIMTVP
 40
0.0
  9
$DIMTIX
 70
     0
  9
$DIMSOXD
 70
     0
  9
$DIMSAH
 70
     0
  9
$DIMBLK1
  1

  9
$DIMBLK2
  1

  9
$DIMSTYLE
  2
STANDARD
  9
$DIMCLRD
 70
     0
  9
$DIMCLRE
 70
     0
  9
$DIMCLRT
 70
     0
  9
$DIMTFAC
 40
1.0
  9
$DIMGAP
 40
0.5
  9
$LUNITS
 70
     2
  9
$LUPREC
 70
     4
  9
$SKETCHINC
 40
0.1
  9
$FILLETRAD
 40
2.5
  9
$AUNITS
 70
     0
  9
$AUPREC
 70
     0
  9
$MENU
  1
.
  9
$ELEVATION
 40
0.0
  9
$PELEVATION
 40
0.0
  9
$THICKNESS
 40
0.0
  9
$LIMCHECK
 70
     0
  9
$BLIPMODE
 70
     0
  9
$CHAMFERA
 40
0.25
  9
$CHAMFERB
 40
0.25
  9
$SKPOLY
 70
     0
  9
$TDCREATE
 40
2453083.4120647679
  9
$TDUPDATE
 40
2456812.4012186341
  9
$TDINDWG
 40
0.4236457176
  9
$TDUSRTIMER
 40
0.4236456019
  9
$USRTIMER
 70
     1
  9
$ANGBASE
 50
0.0
  9
$ANGDIR
 70
     0
  9
$PDMODE
 70
     0
  9
$PDSIZE
 40
0.0
  9
$PLINEWID
 40
0.0
  9
$COORDS
 70
     1
  9
$SPLFRAME
 70
     0
  9
$SPLINETYPE
 70
     6
  9
$SPLINESEGS
 70
     8
  9
$ATTDIA
 70
     0
  9
$ATTREQ
 70
     1
  9
$HANDLING
 70
     1
  9
$HANDSEED
  5
239F
  9
$SURFTAB1
 70
     6
  9
$SURFTAB2
 70
     6
  9
$SURFTYPE
 70
     6
  9
$SURFU
 70
     6
  9
$SURFV
 70
     6
  9
$UCSNAME
  2

  9
$UCSORG
 10
0.0
 20
0.0
 30
0.0
  9
$UCSXDIR
 10
1.0
 20
0.0
 30
0.0
  9
$UCSYDIR
 10
0.0
 20
1.0
 30
0.0
  9
$PUCSNAME
  2

  9
$PUCSORG
 10
0.0
 20
0.0
 30
0.0
  9
$PUCSXDIR
 10
1.0
 20
0.0
 30
0.0
  9
$PUCSYDIR
 10
0.0
 20
1.0
 30
0.0
  9
$USERI1
 70
     0
  9
$USERI2
 70
     1
  9
$USERI3
 70
     0
  9
$USERI4
 70
     0
  9
$USERI5
 70
     0
  9
$USERR1
 40
0.0
  9
$USERR2
 40
0.0
  9
$USERR3
 40
0.0
  9
$USERR4
 40
0.0
  9
$USERR5
 40
0.0
  9
$WORLDVIEW
 70
     1
  9
$SHADEDGE
 70
     3
  9
$SHADEDIF
 70
    70
  9
$TILEMODE
 70
     1
  9
$MAXACTVP
 70
    64
  9
$PLIMCHECK
 70
     0
  9
$PEXTMIN
 10
0.0
 20
0.0
 30
0.0
  9
$PEXTMAX
 10
0.0
 20
0.0
 30
0.0
  9
$PLIMMIN
 10
0.0
 20
0.0
  9
$PLIMMAX
 10
12.0
 20
9.0
  9
$UNITMODE
 70
     0
  9
$VISRETAIN
 70
     1
  9
$PLINEGEN
 70
     0
  9
$PSLTSCALE
 70
     1
  0
ENDSEC
  0
SECTION
  2
TABLES
  0
TABLE
  2
VPORT
 70
     1
  0
VPORT
  2
*ACTIVE
 70
     0
 10
0.0
 20
0.0
 11
1.0
 21
1.0
 12
235.63977746870651
 22
135.0
 13
0.0
 23
0.0
 14
0.5
 24
0.5
 15
0.5
 25
0.5
 16
0.0
 26
0.0
 36
1.0
 17
0.0
 27
0.0
 37
0.0
 40
270.0
 41
1.7454798331015291
 42
50.0
 43
0.0
 44
0.0
 50
0.0
 51
0.0
 71
     0
 72
  1000
 73
     1
 74
     2
 75
     0
 76
     0
 77
     0
 78
     0
  0
ENDTAB
  0
TABLE
  2
LTYPE
 70
     3
  0
LTYPE
  2
CONTINUOUS
 70
     0
  3
Solid Line
 72
    65
 73
     0
 40
0.0
  0
LTYPE
  2
CENTER
 70
     0
  3
____ _ ____ _ ____ _ ____ _ ____ _ ____ _ ____
 72
    65
 73
     4
 40
2.0
 49
1.25
 49
-0.25
 49
0.25
 49
-0.25
  0
LTYPE
  2
PHANTOM2
 70
     0
  3
___ _ _ ___ _ _ ___ _ _ ___ _ _
 72
    65
 73
     6
 40
1.25
 49
0.625
 49
-0.125
 49
0.125
 49
-0.125
 49
0.125
 49
-0.125
  0
ENDTAB
  0
TABLE
  2
LAYER
 70
     3
  0
LAYER
  2
0
 70
     0
 62
     7
  6
CONTINUOUS
  0
LAYER
  2
1
 70
     0
 62
     1
  6
CENTER
  0
LAYER
  2
DEFPOINTS
 70
     0
 62
     7
  6
CONTINUOUS
  0
ENDTAB
  0
TABLE
  2
STYLE
 70
     2
  0
STYLE
  2
STANDARD
 70
     0
 40
0.0
 41
1.0
 50
0.0
 71
     0
 42
0.2
  3
simplex.shx
  4
bigfont.shx
  0
STYLE
  2
STANDARD1
 70
     0
 40
0.0
 41
1.0
 50
0.0
 71
     0
 42
3.0
  3
txt
  4

  0
ENDTAB
  0
TABLE
  2
VIEW
 70
     0
  0
ENDTAB
  0
TABLE
  2
UCS
 70
     0
  0
ENDTAB
  0
TABLE
  2
APPID
 70
     7
  0
APPID
  2
ACAD
 70
     0
  0
APPID
  2
DCO15
 70
     0
  0
APPID
  2
ACAD_MLEADERVER
 70
     0
  0
APPID
  2
ACAD_EXEMPT_FROM_CAD_STANDARDS
 70
     0
  0
APPID
  2
ACAD_DSTYLE_DIMJAG
 70
     0
  0
APPID
  2
ACAD_DSTYLE_DIMTALN
 70
     0
  0
APPID
  2
ACAD_NAV_VCDISPLAY
 70
     0
  0
ENDTAB
  0
TABLE
  2
DIMSTYLE
 70
     1
  0
DIMSTYLE
  2
STANDARD
 70
     0
  3

  4

  5

  6

  7

 40
1.0
 41
0.18
 42
0.0625
 43
0.38
 44
0.18
 45
0.0
 46
0.0
 47
0.0
 48
0.0
140
1.5
141
0.0
142
0.0
143
25.399999999999999
144
1.0
145
0.0
146
1.0
147
0.5
 71
     0
 72
     0
 73
     1
 74
     1
 75
     0
 76
     0
 77
     0
 78
     8
170
     0
171
     2
172
     0
173
     0
174
     0
175
     0
176
     0
177
     0
178
     0
  0
ENDTAB
  0
ENDSEC
  0
SECTION
  2
BLOCKS
  0
BLOCK
  8
0
  2
$MODEL_SPACE
 70
     0
 10
0.0
 20
0.0
 30
0.0
  3
$MODEL_SPACE
  1

  0
ENDBLK
  5
21
  8
0
  0
BLOCK
 67
     1
  8
0
  2
$PAPER_SPACE
 70
     0
 10
0.0
 20
0.0
 30
0.0
  3
$PAPER_SPACE
  1

  0
ENDBLK
  5
5B
 67
     1
  8
0
  0
ENDSEC
  0
SECTION
  2
ENTITIES
  0
LINE
  5
1B2F
  8
0
 10
48.199999999999619
 20
49.999999999999993
 30
0.0
 11
51.800000000000459
 21
49.999999999999993
 31
0.0
  0
LINE
  5
1B33
  8
0
 10
52.74320000000003
 20
106.0
 30
0.0
 11
47.250000000000021
 21
106.0
 31
0.0
  0
LINE
  5
1B35
  8
0
 10
55.500000000000078
 20
103.8
 30
0.0
 11
44.500000000000092
 21
103.8
 31
0.0
  0
LINE
  5
1B36
  8
0
 10
44.750000000000107
 20
85.999999999999972
 30
0.0
 11
55.250000000000007
 21
85.999999999999972
 31
0.0
  0
LINE
  5
1B49
  8
0
 10
39.572752040926638
 20
98.650000000000006
 30
0.0
 11
43.251759534307951
 21
98.650000000000006
 31
0.0
  0
LINE
  5
1B59
  8
0
 10
44.500000000000007
 20
97.199999999999974
 30
0.0
 11
44.50000000000005
 21
86.25
 31
0.0
  0
LINE
  5
1B61
  8
1
 10
50.000000000000028
 20
125.0045999999999
 30
0.0
 11
50.0
 21
44.999999999999993
 31
0.0
  0
LINE
  5
1B68
  8
0
 10
47.500000000000021
 20
86.0
 30
0.0
 11
47.499999999999943
 21
56.000000000001648
 31
0.0
  0
LINE
  5
1B6A
  8
0
 10
47.499999999999538
 20
51.999999999999993
 30
0.0
 11
52.50000000000054
 21
51.999999999999993
 31
0.0
  0
LINE
  5
1B6D
  8
0
 10
47.499999999999538
 20
51.999999999999993
 30
0.0
 11
48.199999999999619
 21
49.999999999999993
 31
0.0
  0
ARC
  5
1B6F
  8
0
 10
48.049999999999642
 20
55.419052498070258
 30
0.0
 40
0.8
 50
133.43253655779861
 51
226.5674634422011
  0
LINE
  5
1B71
  8
0
 10
47.499999999999538
 20
54.838104996139243
 30
0.0
 11
47.499999999999538
 21
51.999999999999993
 31
0.0
  0
ARC
  5
1B79
  8
0
 10
45.58623407909905
 20
55.419052498070258
 30
0.0
 40
2.0
 50
343.11367907434681
 51
16.88632092565318
  0
ARC
  5
1B85
  8
0
 10
54.413765920901028
 20
55.419052498070258
 30
0.0
 40
2.0
 50
163.11367907434681
 51
196.88632092565319
  0
LINE
  5
1B86
  8
0
 10
52.50000000000054
 20
54.838104996139243
 30
0.0
 11
52.50000000000054
 21
51.999999999999993
 31
0.0
  0
ARC
  5
1B87
  8
0
 10
51.950000000000443
 20
55.419052498070258
 30
0.0
 40
0.8
 50
313.43253655779898
 51
46.567463442201372
  0
LINE
  5
1B88
  8
0
 10
52.50000000000054
 20
51.999999999999993
 30
0.0
 11
51.800000000000459
 21
49.999999999999993
 31
0.0
  0
LINE
  5
1B89
  8
0
 10
52.500000000000057
 20
86.0
 30
0.0
 11
52.500000000000142
 21
56.000000000001648
 31
0.0
  0
LINE
  5
1B8E
  8
0
 10
44.50000000000005
 20
86.25
 30
0.0
 11
44.750000000000043
 21
86.0
 31
0.0
  0
LINE
  5
1B92
  8
0
 10
44.50000000000005
 20
86.249999999999986
 30
0.0
 11
55.5
 21
86.249999999999986
 31
0.0
  0
LINE
  5
1B93
  8
0
 10
46.750000000000021
 20
105.5
 30
0.0
 11
46.750000000000021
 21
103.8
 31
0.0
  0
ARC
  5
1B94
  8
0
 10
47.250000000000021
 20
105.5
 30
0.0
 40
0.5
 50
90.0
 51
180.0
  0
ARC
  5
1B95
  8
0
 10
52.750000000000021
 20
105.5
 30
0.0
 40
0.5
 50
0.0
 51
90.0
  0
LINE
  5
1B96
  8
0
 10
53.250000000000021
 20
105.5
 30
0.0
 11
53.250000000000007
 21
103.8
 31
0.0
  0
LINE
  5
1B97
  8
0
 10
46.750000000000021
 20
105.5
 30
0.0
 11
53.249999999999993
 21
105.5
 31
0.0
  0
ARC
  5
1B9F
  8
0
 10
44.100000000000023
 20
97.199999999999974
 30
0.0
 40
0.4
 50
0.0000000000002036
 51
90.000000000000384
  0
LINE
  5
1BA1
  8
0
 10
44.500000000000021
 20
97.199999999999974
 30
0.0
 11
55.500000000000071
 21
97.199999999999932
 31
0.0
  0
ARC
  5
1BA6
  8
0
 10
50.000000000000028
 20
106.0
 30
0.0
 40
14.0
 50
335.05556515712118
 51
204.94443484287851
  0
ARC
  5
1BA7
  8
0
 10
50.000000000000028
 20
106.0
 30
0.0
 40
11.4
 50
336.03051768224032
 51
203.9694823177594
  0
LINE
  5
1BAB
  8
0
 10
39.765865937950629
 20
101.25
 30
0.0
 11
43.25000000000005
 21
101.25
 31
0.0
  0
ARC
  5
1BB8
  8
0
 10
36.23931242290368
 20
99.945254964117595
 30
0.0
 40
7.1310658328410703
 50
349.45741120961549
 51
10.542588790384521
  0
ARC
  5
1BDF
  8
0
 10
55.90000000000007
 20
97.199999999999974
 30
0.0
 40
0.4
 50
89.999999999999616
 51
179.9999999999998
  0
LINE
  5
1BE0
  8
0
 10
55.500000000000043
 20
86.25
 30
0.0
 11
55.250000000000028
 21
86.0
 31
0.0
  0
LINE
  5
1BE1
  8
0
 10
55.500000000000043
 20
97.199999999999932
 30
0.0
 11
55.500000000000043
 21
86.25
 31
0.0
  0
LINE
  5
1BEC
  8
0
 10
125.5
 20
86.25
 30
0.0
 11
125.25
 21
86.0
 31
0.0
  0
LINE
  5
1BF8
  8
0
 10
114.5
 20
86.249999999999986
 30
0.0
 11
125.4999999999999
 21
86.249999999999986
 31
0.0
  0
LINE
  5
1BF9
  8
0
 10
114.5
 20
86.25
 30
0.0
 11
114.75
 21
86.0
 31
0.0
  0
LINE
  5
1BFA
  8
0
 10
122.5
 20
86.0
 30
0.0
 11
122.5000000000001
 21
51.999999999999993
 31
0.0
  0
LINE
  5
1BFB
  8
0
 10
122.5000000000005
 20
51.999999999999993
 30
0.0
 11
121.8000000000004
 21
50.0
 31
0.0
  0
LINE
  5
1C02
  8
0
 10
117.4999999999995
 20
51.999999999999993
 30
0.0
 11
118.19999999999951
 21
50.0
 31
0.0
  0
LINE
  5
1C03
  8
0
 10
117.4999999999995
 20
51.999999999999993
 30
0.0
 11
122.5000000000005
 21
51.999999999999993
 31
0.0
  0
LINE
  5
1C04
  8
0
 10
117.5
 20
86.0
 30
0.0
 11
117.4999999999998
 21
51.999999999999993
 31
0.0
  0
LINE
  5
1C0A
  8
0
 10
114.75
 20
85.999999999999972
 30
0.0
 11
125.2499999999999
 21
85.999999999999972
 31
0.0
  0
LINE
  5
1C0D
  8
0
 10
118.19999999999951
 20
50.0
 30
0.0
 11
121.8000000000004
 21
50.0
 31
0.0
  0
LINE
  5
1C0E
  8
1
 10
120.0
 20
125.0045999999999
 30
0.0
 11
119.9999999999999
 21
44.999999999999993
 31
0.0
  0
CIRCLE
  5
1C11
  8
0
 10
119.9999999999999
 20
55.419052498070258
 30
0.0
 40
0.580947501929721
  0
LINE
  5
1C12
  8
0
 10
121.3
 20
118.6999999999999
 30
0.0
 11
121.3
 21
99.964200000000005
 31
0.0
  0
LINE
  5
1C13
  8
0
 10
118.7
 20
118.6999999999999
 30
0.0
 11
118.7
 21
99.964200000000005
 31
0.0
  0
ARC
  5
1C15
  8
0
 10
120.0
 20
118.6999999999999
 30
0.0
 40
1.3000000000000109
 50
0.0
 51
180.0
  0
ARC
  5
1C17
  8
0
 10
120.0
 20
99.964200000000005
 30
0.0
 40
1.3000000000000109
 50
180.0
 51
0.0
  0
LINE
  5
1C2A
  8
1
 10
31.000000000000082
 20
170.0
 30
0.0
 11
69.000000000000085
 21
170.0
 31
0.0
  0
ARC
  5
1C2D
  8
0
 10
50.000000000000071
 20
170.0
 30
0.0
 40
6.75
 50
11.104123748466479
 51
168.89587625153351
  0
LINE
  5
1C2E
  8
0
 10
37.300000000000068
 20
171.2999999999999
 30
0.0
 11
62.700000000000081
 21
171.30000000000001
 31
0.0
  0
LINE
  5
1C2F
  8
0
 10
37.300000000000068
 20
168.6999999999999
 30
0.0
 11
62.700000000000081
 21
168.6999999999999
 31
0.0
  0
ARC
  5
1C32
  8
0
 10
62.700000000000081
 20
169.99999999999989
 30
0.0
 40
1.2999999999999969
 50
270.0
 51
90.0
  0
LINE
  5
1C37
  8
1
 10
50.000000000000071
 20
158.25
 30
0.0
 11
50.000000000000071
 21
181.74999999999989
 31
0.0
  0
ARC
  5
1C38
  8
0
 10
50.000000000000071
 20
170.0
 30
0.0
 40
6.75
 50
191.10412374846649
 51
348.89587625153348
  0
ARC
  5
1C4B
  8
0
 10
50.000000000000071
 20
170.0
 30
0.0
 40
2.7432000000000012
 50
28.28769445223859
 51
151.71230554776139
  0
ARC
  5
1C4C
  8
0
 10
50.000000000000071
 20
170.0
 30
0.0
 40
3.2499999999999569
 50
23.578178478202421
 51
156.4218215217976
  0
ARC
  5
1C4D
  8
0
 10
50.000000000000071
 20
170.0
 30
0.0
 40
2.7432000000000012
 50
208.2876944522381
 51
331.71230554776167
  0
ARC
  5
1C4E
  8
0
 10
50.000000000000071
 20
170.0
 30
0.0
 40
3.2499999999999569
 50
203.5781784782022
 51
336.42182152179782
  0
LINE
  5
1C5D
  8
0
 10
56.750000000000043
 20
102.3
 30
0.0
 11
43.250000000000021
 21
102.3
 31
0.0
  0
LINE
  5
1C61
  8
0
 10
44.500000000000092
 20
103.8
 30
0.0
 11
44.500000000000092
 21
102.3
 31
0.0
  0
LINE
  5
1C64
  8
0
 10
56.750000000000043
 20
97.599999999999994
 30
0.0
 11
43.250000000000021
 21
97.599999999999994
 31
0.0
  0
LINE
  5
1C66
  8
0
 10
43.250000000000021
 20
102.3
 30
0.0
 11
43.250000000000021
 21
101.2500000000002
 31
0.0
  0
LINE
  5
1C69
  8
0
 10
43.250000000000021
 20
98.640509928235005
 30
0.0
 11
43.250000000000021
 21
97.599999999999994
 31
0.0
  0
ARC
  5
1C6A
  8
0
 10
39.765865937950622
 20
101.45
 30
0.0
 40
0.2
 50
203.9694823177592
 51
270.0000000000021
  0
ARC
  5
1C6B
  8
0
 10
39.572752040926638
 20
101.15000000000001
 30
0.0
 40
2.5
 50
204.94443484287851
 51
270.0
  0
LINE
  5
1C6C
  8
0
 10
39.765865937950629
 20
101.25
 30
0.0
 11
39.572752040926638
 21
98.649999999999977
 31
0.0
  0
LINE
  5
1C6D
  8
0
 10
39.583113543985441
 20
101.36875000000001
 30
0.0
 11
37.305959006345461
 21
100.095652173913
 31
0.0
  0
LINE
  5
1C79
  8
0
 10
55.500000000000078
 20
103.8
 30
0.0
 11
55.500000000000078
 21
102.3
 31
0.0
  0
LINE
  5
1C7A
  8
0
 10
60.416886456014581
 20
101.36875000000001
 30
0.0
 11
62.694040993654561
 21
100.095652173913
 31
0.0
  0
LINE
  5
1C7B
  8
0
 10
60.234134062049392
 20
101.25
 30
0.0
 11
60.427247959073377
 21
98.649999999999977
 31
0.0
  0
ARC
  5
1C7C
  8
0
 10
60.427247959073377
 20
101.15000000000001
 30
0.0
 40
2.5
 50
270.0
 51
335.05556515712152
  0
ARC
  5
1C7D
  8
0
 10
60.234134062049399
 20
101.45
 30
0.0
 40
0.2
 50
269.99999999999801
 51
336.03051768224071
  0
LINE
  5
1C7E
  8
0
 10
56.749999999999993
 20
98.640509928235005
 30
0.0
 11
56.749999999999993
 21
97.599999999999994
 31
0.0
  0
LINE
  5
1C7F
  8
0
 10
56.749999999999993
 20
102.3
 30
0.0
 11
56.749999999999993
 21
101.2500000000002
 31
0.0
  0
ARC
  5
1C80
  8
0
 10
63.760687577096348
 20
99.945254964117595
 30
0.0
 40
7.1310658328410703
 50
169.45741120961549
 51
190.54258879038451
  0
LINE
  5
1C81
  8
0
 10
60.234134062049392
 20
101.25
 30
0.0
 11
56.749999999999972
 21
101.25
 31
0.0
  0
LINE
  5
1C82
  8
0
 10
60.427247959073377
 20
98.650000000000006
 30
0.0
 11
56.748240465692071
 21
98.650000000000006
 31
0.0
  0
LINE
  5
1C88
  8
0
 10
126.7499999999999
 20
102.3
 30
0.0
 11
126.7499999999999
 21
97.600000000000009
 31
0.0
  0
LINE
  5
1C89
  8
0
 10
125.5
 20
103.8
 30
0.0
 11
125.5
 21
102.3
 31
0.0
  0
LINE
  5
1C8A
  8
0
 10
113.25
 20
102.3
 30
0.0
 11
113.25
 21
97.600000000000009
 31
0.0
  0
LINE
  5
1C8C
  8
0
 10
126.75
 20
97.599999999999994
 30
0.0
 11
113.25
 21
97.599999999999994
 31
0.0
  0
LINE
  5
1C8D
  8
0
 10
114.5
 20
103.8
 30
0.0
 11
114.5
 21
102.3
 31
0.0
  0
LINE
  5
1C8E
  8
0
 10
126.75
 20
102.3
 30
0.0
 11
121.3
 21
102.3
 31
0.0
  0
ARC
  5
1C8F
  8
0
 10
125.90000000000001
 20
97.200000000000017
 30
0.0
 40
0.4
 50
89.999999999999588
 51
179.9999999999998
  0
LINE
  5
1C91
  8
0
 10
114.5
 20
97.200000000000017
 30
0.0
 11
125.5
 21
97.199999999999974
 31
0.0
  0
ARC
  5
1C92
  8
0
 10
114.09999999999999
 20
97.200000000000017
 30
0.0
 40
0.4
 50
0.0000000000002036
 51
90.000000000000398
  0
LINE
  5
1C93
  8
0
 10
116.75
 20
105.5
 30
0.0
 11
118.7
 21
105.5
 31
0.0
  0
LINE
  5
1C94
  8
0
 10
123.25
 20
105.5
 30
0.0
 11
123.2499999999999
 21
103.8
 31
0.0
  0
ARC
  5
1C95
  8
0
 10
122.75
 20
105.5
 30
0.0
 40
0.5
 50
0.0
 51
90.0
  0
ARC
  5
1C96
  8
0
 10
117.25
 20
105.5
 30
0.0
 40
0.5
 50
90.0
 51
180.0
  0
LINE
  5
1C97
  8
0
 10
116.75
 20
105.5
 30
0.0
 11
116.75
 21
103.8
 31
0.0
  0
LINE
  5
1C98
  8
0
 10
125.5
 20
103.8
 30
0.0
 11
121.3
 21
103.8
 31
0.0
  0
LINE
  5
1C99
  8
0
 10
122.7432
 20
106.0
 30
0.0
 11
121.3
 21
106.0
 31
0.0
  0
LINE
  5
1C9A
  8
0
 10
125.5
 20
97.199999999999974
 30
0.0
 11
125.5
 21
86.25
 31
0.0
  0
LINE
  5
1C9B
  8
0
 10
114.5
 20
97.200000000000017
 30
0.0
 11
114.5
 21
86.25
 31
0.0
  0
LINE
  5
1C9C
  8
0
 10
118.7
 20
106.0
 30
0.0
 11
117.25
 21
106.0
 31
0.0
  0
LINE
  5
1C9D
  8
0
 10
121.3
 20
105.5
 30
0.0
 11
123.2499999999999
 21
105.5
 31
0.0
  0
LINE
  5
1C9E
  8
0
 10
118.7
 20
103.8
 30
0.0
 11
114.5
 21
103.8
 31
0.0
  0
LINE
  5
1C9F
  8
0
 10
118.7
 20
102.3
 30
0.0
 11
113.25
 21
102.3
 31
0.0
  0
POLYLINE
  5
1CA2
  8
0
 10
118.69999999999997
 20
101.25000000000001
 30
0.0
 66
     1
 70
     8
  0
VERTEX
  8
0
  5
231D
 10
118.700
 20
101.250
 30
0.000000
  70
    32
  0
VERTEX
  8
0
  5
231E
 10
118.700
 20
101.222
 30
0.000000
  70
    32
  0
VERTEX
  8
0
  5
231F
 10
118.702
 20
101.193
 30
0.000000
  70
    32
  0
VERTEX
  8
0
  5
2320
 10
118.704
 20
101.165
 30
0.000000
  70
    32
  0
VERTEX
  8
0
  5
2321
 10
118.706
 20
101.137
 30
0.000000
  70
    32
  0
VERTEX
  8
0
  5
2322
 10
118.710
 20
101.109
 30
0.000000
  70
    32
  0
VERTEX
  8
0
  5
2323
 10
118.714
 20
101.081
 30
0.000000
  70
    32
  0
VERTEX
  8
0
  5
2324
 10
118.719
 20
101.053
 30
0.000000
  70
    32
  0
VERTEX
  8
0
  5
2325
 10
118.725
 20
101.025
 30
0.000000
  70
    32
  0
VERTEX
  8
0
  5
2326
 10
118.732
 20
100.997
 30
0.000000
  70
    32
  0
VERTEX
  8
0
  5
2327
 10
118.739
 20
100.970
 30
0.000000
  70
    32
  0
VERTEX
  8
0
  5
2328
 10
118.747
 20
100.942
 30
0.000000
  70
    32
  0
VERTEX
  8
0
  5
2329
 10
118.756
 20
100.915
 30
0.000000
  70
    32
  0
VERTEX
  8
0
  5
232A
 10
118.766
 20
100.888
 30
0.000000
  70
    32
  0
VERTEX
  8
0
  5
232B
 10
118.776
 20
100.861
 30
0.000000
  70
    32
  0
VERTEX
  8
0
  5
232C
 10
118.787
 20
100.835
 30
0.000000
  70
    32
  0
VERTEX
  8
0
  5
232D
 10
118.799
 20
100.808
 30
0.000000
  70
    32
  0
VERTEX
  8
0
  5
232E
 10
118.812
 20
100.782
 30
0.000000
  70
    32
  0
VERTEX
  8
0
  5
232F
 10
118.825
 20
100.756
 30
0.000000
  70
    32
  0
VERTEX
  8
0
  5
2330
 10
118.839
 20
100.731
 30
0.000000
  70
    32
  0
VERTEX
  8
0
  5
2331
 10
118.854
 20
100.706
 30
0.000000
  70
    32
  0
VERTEX
  8
0
  5
2332
 10
118.869
 20
100.681
 30
0.000000
  70
    32
  0
VERTEX
  8
0
  5
2333
 10
118.885
 20
100.657
 30
0.000000
  70
    32
  0
VERTEX
  8
0
  5
2334
 10
118.902
 20
100.632
 30
0.000000
  70
    32
  0
VERTEX
  8
0
  5
2335
 10
118.919
 20
100.609
 30
0.000000
  70
    32
  0
VERTEX
  8
0
  5
2336
 10
118.937
 20
100.585
 30
0.000000
  70
    32
  0
VERTEX
  8
0
  5
2337
 10
118.956
 20
100.562
 30
0.000000
  70
    32
  0
VERTEX
  8
0
  5
2338
 10
118.975
 20
100.540
 30
0.000000
  70
    32
  0
VERTEX
  8
0
  5
2339
 10
118.995
 20
100.518
 30
0.000000
  70
    32
  0
VERTEX
  8
0
  5
233A
 10
119.016
 20
100.496
 30
0.000000
  70
    32
  0
VERTEX
  8
0
  5
233B
 10
119.037
 20
100.475
 30
0.000000
  70
    32
  0
VERTEX
  8
0
  5
233C
 10
119.058
 20
100.454
 30
0.000000
  70
    32
  0
VERTEX
  8
0
  5
233D
 10
119.081
 20
100.434
 30
0.000000
  70
    32
  0
VERTEX
  8
0
  5
233E
 10
119.104
 20
100.414
 30
0.000000
  70
    32
  0
VERTEX
  8
0
  5
233F
 10
119.127
 20
100.395
 30
0.000000
  70
    32
  0
VERTEX
  8
0
  5
2340
 10
119.151
 20
100.376
 30
0.000000
  70
    32
  0
VERTEX
  8
0
  5
2341
 10
119.175
 20
100.358
 30
0.000000
  70
    32
  0
VERTEX
  8
0
  5
2342
 10
119.200
 20
100.340
 30
0.000000
  70
    32
  0
VERTEX
  8
0
  5
2343
 10
119.226
 20
100.323
 30
0.000000
  70
    32
  0
VERTEX
  8
0
  5
2344
 10
119.251
 20
100.306
 30
0.000000
  70
    32
  0
VERTEX
  8
0
  5
2345
 10
119.278
 20
100.290
 30
0.000000
  70
    32
  0
VERTEX
  8
0
  5
2346
 10
119.305
 20
100.275
 30
0.000000
  70
    32
  0
VERTEX
  8
0
  5
2347
 10
119.332
 20
100.260
 30
0.000000
  70
    32
  0
VERTEX
  8
0
  5
2348
 10
119.359
 20
100.246
 30
0.000000
  70
    32
  0
VERTEX
  8
0
  5
2349
 10
119.387
 20
100.232
 30
0.000000
  70
    32
  0
VERTEX
  8
0
  5
234A
 10
119.416
 20
100.219
 30
0.000000
  70
    32
  0
VERTEX
  8
0
  5
234B
 10
119.444
 20
100.206
 30
0.000000
  70
    32
  0
VERTEX
  8
0
  5
234C
 10
119.473
 20
100.195
 30
0.000000
  70
    32
  0
VERTEX
  8
0
  5
234D
 10
119.503
 20
100.184
 30
0.000000
  70
    32
  0
VERTEX
  8
0
  5
234E
 10
119.532
 20
100.173
 30
0.000000
  70
    32
  0
VERTEX
  8
0
  5
234F
 10
119.562
 20
100.163
 30
0.000000
  70
    32
  0
VERTEX
  8
0
  5
2350
 10
119.592
 20
100.154
 30
0.000000
  70
    32
  0
VERTEX
  8
0
  5
2351
 10
119.623
 20
100.145
 30
0.000000
  70
    32
  0
VERTEX
  8
0
  5
2352
 10
119.653
 20
100.137
 30
0.000000
  70
    32
  0
VERTEX
  8
0
  5
2353
 10
119.684
 20
100.130
 30
0.000000
  70
    32
  0
VERTEX
  8
0
  5
2354
 10
119.715
 20
100.124
 30
0.000000
  70
    32
  0
VERTEX
  8
0
  5
2355
 10
119.746
 20
100.118
 30
0.000000
  70
    32
  0
VERTEX
  8
0
  5
2356
 10
119.778
 20
100.113
 30
0.000000
  70
    32
  0
VERTEX
  8
0
  5
2357
 10
119.809
 20
100.108
 30
0.000000
  70
    32
  0
VERTEX
  8
0
  5
2358
 10
119.841
 20
100.104
 30
0.000000
  70
    32
  0
VERTEX
  8
0
  5
2359
 10
119.873
 20
100.101
 30
0.000000
  70
    32
  0
VERTEX
  8
0
  5
235A
 10
119.904
 20
100.099
 30
0.000000
  70
    32
  0
VERTEX
  8
0
  5
235B
 10
119.936
 20
100.097
 30
0.000000
  70
    32
  0
VERTEX
  8
0
  5
235C
 10
119.968
 20
100.096
 30
0.000000
  70
    32
  0
VERTEX
  8
0
  5
235D
 10
120.000
 20
100.096
 30
0.000000
  70
    32
  0
VERTEX
  8
0
  5
235E
 10
120.032
 20
100.096
 30
0.000000
  70
    32
  0
VERTEX
  8
0
  5
235F
 10
120.064
 20
100.097
 30
0.000000
  70
    32
  0
VERTEX
  8
0
  5
2360
 10
120.096
 20
100.099
 30
0.000000
  70
    32
  0
VERTEX
  8
0
  5
2361
 10
120.127
 20
100.101
 30
0.000000
  70
    32
  0
VERTEX
  8
0
  5
2362
 10
120.159
 20
100.104
 30
0.000000
  70
    32
  0
VERTEX
  8
0
  5
2363
 10
120.191
 20
100.108
 30
0.000000
  70
    32
  0
VERTEX
  8
0
  5
2364
 10
120.222
 20
100.113
 30
0.000000
  70
    32
  0
VERTEX
  8
0
  5
2365
 10
120.254
 20
100.118
 30
0.000000
  70
    32
  0
VERTEX
  8
0
  5
2366
 10
120.285
 20
100.124
 30
0.000000
  70
    32
  0
VERTEX
  8
0
  5
2367
 10
120.316
 20
100.130
 30
0.000000
  70
    32
  0
VERTEX
  8
0
  5
2368
 10
120.347
 20
100.137
 30
0.000000
  70
    32
  0
VERTEX
  8
0
  5
2369
 10
120.377
 20
100.145
 30
0.000000
  70
    32
  0
VERTEX
  8
0
  5
236A
 10
120.408
 20
100.154
 30
0.000000
  70
    32
  0
VERTEX
  8
0
  5
236B
 10
120.438
 20
100.163
 30
0.000000
  70
    32
  0
VERTEX
  8
0
  5
236C
 10
120.468
 20
100.173
 30
0.000000
  70
    32
  0
VERTEX
  8
0
  5
236D
 10
120.497
 20
100.184
 30
0.000000
  70
    32
  0
VERTEX
  8
0
  5
236E
 10
120.527
 20
100.195
 30
0.000000
  70
    32
  0
VERTEX
  8
0
  5
236F
 10
120.556
 20
100.206
 30
0.000000
  70
    32
  0
VERTEX
  8
0
  5
2370
 10
120.584
 20
100.219
 30
0.000000
  70
    32
  0
VERTEX
  8
0
  5
2371
 10
120.613
 20
100.232
 30
0.000000
  70
    32
  0
VERTEX
  8
0
  5
2372
 10
120.641
 20
100.246
 30
0.000000
  70
    32
  0
VERTEX
  8
0
  5
2373
 10
120.668
 20
100.260
 30
0.000000
  70
    32
  0
VERTEX
  8
0
  5
2374
 10
120.695
 20
100.275
 30
0.000000
  70
    32
  0
VERTEX
  8
0
  5
2375
 10
120.722
 20
100.290
 30
0.000000
  70
    32
  0
VERTEX
  8
0
  5
2376
 10
120.749
 20
100.306
 30
0.000000
  70
    32
  0
VERTEX
  8
0
  5
2377
 10
120.774
 20
100.323
 30
0.000000
  70
    32
  0
VERTEX
  8
0
  5
2378
 10
120.800
 20
100.340
 30
0.000000
  70
    32
  0
VERTEX
  8
0
  5
2379
 10
120.825
 20
100.358
 30
0.000000
  70
    32
  0
VERTEX
  8
0
  5
237A
 10
120.849
 20
100.376
 30
0.000000
  70
    32
  0
VERTEX
  8
0
  5
237B
 10
120.873
 20
100.395
 30
0.000000
  70
    32
  0
VERTEX
  8
0
  5
237C
 10
120.896
 20
100.414
 30
0.000000
  70
    32
  0
VERTEX
  8
0
  5
237D
 10
120.919
 20
100.434
 30
0.000000
  70
    32
  0
VERTEX
  8
0
  5
237E
 10
120.942
 20
100.454
 30
0.000000
  70
    32
  0
VERTEX
  8
0
  5
237F
 10
120.963
 20
100.475
 30
0.000000
  70
    32
  0
VERTEX
  8
0
  5
2380
 10
120.984
 20
100.496
 30
0.000000
  70
    32
  0
VERTEX
  8
0
  5
2381
 10
121.005
 20
100.518
 30
0.000000
  70
    32
  0
VERTEX
  8
0
  5
2382
 10
121.025
 20
100.540
 30
0.000000
  70
    32
  0
VERTEX
  8
0
  5
2383
 10
121.044
 20
100.562
 30
0.000000
  70
    32
  0
VERTEX
  8
0
  5
2384
 10
121.063
 20
100.585
 30
0.000000
  70
    32
  0
VERTEX
  8
0
  5
2385
 10
121.081
 20
100.609
 30
0.000000
  70
    32
  0
VERTEX
  8
0
  5
2386
 10
121.098
 20
100.632
 30
0.000000
  70
    32
  0
VERTEX
  8
0
  5
2387
 10
121.115
 20
100.657
 30
0.000000
  70
    32
  0
VERTEX
  8
0
  5
2388
 10
121.131
 20
100.681
 30
0.000000
  70
    32
  0
VERTEX
  8
0
  5
2389
 10
121.146
 20
100.706
 30
0.000000
  70
    32
  0
VERTEX
  8
0
  5
238A
 10
121.161
 20
100.731
 30
0.000000
  70
    32
  0
VERTEX
  8
0
  5
238B
 10
121.175
 20
100.756
 30
0.000000
  70
    32
  0
VERTEX
  8
0
  5
238C
 10
121.188
 20
100.782
 30
0.000000
  70
    32
  0
VERTEX
  8
0
  5
238D
 10
121.201
 20
100.808
 30
0.000000
  70
    32
  0
VERTEX
  8
0
  5
238E
 10
121.213
 20
100.835
 30
0.000000
  70
    32
  0
VERTEX
  8
0
  5
238F
 10
121.224
 20
100.861
 30
0.000000
  70
    32
  0
VERTEX
  8
0
  5
2390
 10
121.234
 20
100.888
 30
0.000000
  70
    32
  0
VERTEX
  8
0
  5
2391
 10
121.244
 20
100.915
 30
0.000000
  70
    32
  0
VERTEX
  8
0
  5
2392
 10
121.253
 20
100.942
 30
0.000000
  70
    32
  0
VERTEX
  8
0
  5
2393
 10
121.261
 20
100.970
 30
0.000000
  70
    32
  0
VERTEX
  8
0
  5
2394
 10
121.268
 20
100.997
 30
0.000000
  70
    32
  0
VERTEX
  8
0
  5
2395
 10
121.275
 20
101.025
 30
0.000000
  70
    32
  0
VERTEX
  8
0
  5
2396
 10
121.281
 20
101.053
 30
0.000000
  70
    32
  0
VERTEX
  8
0
  5
2397
 10
121.286
 20
101.081
 30
0.000000
  70
    32
  0
VERTEX
  8
0
  5
2398
 10
121.290
 20
101.109
 30
0.000000
  70
    32
  0
VERTEX
  8
0
  5
2399
 10
121.294
 20
101.137
 30
0.000000
  70
    32
  0
VERTEX
  8
0
  5
239A
 10
121.296
 20
101.165
 30
0.000000
  70
    32
  0
VERTEX
  8
0
  5
239B
 10
121.298
 20
101.193
 30
0.000000
  70
    32
  0
VERTEX
  8
0
  5
239C
 10
121.300
 20
101.222
 30
0.000000
  70
    32
  0
VERTEX
  8
0
  5
239D
 10
121.300
 20
101.250
 30
0.000000
  70
    32
  0
SEQEND
  8
0
  5
239E
  0
ARC
  5
1CAD
  8
0
 10
37.300000000000068
 20
169.99999999999989
 30
0.0
 40
1.2999999999999969
 50
90.0
 51
270.0
  0
TEXT
  5
1D6A
  8
0
 62
     3
 10
0.0
 20
0.0
 30
0.0
 40
10.0
  1
BJ775-05030-SUS
  7
STANDARD1
  0
ARC
  5
2283
  8
0
 10
50.000000000000078
 20
170.0
 30
0.0
 40
5.5
 50
13.67201810438193
 51
166.32798189561811
  0
ARC
  5
2286
  8
0
 10
50.000000000000078
 20
170.0
 30
0.0
 40
5.5
 50
193.67201810438189
 51
346.32798189561811
  0
ENDSEC
  0
EOF
