  0
SECTION
  2
HEADER
  9
$ACADVER
  1
AC1009
  9
$INSBASE
 10
0.0
 20
0.0
 30
0.0
  9
$EXTMIN
 10
0.0
 20
-2.960436562073669
 30
0.0
  9
$EXTMAX
 10
126.75
 20
177.74999999999989
 30
0.0
  9
$LIMMIN
 10
0.0
 20
0.0
  9
$LIMMAX
 10
12.0
 20
9.0
  9
$ORTHOMODE
 70
     1
  9
$REGENMODE
 70
     1
  9
$FILLMODE
 70
     1
  9
$QTEXTMODE
 70
     0
  9
$MIRRTEXT
 70
     0
  9
$DRAGMODE
 70
     2
  9
$LTSCALE
 40
5.0
  9
$OSMODE
 70
    37
  9
$ATTMODE
 70
     1
  9
$TEXTSIZE
 40
0.2
  9
$TRACEWID
 40
0.05
  9
$TEXTSTYLE
  7
STANDARD
  9
$CLAYER
  8
0
  9
$CELTYPE
  6
BYLAYER
  9
$CECOLOR
 62
   256
  9
$DIMSCALE
 40
1.0
  9
$DIMASZ
 40
0.18
  9
$DIMEXO
 40
0.0625
  9
$DIMDLI
 40
0.38
  9
$DIMRND
 40
0.0
  9
$DIMDLE
 40
0.0
  9
$DIMEXE
 40
0.18
  9
$DIMTP
 40
0.0
  9
$DIMTM
 40
0.0
  9
$DIMTXT
 40
2.0
  9
$DIMCEN
 40
0.0
  9
$DIMTSZ
 40
0.0
  9
$DIMTOL
 70
     0
  9
$DIMLIM
 70
     0
  9
$DIMTIH
 70
     1
  9
$DIMTOH
 70
     1
  9
$DIMSE1
 70
     0
  9
$DIMSE2
 70
     0
  9
$DIMTAD
 70
     0
  9
$DIMZIN
 70
     0
  9
$DIMBLK
  1

  9
$DIMASO
 70
     1
  9
$DIMSHO
 70
     1
  9
$DIMPOST
  1

  9
$DIMAPOST
  1

  9
$DIMALT
 70
     0
  9
$DIMALTD
 70
     2
  9
$DIMALTF
 40
25.399999999999999
  9
$DIMLFAC
 40
1.0
  9
$DIMTOFL
 70
     0
  9
$DIMTVP
 40
0.0
  9
$DIMTIX
 70
     0
  9
$DIMSOXD
 70
     0
  9
$DIMSAH
 70
     0
  9
$DIMBLK1
  1

  9
$DIMBLK2
  1

  9
$DIMSTYLE
  2
STANDARD
  9
$DIMCLRD
 70
     0
  9
$DIMCLRE
 70
     0
  9
$DIMCLRT
 70
     0
  9
$DIMTFAC
 40
1.0
  9
$DIMGAP
 40
0.09
  9
$LUNITS
 70
     2
  9
$LUPREC
 70
     4
  9
$SKETCHINC
 40
0.1
  9
$FILLETRAD
 40
2.5
  9
$AUNITS
 70
     0
  9
$AUPREC
 70
     0
  9
$MENU
  1
.
  9
$ELEVATION
 40
0.0
  9
$PELEVATION
 40
0.0
  9
$THICKNESS
 40
0.0
  9
$LIMCHECK
 70
     0
  9
$BLIPMODE
 70
     0
  9
$CHAMFERA
 40
0.25
  9
$CHAMFERB
 40
0.25
  9
$SKPOLY
 70
     0
  9
$TDCREATE
 40
2453083.4120647679
  9
$TDUPDATE
 40
2456812.4012471638
  9
$TDINDWG
 40
0.4161265741
  9
$TDUSRTIMER
 40
0.4161264583
  9
$USRTIMER
 70
     1
  9
$ANGBASE
 50
0.0
  9
$ANGDIR
 70
     0
  9
$PDMODE
 70
     0
  9
$PDSIZE
 40
0.0
  9
$PLINEWID
 40
0.0
  9
$COORDS
 70
     1
  9
$SPLFRAME
 70
     0
  9
$SPLINETYPE
 70
     6
  9
$SPLINESEGS
 70
     8
  9
$ATTDIA
 70
     0
  9
$ATTREQ
 70
     1
  9
$HANDLING
 70
     1
  9
$HANDSEED
  5
22F2
  9
$SURFTAB1
 70
     6
  9
$SURFTAB2
 70
     6
  9
$SURFTYPE
 70
     6
  9
$SURFU
 70
     6
  9
$SURFV
 70
     6
  9
$UCSNAME
  2

  9
$UCSORG
 10
0.0
 20
0.0
 30
0.0
  9
$UCSXDIR
 10
1.0
 20
0.0
 30
0.0
  9
$UCSYDIR
 10
0.0
 20
1.0
 30
0.0
  9
$PUCSNAME
  2

  9
$PUCSORG
 10
0.0
 20
0.0
 30
0.0
  9
$PUCSXDIR
 10
1.0
 20
0.0
 30
0.0
  9
$PUCSYDIR
 10
0.0
 20
1.0
 30
0.0
  9
$USERI1
 70
     0
  9
$USERI2
 70
     1
  9
$USERI3
 70
     0
  9
$USERI4
 70
     0
  9
$USERI5
 70
     0
  9
$USERR1
 40
0.0
  9
$USERR2
 40
0.0
  9
$USERR3
 40
0.0
  9
$USERR4
 40
0.0
  9
$USERR5
 40
0.0
  9
$WORLDVIEW
 70
     1
  9
$SHADEDGE
 70
     3
  9
$SHADEDIF
 70
    70
  9
$TILEMODE
 70
     1
  9
$MAXACTVP
 70
    64
  9
$PLIMCHECK
 70
     0
  9
$PEXTMIN
 10
0.0
 20
0.0
 30
0.0
  9
$PEXTMAX
 10
0.0
 20
0.0
 30
0.0
  9
$PLIMMIN
 10
0.0
 20
0.0
  9
$PLIMMAX
 10
12.0
 20
9.0
  9
$UNITMODE
 70
     0
  9
$VISRETAIN
 70
     1
  9
$PLINEGEN
 70
     0
  9
$PSLTSCALE
 70
     1
  0
ENDSEC
  0
SECTION
  2
TABLES
  0
TABLE
  2
VPORT
 70
     1
  0
VPORT
  2
*ACTIVE
 70
     0
 10
0.0
 20
0.0
 11
1.0
 21
1.0
 12
235.63977746870651
 22
135.0
 13
0.0
 23
0.0
 14
0.5
 24
0.5
 15
0.5
 25
0.5
 16
0.0
 26
0.0
 36
1.0
 17
0.0
 27
0.0
 37
0.0
 40
270.0
 41
1.7454798331015291
 42
50.0
 43
0.0
 44
0.0
 50
0.0
 51
0.0
 71
     0
 72
  1000
 73
     1
 74
     2
 75
     0
 76
     0
 77
     0
 78
     0
  0
ENDTAB
  0
TABLE
  2
LTYPE
 70
     3
  0
LTYPE
  2
CONTINUOUS
 70
     0
  3
Solid Line
 72
    65
 73
     0
 40
0.0
  0
LTYPE
  2
CENTER
 70
     0
  3
____ _ ____ _ ____ _ ____ _ ____ _ ____ _ ____
 72
    65
 73
     4
 40
2.0
 49
1.25
 49
-0.25
 49
0.25
 49
-0.25
  0
LTYPE
  2
PHANTOM2
 70
     0
  3
___ _ _ ___ _ _ ___ _ _ ___ _ _
 72
    65
 73
     6
 40
1.25
 49
0.625
 49
-0.125
 49
0.125
 49
-0.125
 49
0.125
 49
-0.125
  0
ENDTAB
  0
TABLE
  2
LAYER
 70
     3
  0
LAYER
  2
0
 70
     0
 62
     7
  6
CONTINUOUS
  0
LAYER
  2
1
 70
     0
 62
     1
  6
CENTER
  0
LAYER
  2
DEFPOINTS
 70
     0
 62
     7
  6
CONTINUOUS
  0
ENDTAB
  0
TABLE
  2
STYLE
 70
     2
  0
STYLE
  2
STANDARD
 70
     0
 40
0.0
 41
1.0
 50
0.0
 71
     0
 42
0.2
  3
simplex.shx
  4
bigfont.shx
  0
STYLE
  2
STANDARD1
 70
     0
 40
0.0
 41
1.0
 50
0.0
 71
     0
 42
3.0
  3
txt
  4

  0
ENDTAB
  0
TABLE
  2
VIEW
 70
     0
  0
ENDTAB
  0
TABLE
  2
UCS
 70
     0
  0
ENDTAB
  0
TABLE
  2
APPID
 70
     7
  0
APPID
  2
ACAD
 70
     0
  0
APPID
  2
DCO15
 70
     0
  0
APPID
  2
ACAD_MLEADERVER
 70
     0
  0
APPID
  2
ACAD_DSTYLE_DIMJAG
 70
     0
  0
APPID
  2
ACAD_DSTYLE_DIMTALN
 70
     0
  0
APPID
  2
ACAD_EXEMPT_FROM_CAD_STANDARDS
 70
     0
  0
APPID
  2
ACAD_NAV_VCDISPLAY
 70
     0
  0
ENDTAB
  0
TABLE
  2
DIMSTYLE
 70
     1
  0
DIMSTYLE
  2
STANDARD
 70
     0
  3

  4

  5

  6

  7

 40
1.0
 41
0.18
 42
0.0625
 43
0.38
 44
0.18
 45
0.0
 46
0.0
 47
0.0
 48
0.0
140
2.0
141
0.0
142
0.0
143
25.399999999999999
144
1.0
145
0.0
146
1.0
147
0.09
 71
     0
 72
     0
 73
     1
 74
     1
 75
     0
 76
     0
 77
     0
 78
     0
170
     0
171
     2
172
     0
173
     0
174
     0
175
     0
176
     0
177
     0
178
     0
  0
ENDTAB
  0
ENDSEC
  0
SECTION
  2
BLOCKS
  0
BLOCK
  8
0
  2
$MODEL_SPACE
 70
     0
 10
0.0
 20
0.0
 30
0.0
  3
$MODEL_SPACE
  1

  0
ENDBLK
  5
21
  8
0
  0
BLOCK
 67
     1
  8
0
  2
$PAPER_SPACE
 70
     0
 10
0.0
 20
0.0
 30
0.0
  3
$PAPER_SPACE
  1

  0
ENDBLK
  5
5B
 67
     1
  8
0
  0
ENDSEC
  0
SECTION
  2
ENTITIES
  0
LINE
  5
1B33
  8
0
 10
52.743199999999959
 20
102.0
 30
0.0
 11
47.249999999999957
 21
102.0
 31
0.0
  0
LINE
  5
1B35
  8
0
 10
54.54999999999994
 20
99.799999999999997
 30
0.0
 11
45.449999999999967
 21
99.800000000000026
 31
0.0
  0
LINE
  5
1B36
  8
0
 10
44.750000000000043
 20
81.999999999999986
 30
0.0
 11
55.24999999999995
 21
81.999999999999986
 31
0.0
  0
LINE
  5
1B49
  8
0
 10
39.572752040926581
 20
94.650000000000006
 30
0.0
 11
43.251759534307887
 21
94.650000000000006
 31
0.0
  0
LINE
  5
1B59
  8
0
 10
44.49999999999995
 20
93.200000000000003
 30
0.0
 11
44.499999999999993
 21
82.249999999999986
 31
0.0
  0
LINE
  5
1B61
  8
1
 10
49.999999999999972
 20
120.9999999999999
 30
0.0
 11
49.999999999999943
 21
45.0
 31
0.0
  0
LINE
  5
1B8E
  8
0
 10
44.499999999999993
 20
82.249999999999986
 30
0.0
 11
44.749999999999993
 21
82.0
 31
0.0
  0
LINE
  5
1B92
  8
0
 10
44.499999999999993
 20
82.249999999999972
 30
0.0
 11
55.49999999999995
 21
82.249999999999986
 31
0.0
  0
LINE
  5
1B93
  8
0
 10
46.749999999999957
 20
101.5
 30
0.0
 11
46.749999999999957
 21
99.799999999999997
 31
0.0
  0
ARC
  5
1B94
  8
0
 10
47.249999999999957
 20
101.5
 30
0.0
 40
0.5
 50
90.0
 51
180.0
  0
ARC
  5
1B95
  8
0
 10
52.749999999999957
 20
101.5
 30
0.0
 40
0.5
 50
0.0
 51
90.0
  0
LINE
  5
1B96
  8
0
 10
53.249999999999957
 20
101.5
 30
0.0
 11
53.24999999999995
 21
99.799999999999997
 31
0.0
  0
LINE
  5
1B97
  8
0
 10
46.749999999999957
 20
101.5
 30
0.0
 11
53.249999999999929
 21
101.5
 31
0.0
  0
ARC
  5
1B9F
  8
0
 10
44.099999999999959
 20
93.200000000000003
 30
0.0
 40
0.4
 50
0.0000000000002036
 51
90.000000000000384
  0
LINE
  5
1BA1
  8
0
 10
44.499999999999972
 20
93.200000000000003
 30
0.0
 11
55.500000000000007
 21
93.199999999999946
 31
0.0
  0
ARC
  5
1BA6
  8
0
 10
49.999999999999972
 20
102.0
 30
0.0
 40
14.0
 50
335.05556515712118
 51
204.94443484287851
  0
ARC
  5
1BA7
  8
0
 10
49.999999999999972
 20
102.0
 30
0.0
 40
11.4
 50
336.03051768224032
 51
203.9694823177594
  0
LINE
  5
1BAB
  8
0
 10
39.765865937950572
 20
97.250000000000014
 30
0.0
 11
43.25
 21
97.250000000000014
 31
0.0
  0
ARC
  5
1BB8
  8
0
 10
36.23931242290363
 20
95.945254964117595
 30
0.0
 40
7.1310658328410703
 50
349.45741120961549
 51
10.542588790384521
  0
ARC
  5
1BDF
  8
0
 10
55.81652543263818
 20
93.275105925521387
 30
0.0
 40
0.3253140783230852
 50
92.911786783581206
 51
193.34841792473151
  0
LINE
  5
1BE0
  8
0
 10
55.499999999999979
 20
82.249999999999986
 30
0.0
 11
55.249999999999979
 21
82.0
 31
0.0
  0
LINE
  5
1BE1
  8
0
 10
55.499999999999979
 20
93.199999999999946
 30
0.0
 11
55.499999999999979
 21
82.249999999999986
 31
0.0
  0
LINE
  5
1BEC
  8
0
 10
125.4999999999999
 20
82.249999999999986
 30
0.0
 11
125.2499999999999
 21
81.999999999999986
 31
0.0
  0
LINE
  5
1BF8
  8
0
 10
114.5
 20
82.249999999999957
 30
0.0
 11
125.4999999999999
 21
82.249999999999972
 31
0.0
  0
LINE
  5
1BF9
  8
0
 10
114.5
 20
82.249999999999986
 30
0.0
 11
114.75
 21
81.999999999999986
 31
0.0
  0
LINE
  5
1C0A
  8
0
 10
114.75
 20
81.999999999999972
 30
0.0
 11
125.2499999999999
 21
81.999999999999972
 31
0.0
  0
LINE
  5
1C0E
  8
1
 10
119.9999999999999
 20
120.9999999999999
 30
0.0
 11
119.9999999999999
 21
45.0
 31
0.0
  0
LINE
  5
1C12
  8
0
 10
121.3
 20
114.6999999999999
 30
0.0
 11
121.3
 21
95.964200000000005
 31
0.0
  0
LINE
  5
1C13
  8
0
 10
118.6999999999999
 20
114.6999999999999
 30
0.0
 11
118.6999999999999
 21
95.964200000000005
 31
0.0
  0
ARC
  5
1C15
  8
0
 10
119.9999999999999
 20
114.6999999999999
 30
0.0
 40
1.3000000000000109
 50
0.0
 51
180.0
  0
ARC
  5
1C17
  8
0
 10
119.9999999999999
 20
95.964200000000005
 30
0.0
 40
1.3000000000000109
 50
180.0
 51
0.0
  0
LINE
  5
1C2A
  8
1
 10
30.999999999999972
 20
165.99999999999989
 30
0.0
 11
68.999999999999972
 21
165.99999999999989
 31
0.0
  0
ARC
  5
1C2D
  8
0
 10
49.999999999999972
 20
165.99999999999989
 30
0.0
 40
6.75
 50
11.104123748466479
 51
168.89587625153351
  0
LINE
  5
1C2E
  8
0
 10
37.299999999999969
 20
167.2999999999999
 30
0.0
 11
62.699999999999967
 21
167.2999999999999
 31
0.0
  0
LINE
  5
1C2F
  8
0
 10
37.299999999999969
 20
164.6999999999999
 30
0.0
 11
62.699999999999967
 21
164.6999999999999
 31
0.0
  0
ARC
  5
1C32
  8
0
 10
62.699999999999967
 20
165.99999999999989
 30
0.0
 40
1.2999999999999969
 50
270.0
 51
90.0
  0
LINE
  5
1C37
  8
1
 10
49.999999999999972
 20
154.24999999999989
 30
0.0
 11
49.999999999999972
 21
177.74999999999989
 31
0.0
  0
ARC
  5
1C38
  8
0
 10
49.999999999999972
 20
165.99999999999989
 30
0.0
 40
6.75
 50
191.10412374846649
 51
348.89587625153348
  0
ARC
  5
1C4B
  8
0
 10
49.999999999999972
 20
165.99999999999989
 30
0.0
 40
2.7432000000000012
 50
28.28769445223859
 51
151.71230554776139
  0
ARC
  5
1C4C
  8
0
 10
49.999999999999972
 20
165.99999999999989
 30
0.0
 40
3.2499999999999569
 50
23.578178478202421
 51
156.4218215217976
  0
ARC
  5
1C4D
  8
0
 10
49.999999999999972
 20
165.99999999999989
 30
0.0
 40
2.7432000000000012
 50
208.28769445223841
 51
331.71230554776167
  0
ARC
  5
1C4E
  8
0
 10
49.999999999999972
 20
165.99999999999989
 30
0.0
 40
3.2499999999999569
 50
203.5781784782022
 51
336.42182152179782
  0
LINE
  5
1C5D
  8
0
 10
56.749999999999979
 20
98.299999999999997
 30
0.0
 11
43.249999999999972
 21
98.299999999999997
 31
0.0
  0
LINE
  5
1C61
  8
0
 10
45.449999999999967
 20
99.799999999999997
 30
0.0
 11
45.449999999999967
 21
98.299999999999983
 31
0.0
  0
LINE
  5
1C64
  8
0
 10
56.749999999999979
 20
93.599999999999994
 30
0.0
 11
43.249999999999972
 21
93.599999999999994
 31
0.0
  0
LINE
  5
1C66
  8
0
 10
43.249999999999972
 20
98.299999999999997
 30
0.0
 11
43.249999999999972
 21
97.250000000000199
 31
0.0
  0
LINE
  5
1C69
  8
0
 10
43.249999999999972
 20
94.640509928235005
 30
0.0
 11
43.249999999999972
 21
93.600000000000009
 31
0.0
  0
ARC
  5
1C6A
  8
0
 10
39.765865937950572
 20
97.450000000000003
 30
0.0
 40
0.2
 50
203.9694823177592
 51
270.0000000000021
  0
ARC
  5
1C6B
  8
0
 10
39.572752040926581
 20
97.149999999999991
 30
0.0
 40
2.5
 50
204.94443484287851
 51
270.0
  0
LINE
  5
1C6C
  8
0
 10
39.765865937950572
 20
97.250000000000014
 30
0.0
 11
39.572752040926581
 21
94.649999999999991
 31
0.0
  0
LINE
  5
1C6D
  8
0
 10
39.583113543985391
 20
97.368749999999991
 30
0.0
 11
37.305959006345397
 21
96.095652173913066
 31
0.0
  0
LINE
  5
1C79
  8
0
 10
54.54999999999994
 20
99.799999999999997
 30
0.0
 11
54.54999999999994
 21
98.299999999999983
 31
0.0
  0
LINE
  5
1C7A
  8
0
 10
60.416886456014517
 20
97.368749999999991
 30
0.0
 11
62.694040993654511
 21
96.095652173913066
 31
0.0
  0
LINE
  5
1C7B
  8
0
 10
60.234134062049343
 20
97.250000000000014
 30
0.0
 11
60.42724795907332
 21
94.649999999999991
 31
0.0
  0
ARC
  5
1C7C
  8
0
 10
60.42724795907332
 20
97.149999999999991
 30
0.0
 40
2.5
 50
270.0
 51
335.05556515712152
  0
ARC
  5
1C7D
  8
0
 10
60.234134062049343
 20
97.450000000000003
 30
0.0
 40
0.2
 50
269.99999999999801
 51
336.03051768224071
  0
LINE
  5
1C7E
  8
0
 10
56.749999999999929
 20
94.640509928235005
 30
0.0
 11
56.749999999999929
 21
93.600000000000009
 31
0.0
  0
LINE
  5
1C7F
  8
0
 10
56.749999999999929
 20
98.299999999999997
 30
0.0
 11
56.749999999999929
 21
97.250000000000199
 31
0.0
  0
ARC
  5
1C80
  8
0
 10
63.760687577096292
 20
95.945254964117595
 30
0.0
 40
7.1310658328410703
 50
169.45741120961549
 51
190.54258879038451
  0
LINE
  5
1C81
  8
0
 10
60.234134062049343
 20
97.250000000000014
 30
0.0
 11
56.749999999999901
 21
97.250000000000014
 31
0.0
  0
LINE
  5
1C82
  8
0
 10
60.42724795907332
 20
94.650000000000006
 30
0.0
 11
56.748240465692007
 21
94.650000000000006
 31
0.0
  0
ARC
  5
1C84
  8
0
 10
49.999999999999972
 20
165.99999999999989
 30
0.0
 40
4.5499999999999678
 50
16.601549599020601
 51
163.3984504009793
  0
ARC
  5
1C85
  8
0
 10
49.999999999999972
 20
165.99999999999989
 30
0.0
 40
4.5499999999999678
 50
196.60154959902039
 51
343.39845040097958
  0
LINE
  5
1C88
  8
0
 10
126.7499999999999
 20
98.299999999999997
 30
0.0
 11
126.7499999999999
 21
93.600000000000009
 31
0.0
  0
LINE
  5
1C89
  8
0
 10
124.5499999999999
 20
99.799999999999997
 30
0.0
 11
124.5499999999999
 21
98.299999999999983
 31
0.0
  0
LINE
  5
1C8A
  8
0
 10
113.25
 20
98.299999999999997
 30
0.0
 11
113.25
 21
93.600000000000009
 31
0.0
  0
LINE
  5
1C8C
  8
0
 10
126.75
 20
93.599999999999994
 30
0.0
 11
113.25
 21
93.599999999999994
 31
0.0
  0
LINE
  5
1C8D
  8
0
 10
115.4499999999999
 20
99.799999999999997
 30
0.0
 11
115.4499999999999
 21
98.299999999999983
 31
0.0
  0
LINE
  5
1C8E
  8
0
 10
126.75
 20
98.299999999999997
 30
0.0
 11
121.2999999999999
 21
98.299999999999983
 31
0.0
  0
ARC
  5
1C8F
  8
0
 10
125.90000000000001
 20
93.200000000000003
 30
0.0
 40
0.4
 50
89.999999999999588
 51
179.9999999999998
  0
LINE
  5
1C91
  8
0
 10
114.5
 20
93.200000000000003
 30
0.0
 11
125.5
 21
93.199999999999946
 31
0.0
  0
ARC
  5
1C92
  8
0
 10
114.09999999999999
 20
93.200000000000003
 30
0.0
 40
0.4
 50
0.0000000000002036
 51
90.000000000000398
  0
LINE
  5
1C93
  8
0
 10
116.7499999999999
 20
101.5
 30
0.0
 11
118.7
 21
101.5
 31
0.0
  0
LINE
  5
1C94
  8
0
 10
123.2499999999999
 20
101.5
 30
0.0
 11
123.2499999999999
 21
99.799999999999997
 31
0.0
  0
ARC
  5
1C95
  8
0
 10
122.75
 20
101.5
 30
0.0
 40
0.5
 50
0.0
 51
90.0
  0
ARC
  5
1C96
  8
0
 10
117.2499999999999
 20
101.5
 30
0.0
 40
0.5
 50
90.0
 51
180.0
  0
LINE
  5
1C97
  8
0
 10
116.7499999999999
 20
101.5
 30
0.0
 11
116.7499999999999
 21
99.799999999999997
 31
0.0
  0
LINE
  5
1C98
  8
0
 10
124.5499999999999
 20
99.799999999999997
 30
0.0
 11
121.2999999999999
 21
99.799999999999983
 31
0.0
  0
LINE
  5
1C99
  8
0
 10
122.7432
 20
102.0
 30
0.0
 11
121.3
 21
102.0
 31
0.0
  0
LINE
  5
1C9A
  8
0
 10
125.4999999999999
 20
93.199999999999946
 30
0.0
 11
125.4999999999999
 21
82.249999999999986
 31
0.0
  0
LINE
  5
1C9B
  8
0
 10
114.5
 20
93.200000000000003
 30
0.0
 11
114.5
 21
82.249999999999986
 31
0.0
  0
LINE
  5
1C9C
  8
0
 10
118.6999999999999
 20
102.0
 30
0.0
 11
117.2499999999999
 21
102.0
 31
0.0
  0
LINE
  5
1C9D
  8
0
 10
121.3
 20
101.5
 30
0.0
 11
123.2499999999999
 21
101.5
 31
0.0
  0
LINE
  5
1C9E
  8
0
 10
118.6999999999999
 20
99.799999999999983
 30
0.0
 11
115.45
 21
99.800000000000026
 31
0.0
  0
LINE
  5
1C9F
  8
0
 10
118.6999999999999
 20
98.299999999999983
 30
0.0
 11
113.25
 21
98.299999999999997
 31
0.0
  0
POLYLINE
  5
1CA2
  8
0
 10
118.69999999999987
 20
97.250000000000028
 30
0.0
 66
     1
 70
     8
  0
VERTEX
  8
0
  5
2270
 10
118.700
 20
97.2500
 30
0.000000
  70
    32
  0
VERTEX
  8
0
  5
2271
 10
118.700
 20
97.2217
 30
0.000000
  70
    32
  0
VERTEX
  8
0
  5
2272
 10
118.702
 20
97.1934
 30
0.000000
  70
    32
  0
VERTEX
  8
0
  5
2273
 10
118.704
 20
97.1651
 30
0.000000
  70
    32
  0
VERTEX
  8
0
  5
2274
 10
118.706
 20
97.1369
 30
0.000000
  70
    32
  0
VERTEX
  8
0
  5
2275
 10
118.710
 20
97.1087
 30
0.000000
  70
    32
  0
VERTEX
  8
0
  5
2276
 10
118.714
 20
97.0806
 30
0.000000
  70
    32
  0
VERTEX
  8
0
  5
2277
 10
118.719
 20
97.0527
 30
0.000000
  70
    32
  0
VERTEX
  8
0
  5
2278
 10
118.725
 20
97.0248
 30
0.000000
  70
    32
  0
VERTEX
  8
0
  5
2279
 10
118.732
 20
96.9971
 30
0.000000
  70
    32
  0
VERTEX
  8
0
  5
227A
 10
118.739
 20
96.9695
 30
0.000000
  70
    32
  0
VERTEX
  8
0
  5
227B
 10
118.747
 20
96.9421
 30
0.000000
  70
    32
  0
VERTEX
  8
0
  5
227C
 10
118.756
 20
96.9149
 30
0.000000
  70
    32
  0
VERTEX
  8
0
  5
227D
 10
118.766
 20
96.8879
 30
0.000000
  70
    32
  0
VERTEX
  8
0
  5
227E
 10
118.776
 20
96.8611
 30
0.000000
  70
    32
  0
VERTEX
  8
0
  5
227F
 10
118.787
 20
96.8346
 30
0.000000
  70
    32
  0
VERTEX
  8
0
  5
2280
 10
118.799
 20
96.8083
 30
0.000000
  70
    32
  0
VERTEX
  8
0
  5
2281
 10
118.812
 20
96.7822
 30
0.000000
  70
    32
  0
VERTEX
  8
0
  5
2282
 10
118.825
 20
96.7565
 30
0.000000
  70
    32
  0
VERTEX
  8
0
  5
2283
 10
118.839
 20
96.7310
 30
0.000000
  70
    32
  0
VERTEX
  8
0
  5
2284
 10
118.854
 20
96.7058
 30
0.000000
  70
    32
  0
VERTEX
  8
0
  5
2285
 10
118.869
 20
96.6810
 30
0.000000
  70
    32
  0
VERTEX
  8
0
  5
2286
 10
118.885
 20
96.6565
 30
0.000000
  70
    32
  0
VERTEX
  8
0
  5
2287
 10
118.902
 20
96.6324
 30
0.000000
  70
    32
  0
VERTEX
  8
0
  5
2288
 10
118.919
 20
96.6087
 30
0.000000
  70
    32
  0
VERTEX
  8
0
  5
2289
 10
118.937
 20
96.5853
 30
0.000000
  70
    32
  0
VERTEX
  8
0
  5
228A
 10
118.956
 20
96.5624
 30
0.000000
  70
    32
  0
VERTEX
  8
0
  5
228B
 10
118.975
 20
96.5398
 30
0.000000
  70
    32
  0
VERTEX
  8
0
  5
228C
 10
118.995
 20
96.5177
 30
0.000000
  70
    32
  0
VERTEX
  8
0
  5
228D
 10
119.016
 20
96.4960
 30
0.000000
  70
    32
  0
VERTEX
  8
0
  5
228E
 10
119.037
 20
96.4748
 30
0.000000
  70
    32
  0
VERTEX
  8
0
  5
228F
 10
119.058
 20
96.4540
 30
0.000000
  70
    32
  0
VERTEX
  8
0
  5
2290
 10
119.081
 20
96.4338
 30
0.000000
  70
    32
  0
VERTEX
  8
0
  5
2291
 10
119.104
 20
96.4140
 30
0.000000
  70
    32
  0
VERTEX
  8
0
  5
2292
 10
119.127
 20
96.3947
 30
0.000000
  70
    32
  0
VERTEX
  8
0
  5
2293
 10
119.151
 20
96.3759
 30
0.000000
  70
    32
  0
VERTEX
  8
0
  5
2294
 10
119.175
 20
96.3577
 30
0.000000
  70
    32
  0
VERTEX
  8
0
  5
2295
 10
119.200
 20
96.3400
 30
0.000000
  70
    32
  0
VERTEX
  8
0
  5
2296
 10
119.226
 20
96.3228
 30
0.000000
  70
    32
  0
VERTEX
  8
0
  5
2297
 10
119.251
 20
96.3062
 30
0.000000
  70
    32
  0
VERTEX
  8
0
  5
2298
 10
119.278
 20
96.2902
 30
0.000000
  70
    32
  0
VERTEX
  8
0
  5
2299
 10
119.305
 20
96.2747
 30
0.000000
  70
    32
  0
VERTEX
  8
0
  5
229A
 10
119.332
 20
96.2599
 30
0.000000
  70
    32
  0
VERTEX
  8
0
  5
229B
 10
119.359
 20
96.2456
 30
0.000000
  70
    32
  0
VERTEX
  8
0
  5
229C
 10
119.387
 20
96.2320
 30
0.000000
  70
    32
  0
VERTEX
  8
0
  5
229D
 10
119.416
 20
96.2189
 30
0.000000
  70
    32
  0
VERTEX
  8
0
  5
229E
 10
119.444
 20
96.2065
 30
0.000000
  70
    32
  0
VERTEX
  8
0
  5
229F
 10
119.473
 20
96.1947
 30
0.000000
  70
    32
  0
VERTEX
  8
0
  5
22A0
 10
119.503
 20
96.1835
 30
0.000000
  70
    32
  0
VERTEX
  8
0
  5
22A1
 10
119.532
 20
96.1730
 30
0.000000
  70
    32
  0
VERTEX
  8
0
  5
22A2
 10
119.562
 20
96.1631
 30
0.000000
  70
    32
  0
VERTEX
  8
0
  5
22A3
 10
119.592
 20
96.1539
 30
0.000000
  70
    32
  0
VERTEX
  8
0
  5
22A4
 10
119.623
 20
96.1454
 30
0.000000
  70
    32
  0
VERTEX
  8
0
  5
22A5
 10
119.653
 20
96.1375
 30
0.000000
  70
    32
  0
VERTEX
  8
0
  5
22A6
 10
119.684
 20
96.1302
 30
0.000000
  70
    32
  0
VERTEX
  8
0
  5
22A7
 10
119.715
 20
96.1237
 30
0.000000
  70
    32
  0
VERTEX
  8
0
  5
22A8
 10
119.746
 20
96.1178
 30
0.000000
  70
    32
  0
VERTEX
  8
0
  5
22A9
 10
119.778
 20
96.1126
 30
0.000000
  70
    32
  0
VERTEX
  8
0
  5
22AA
 10
119.809
 20
96.1081
 30
0.000000
  70
    32
  0
VERTEX
  8
0
  5
22AB
 10
119.841
 20
96.1043
 30
0.000000
  70
    32
  0
VERTEX
  8
0
  5
22AC
 10
119.873
 20
96.1012
 30
0.000000
  70
    32
  0
VERTEX
  8
0
  5
22AD
 10
119.904
 20
96.0988
 30
0.000000
  70
    32
  0
VERTEX
  8
0
  5
22AE
 10
119.936
 20
96.0970
 30
0.000000
  70
    32
  0
VERTEX
  8
0
  5
22AF
 10
119.968
 20
96.0960
 30
0.000000
  70
    32
  0
VERTEX
  8
0
  5
22B0
 10
120.000
 20
96.0957
 30
0.000000
  70
    32
  0
VERTEX
  8
0
  5
22B1
 10
120.032
 20
96.0960
 30
0.000000
  70
    32
  0
VERTEX
  8
0
  5
22B2
 10
120.064
 20
96.0970
 30
0.000000
  70
    32
  0
VERTEX
  8
0
  5
22B3
 10
120.096
 20
96.0988
 30
0.000000
  70
    32
  0
VERTEX
  8
0
  5
22B4
 10
120.127
 20
96.1012
 30
0.000000
  70
    32
  0
VERTEX
  8
0
  5
22B5
 10
120.159
 20
96.1043
 30
0.000000
  70
    32
  0
VERTEX
  8
0
  5
22B6
 10
120.191
 20
96.1081
 30
0.000000
  70
    32
  0
VERTEX
  8
0
  5
22B7
 10
120.222
 20
96.1126
 30
0.000000
  70
    32
  0
VERTEX
  8
0
  5
22B8
 10
120.254
 20
96.1178
 30
0.000000
  70
    32
  0
VERTEX
  8
0
  5
22B9
 10
120.285
 20
96.1237
 30
0.000000
  70
    32
  0
VERTEX
  8
0
  5
22BA
 10
120.316
 20
96.1302
 30
0.000000
  70
    32
  0
VERTEX
  8
0
  5
22BB
 10
120.347
 20
96.1375
 30
0.000000
  70
    32
  0
VERTEX
  8
0
  5
22BC
 10
120.377
 20
96.1454
 30
0.000000
  70
    32
  0
VERTEX
  8
0
  5
22BD
 10
120.408
 20
96.1539
 30
0.000000
  70
    32
  0
VERTEX
  8
0
  5
22BE
 10
120.438
 20
96.1631
 30
0.000000
  70
    32
  0
VERTEX
  8
0
  5
22BF
 10
120.468
 20
96.1730
 30
0.000000
  70
    32
  0
VERTEX
  8
0
  5
22C0
 10
120.497
 20
96.1835
 30
0.000000
  70
    32
  0
VERTEX
  8
0
  5
22C1
 10
120.527
 20
96.1947
 30
0.000000
  70
    32
  0
VERTEX
  8
0
  5
22C2
 10
120.556
 20
96.2065
 30
0.000000
  70
    32
  0
VERTEX
  8
0
  5
22C3
 10
120.584
 20
96.2189
 30
0.000000
  70
    32
  0
VERTEX
  8
0
  5
22C4
 10
120.613
 20
96.2320
 30
0.000000
  70
    32
  0
VERTEX
  8
0
  5
22C5
 10
120.641
 20
96.2456
 30
0.000000
  70
    32
  0
VERTEX
  8
0
  5
22C6
 10
120.668
 20
96.2599
 30
0.000000
  70
    32
  0
VERTEX
  8
0
  5
22C7
 10
120.695
 20
96.2747
 30
0.000000
  70
    32
  0
VERTEX
  8
0
  5
22C8
 10
120.722
 20
96.2902
 30
0.000000
  70
    32
  0
VERTEX
  8
0
  5
22C9
 10
120.749
 20
96.3062
 30
0.000000
  70
    32
  0
VERTEX
  8
0
  5
22CA
 10
120.774
 20
96.3228
 30
0.000000
  70
    32
  0
VERTEX
  8
0
  5
22CB
 10
120.800
 20
96.3400
 30
0.000000
  70
    32
  0
VERTEX
  8
0
  5
22CC
 10
120.825
 20
96.3577
 30
0.000000
  70
    32
  0
VERTEX
  8
0
  5
22CD
 10
120.849
 20
96.3759
 30
0.000000
  70
    32
  0
VERTEX
  8
0
  5
22CE
 10
120.873
 20
96.3947
 30
0.000000
  70
    32
  0
VERTEX
  8
0
  5
22CF
 10
120.896
 20
96.4140
 30
0.000000
  70
    32
  0
VERTEX
  8
0
  5
22D0
 10
120.919
 20
96.4338
 30
0.000000
  70
    32
  0
VERTEX
  8
0
  5
22D1
 10
120.942
 20
96.4540
 30
0.000000
  70
    32
  0
VERTEX
  8
0
  5
22D2
 10
120.963
 20
96.4748
 30
0.000000
  70
    32
  0
VERTEX
  8
0
  5
22D3
 10
120.984
 20
96.4960
 30
0.000000
  70
    32
  0
VERTEX
  8
0
  5
22D4
 10
121.005
 20
96.5177
 30
0.000000
  70
    32
  0
VERTEX
  8
0
  5
22D5
 10
121.025
 20
96.5398
 30
0.000000
  70
    32
  0
VERTEX
  8
0
  5
22D6
 10
121.044
 20
96.5624
 30
0.000000
  70
    32
  0
VERTEX
  8
0
  5
22D7
 10
121.063
 20
96.5853
 30
0.000000
  70
    32
  0
VERTEX
  8
0
  5
22D8
 10
121.081
 20
96.6087
 30
0.000000
  70
    32
  0
VERTEX
  8
0
  5
22D9
 10
121.098
 20
96.6324
 30
0.000000
  70
    32
  0
VERTEX
  8
0
  5
22DA
 10
121.115
 20
96.6565
 30
0.000000
  70
    32
  0
VERTEX
  8
0
  5
22DB
 10
121.131
 20
96.6810
 30
0.000000
  70
    32
  0
VERTEX
  8
0
  5
22DC
 10
121.146
 20
96.7058
 30
0.000000
  70
    32
  0
VERTEX
  8
0
  5
22DD
 10
121.161
 20
96.7310
 30
0.000000
  70
    32
  0
VERTEX
  8
0
  5
22DE
 10
121.175
 20
96.7565
 30
0.000000
  70
    32
  0
VERTEX
  8
0
  5
22DF
 10
121.188
 20
96.7822
 30
0.000000
  70
    32
  0
VERTEX
  8
0
  5
22E0
 10
121.201
 20
96.8083
 30
0.000000
  70
    32
  0
VERTEX
  8
0
  5
22E1
 10
121.213
 20
96.8346
 30
0.000000
  70
    32
  0
VERTEX
  8
0
  5
22E2
 10
121.224
 20
96.8611
 30
0.000000
  70
    32
  0
VERTEX
  8
0
  5
22E3
 10
121.234
 20
96.8879
 30
0.000000
  70
    32
  0
VERTEX
  8
0
  5
22E4
 10
121.244
 20
96.9149
 30
0.000000
  70
    32
  0
VERTEX
  8
0
  5
22E5
 10
121.253
 20
96.9421
 30
0.000000
  70
    32
  0
VERTEX
  8
0
  5
22E6
 10
121.261
 20
96.9695
 30
0.000000
  70
    32
  0
VERTEX
  8
0
  5
22E7
 10
121.268
 20
96.9971
 30
0.000000
  70
    32
  0
VERTEX
  8
0
  5
22E8
 10
121.275
 20
97.0248
 30
0.000000
  70
    32
  0
VERTEX
  8
0
  5
22E9
 10
121.281
 20
97.0527
 30
0.000000
  70
    32
  0
VERTEX
  8
0
  5
22EA
 10
121.286
 20
97.0806
 30
0.000000
  70
    32
  0
VERTEX
  8
0
  5
22EB
 10
121.290
 20
97.1087
 30
0.000000
  70
    32
  0
VERTEX
  8
0
  5
22EC
 10
121.294
 20
97.1369
 30
0.000000
  70
    32
  0
VERTEX
  8
0
  5
22ED
 10
121.296
 20
97.1651
 30
0.000000
  70
    32
  0
VERTEX
  8
0
  5
22EE
 10
121.298
 20
97.1934
 30
0.000000
  70
    32
  0
VERTEX
  8
0
  5
22EF
 10
121.300
 20
97.2217
 30
0.000000
  70
    32
  0
VERTEX
  8
0
  5
22F0
 10
121.300
 20
97.2500
 30
0.000000
  70
    32
  0
SEQEND
  8
0
  5
22F1
  0
LINE
  5
1EC0
  8
0
 10
53.0
 20
82.0
 30
0.0
 11
52.999999999999943
 21
57.000000000000007
 31
0.0
  0
LINE
  5
1EC1
  8
0
 10
53.0
 20
52.0
 30
0.0
 11
52.300000000000011
 21
50.0
 31
0.0
  0
ARC
  5
1EC2
  8
0
 10
52.300000000000011
 20
56.025320565519081
 30
0.0
 40
1.1999999999999991
 50
305.68533471264982
 51
54.314665287350209
  0
ARC
  5
1EC3
  8
0
 10
55.557081591750659
 20
56.025320565519081
 30
0.0
 40
2.7365427580928592
 50
159.13471993605529
 51
200.8652800639446
  0
LINE
  5
1EC4
  8
0
 10
52.999999999999943
 20
55.050641131038162
 30
0.0
 11
53.0
 21
52.0
 31
0.0
  0
LINE
  5
1EC5
  8
0
 10
47.0
 20
52.0
 30
0.0
 11
53.0
 21
52.0
 31
0.0
  0
LINE
  5
1EC6
  8
0
 10
47.699999999999982
 20
50.0
 30
0.0
 11
52.300000000000011
 21
50.0
 31
0.0
  0
LINE
  5
1EC7
  8
0
 10
47.00000000000005
 20
55.050641131038162
 30
0.0
 11
47.0
 21
52.0
 31
0.0
  0
ARC
  5
1EC8
  8
0
 10
44.442918408249326
 20
56.025320565519081
 30
0.0
 40
2.7365427580928592
 50
339.13471993605532
 51
20.86528006394466
  0
ARC
  5
1EC9
  8
0
 10
47.699999999999982
 20
56.025320565519081
 30
0.0
 40
1.1999999999999991
 50
125.68533471264971
 51
234.31466528735021
  0
LINE
  5
1ECA
  8
0
 10
47.0
 20
52.0
 30
0.0
 11
47.699999999999982
 21
50.0
 31
0.0
  0
LINE
  5
1ECB
  8
0
 10
47.0
 20
82.0
 30
0.0
 11
47.00000000000005
 21
57.000000000000007
 31
0.0
  0
LINE
  5
1F0E
  8
0
 10
117.7
 20
50.0
 30
0.0
 11
122.3
 21
50.0
 31
0.0
  0
LINE
  5
1F0F
  8
0
 10
117.0
 20
52.0
 30
0.0
 11
123.0
 21
52.0
 31
0.0
  0
LINE
  5
1F13
  8
0
 10
123.0
 20
52.0
 30
0.0
 11
122.3
 21
50.0
 31
0.0
  0
LINE
  5
1F14
  8
0
 10
123.0
 20
82.0
 30
0.0
 11
122.9999999999999
 21
52.0
 31
0.0
  0
LINE
  5
1F15
  8
0
 10
117.0
 20
82.0
 30
0.0
 11
117.0000000000001
 21
52.0
 31
0.0
  0
LINE
  5
1F16
  8
0
 10
117.0
 20
52.0
 30
0.0
 11
117.7
 21
50.0
 31
0.0
  0
CIRCLE
  5
1F1D
  8
0
 10
119.9999999999999
 20
56.025320565519081
 30
0.0
 40
0.9746794344805351
  0
ARC
  5
1F20
  8
0
 10
37.299999999999969
 20
165.99999999999989
 30
0.0
 40
1.2999999999999969
 50
90.0
 51
270.0
  0
TEXT
  5
1FDB
  8
0
 62
     3
 10
0.0
 20
0.0
 30
0.0
 40
10.0
  1
BJ775-06025-SUS
  7
STANDARD1
  0
ENDSEC
  0
EOF
