  0
SECTION
  2
HEADER
  9
$ACADVER
  1
AC1009
  9
$INSBASE
 10
0.0
 20
0.0
 30
0.0
  9
$EXTMIN
 10
0.0
 20
-2.960436562073669
 30
0.0
  9
$EXTMAX
 10
212.8717832336616
 20
98.846591192805491
 30
0.0
  9
$LIMMIN
 10
0.0
 20
0.0
  9
$LIMMAX
 10
375.0
 20
270.0
  9
$ORTHOMODE
 70
     0
  9
$REGENMODE
 70
     1
  9
$FILLMODE
 70
     1
  9
$QTEXTMODE
 70
     0
  9
$MIRRTEXT
 70
     0
  9
$DRAGMODE
 70
     2
  9
$LTSCALE
 40
5.0
  9
$OSMODE
 70
  3071
  9
$ATTMODE
 70
     1
  9
$TEXTSIZE
 40
0.2
  9
$TRACEWID
 40
0.05
  9
$TEXTSTYLE
  7
STANDARD
  9
$CLAYER
  8
0
  9
$CELTYPE
  6
BYLAYER
  9
$CECOLOR
 62
   256
  9
$DIMSCALE
 40
1.0
  9
$DIMASZ
 40
3.0
  9
$DIMEXO
 40
2.0
  9
$DIMDLI
 40
0.38
  9
$DIMRND
 40
0.0
  9
$DIMDLE
 40
0.0
  9
$DIMEXE
 40
2.0
  9
$DIMTP
 40
0.0
  9
$DIMTM
 40
0.0
  9
$DIMTXT
 40
3.2000000000000002
  9
$DIMCEN
 40
0.0
  9
$DIMTSZ
 40
0.0
  9
$DIMTOL
 70
     0
  9
$DIMLIM
 70
     0
  9
$DIMTIH
 70
     0
  9
$DIMTOH
 70
     0
  9
$DIMSE1
 70
     0
  9
$DIMSE2
 70
     0
  9
$DIMTAD
 70
     1
  9
$DIMZIN
 70
     0
  9
$DIMBLK
  1

  9
$DIMASO
 70
     0
  9
$DIMSHO
 70
     0
  9
$DIMPOST
  1

  9
$DIMAPOST
  1

  9
$DIMALT
 70
     0
  9
$DIMALTD
 70
     2
  9
$DIMALTF
 40
25.399999999999999
  9
$DIMLFAC
 40
1.0
  9
$DIMTOFL
 70
     1
  9
$DIMTVP
 40
1.6000000000000001
  9
$DIMTIX
 70
     1
  9
$DIMSOXD
 70
     0
  9
$DIMSAH
 70
     0
  9
$DIMBLK1
  1

  9
$DIMBLK2
  1

  9
$DIMSTYLE
  2
STANDARD
  9
$DIMCLRD
 70
     0
  9
$DIMCLRE
 70
     0
  9
$DIMCLRT
 70
     0
  9
$DIMTFAC
 40
1.0
  9
$DIMGAP
 40
0.09
  9
$LUNITS
 70
     2
  9
$LUPREC
 70
     4
  9
$SKETCHINC
 40
0.1
  9
$FILLETRAD
 40
0.0
  9
$AUNITS
 70
     0
  9
$AUPREC
 70
     4
  9
$MENU
  1
E:\r13\win\SUPPORT\ACAD
  9
$ELEVATION
 40
0.0
  9
$PELEVATION
 40
0.0
  9
$THICKNESS
 40
0.0
  9
$LIMCHECK
 70
     0
  9
$BLIPMODE
 70
     0
  9
$CHAMFERA
 40
0.0
  9
$CHAMFERB
 40
0.0
  9
$SKPOLY
 70
     0
  9
$TDCREATE
 40
2449840.6513888892
  9
$TDUPDATE
 40
2456598.4316190742
  9
$TDINDWG
 40
0.0333600116
  9
$TDUSRTIMER
 40
0.0333600116
  9
$USRTIMER
 70
     1
  9
$ANGBASE
 50
0.0
  9
$ANGDIR
 70
     0
  9
$PDMODE
 70
     0
  9
$PDSIZE
 40
0.0
  9
$PLINEWID
 40
0.0
  9
$COORDS
 70
     1
  9
$SPLFRAME
 70
     0
  9
$SPLINETYPE
 70
     6
  9
$SPLINESEGS
 70
     8
  9
$ATTDIA
 70
     0
  9
$ATTREQ
 70
     1
  9
$HANDLING
 70
     1
  9
$HANDSEED
  5
A85
  9
$SURFTAB1
 70
     6
  9
$SURFTAB2
 70
     6
  9
$SURFTYPE
 70
     6
  9
$SURFU
 70
     6
  9
$SURFV
 70
     6
  9
$UCSNAME
  2

  9
$UCSORG
 10
0.0
 20
0.0
 30
0.0
  9
$UCSXDIR
 10
1.0
 20
0.0
 30
0.0
  9
$UCSYDIR
 10
0.0
 20
1.0
 30
0.0
  9
$PUCSNAME
  2

  9
$PUCSORG
 10
0.0
 20
0.0
 30
0.0
  9
$PUCSXDIR
 10
1.0
 20
0.0
 30
0.0
  9
$PUCSYDIR
 10
0.0
 20
1.0
 30
0.0
  9
$USERI1
 70
     0
  9
$USERI2
 70
     1
  9
$USERI3
 70
     0
  9
$USERI4
 70
     0
  9
$USERI5
 70
     0
  9
$USERR1
 40
0.0
  9
$USERR2
 40
0.0
  9
$USERR3
 40
0.0
  9
$USERR4
 40
0.0
  9
$USERR5
 40
0.0
  9
$WORLDVIEW
 70
     1
  9
$SHADEDGE
 70
     3
  9
$SHADEDIF
 70
    70
  9
$TILEMODE
 70
     1
  9
$MAXACTVP
 70
    16
  9
$PLIMCHECK
 70
     0
  9
$PEXTMIN
 10
1.0000000000000000E+020
 20
1.0000000000000000E+020
 30
1.0000000000000000E+020
  9
$PEXTMAX
 10
-1.0000000000000000E+020
 20
-1.0000000000000000E+020
 30
-1.0000000000000000E+020
  9
$PLIMMIN
 10
0.0
 20
0.0
  9
$PLIMMAX
 10
12.0
 20
9.0
  9
$UNITMODE
 70
     0
  9
$VISRETAIN
 70
     0
  9
$PLINEGEN
 70
     0
  9
$PSLTSCALE
 70
     0
  0
ENDSEC
  0
SECTION
  2
TABLES
  0
TABLE
  2
VPORT
 70
     1
  0
VPORT
  2
*ACTIVE
 70
     0
 10
0.0
 20
0.0
 11
1.0
 21
1.0
 12
195.0581083320873
 22
133.5127261426681
 13
0.0
 23
0.0
 14
5.0
 24
5.0
 15
10.0
 25
10.0
 16
0.0
 26
0.0
 36
1.0
 17
0.0
 27
0.0
 37
0.0
 40
275.42274993631997
 41
1.831871345029239
 42
50.0
 43
0.0
 44
0.0
 50
0.0
 51
0.0
 71
     0
 72
   500
 73
     1
 74
     0
 75
     0
 76
     0
 77
     0
 78
     2
  0
ENDTAB
  0
TABLE
  2
LTYPE
 70
     3
  0
LTYPE
  2
CONTINUOUS
 70
     0
  3
Solid Line
 72
    65
 73
     0
 40
0.0
  0
LTYPE
  2
CENTER
 70
     0
  3
____ _ ____ _ ____ _ ____ _ ____ _ ____ _ ____
 72
    65
 73
     4
 40
2.0
 49
1.25
 49
-0.25
 49
0.25
 49
-0.25
  0
LTYPE
  2
PHANTOM2
 70
     0
  3
___ _ _ ___ _ _ ___ _ _ ___ _ _
 72
    65
 73
     6
 40
1.25
 49
0.625
 49
-0.125
 49
0.125
 49
-0.125
 49
0.125
 49
-0.125
  0
ENDTAB
  0
TABLE
  2
LAYER
 70
     3
  0
LAYER
  2
0
 70
     0
 62
     7
  6
CONTINUOUS
  0
LAYER
  2
1
 70
     0
 62
     1
  6
CENTER
  0
LAYER
  2
3
 70
     0
 62
     3
  6
CONTINUOUS
  0
ENDTAB
  0
TABLE
  2
STYLE
 70
     2
  0
STYLE
  2
STANDARD
 70
     0
 40
0.0
 41
1.0
 50
0.0
 71
     0
 42
0.2
  3
TXT
  4
BIGFONT
  0
STYLE
  2
STANDARD1
 70
     0
 40
0.0
 41
1.0
 50
0.0
 71
     0
 42
3.0
  3
txt
  4

  0
ENDTAB
  0
TABLE
  2
VIEW
 70
     1
  0
VIEW
  2
ALL
 70
     0
 40
270.0
 10
220.99159663865549
 20
135.0
 41
0.0
 11
0.0
 21
0.0
 31
1.0
 12
0.0
 22
0.0
 32
0.0
 42
0.0
 43
0.0
 44
0.0
 50
0.0
 71
     0
  0
ENDTAB
  0
TABLE
  2
UCS
 70
     0
  0
ENDTAB
  0
TABLE
  2
APPID
 70
     4
  0
APPID
  2
ACAD
 70
     0
  0
APPID
  2
_CALL_MAC$
 70
     0
  0
APPID
  2
ACAD_MLEADERVER
 70
     0
  0
APPID
  2
ACAD_NAV_VCDISPLAY
 70
     0
  0
ENDTAB
  0
TABLE
  2
DIMSTYLE
 70
     1
  0
DIMSTYLE
  2
STANDARD
 70
     0
  3

  4

  5

  6

  7

 40
1.0
 41
0.18
 42
0.0625
 43
0.38
 44
0.18
 45
0.0
 46
0.0
 47
0.0
 48
0.0
140
0.18
141
0.09
142
0.0
143
25.399999999999999
144
1.0
145
0.0
146
1.0
147
0.09
 71
     0
 72
     0
 73
     1
 74
     1
 75
     0
 76
     0
 77
     0
 78
     0
170
     0
171
     2
172
     0
173
     0
174
     0
175
     0
176
     0
177
     0
178
     0
  0
ENDTAB
  0
ENDSEC
  0
SECTION
  2
BLOCKS
  0
BLOCK
  8
0
  2
$MODEL_SPACE
 70
     0
 10
0.0
 20
0.0
 30
0.0
  3
$MODEL_SPACE
  1

  0
ENDBLK
  5
6E2
  8
0
  0
BLOCK
 67
     1
  8
0
  2
$PAPER_SPACE
 70
     0
 10
0.0
 20
0.0
 30
0.0
  3
$PAPER_SPACE
  1

  0
ENDBLK
  5
6E0
 67
     1
  8
0
  0
BLOCK
  8
0
  2
*X0
 70
     1
 10
0.0
 20
0.0
 30
0.0
  3
*X0
  1

  0
LINE
  5
A02
  8
0
 62
     0
 10
173.3717832336593
 20
93.453504143194067
 30
0.0
 11
172.978696184048
 21
93.846591192805406
 31
0.0
  0
LINE
  5
A03
  8
0
 62
     0
 10
173.3717832336593
 20
91.685737190227684
 30
0.0
 11
171.21092923108159
 21
93.846591192805406
 31
0.0
  0
LINE
  5
A04
  8
0
 62
     0
 10
173.3717832336593
 20
89.917970237261343
 30
0.0
 11
169.44316227811521
 21
93.846591192805406
 31
0.0
  0
LINE
  5
A05
  8
0
 62
     0
 10
173.37178323365919
 20
88.150203284294989
 30
0.0
 11
167.6753953251488
 21
93.846591192805406
 31
0.0
  0
LINE
  5
A06
  8
0
 62
     0
 10
170.2354975182013
 20
89.518722046786635
 30
0.0
 11
165.9076283721825
 21
93.846591192805406
 31
0.0
  0
LINE
  5
A07
  8
0
 62
     0
 10
173.3717832336593
 20
86.382436331328634
 30
0.0
 11
171.5439140968725
 21
88.210305468115379
 31
0.0
  0
LINE
  5
A08
  8
0
 62
     0
 10
168.21307156042749
 20
89.773381051594072
 30
0.0
 11
164.13986141921609
 21
93.846591192805448
 31
0.0
  0
LINE
  5
A09
  8
0
 62
     0
 10
173.37178323365919
 20
84.61466937836235
 30
0.0
 11
171.79857310167989
 21
86.187879510341645
 31
0.0
  0
LINE
  5
A0A
  8
0
 62
     0
 10
167.01541988591009
 20
89.203265773145105
 30
0.0
 11
162.37209446624971
 21
93.846591192805448
 31
0.0
  0
LINE
  5
A0B
  8
0
 62
     0
 10
173.37178323365919
 20
82.846902425395939
 30
0.0
 11
171.228457823231
 21
84.990227835824186
 31
0.0
  0
LINE
  5
A0C
  8
0
 62
     0
 10
166.21360755088321
 20
88.237311155205646
 30
0.0
 11
160.60432751328329
 21
93.846591192805505
 31
0.0
  0
LINE
  5
A0D
  8
0
 62
     0
 10
173.37178323365919
 20
81.079135472429613
 30
0.0
 11
170.26250320529149
 21
84.188415500797305
 31
0.0
  0
LINE
  5
A0E
  8
0
 62
     0
 10
165.8719924776419
 20
86.811159275480577
 30
0.0
 11
158.83656056031691
 21
93.846591192805505
 31
0.0
  0
LINE
  5
A0F
  8
0
 62
     0
 10
172.83656056031921
 20
79.846591192803217
 30
0.0
 11
168.8363513255664
 21
83.846800427556033
 31
0.0
  0
LINE
  5
A10
  8
0
 62
     0
 10
171.0687936073528
 20
79.846591192803231
 30
0.0
 11
157.0687936073505
 21
93.846591192805533
 31
0.0
  0
LINE
  5
A11
  8
0
 62
     0
 10
169.3010266543865
 20
79.846591192803231
 30
0.0
 11
155.3010266543842
 21
93.846591192805533
 31
0.0
  0
LINE
  5
A12
  8
0
 62
     0
 10
167.53325970142009
 20
79.846591192803231
 30
0.0
 11
153.53325970141779
 21
93.846591192805505
 31
0.0
  0
LINE
  5
A13
  8
0
 62
     0
 10
165.76549274845371
 20
79.84659119280326
 30
0.0
 11
151.76549274845149
 21
93.846591192805505
 31
0.0
  0
LINE
  5
A14
  8
0
 62
     0
 10
163.9977257954873
 20
79.846591192803288
 30
0.0
 11
149.997725795485
 21
93.846591192805576
 31
0.0
  0
LINE
  5
A15
  8
0
 62
     0
 10
162.229958842521
 20
79.846591192803231
 30
0.0
 11
148.2299588425187
 21
93.846591192805562
 31
0.0
  0
LINE
  5
A16
  8
0
 62
     0
 10
160.46219188955459
 20
79.846591192803288
 30
0.0
 11
146.46219188955229
 21
93.846591192805604
 31
0.0
  0
LINE
  5
A17
  8
0
 62
     0
 10
158.69442493658821
 20
79.846591192803317
 30
0.0
 11
144.6944249365859
 21
93.846591192805604
 31
0.0
  0
LINE
  5
A18
  8
0
 62
     0
 10
156.92665798362179
 20
79.846591192803345
 30
0.0
 11
142.92665798361949
 21
93.846591192805604
 31
0.0
  0
LINE
  5
A19
  8
0
 62
     0
 10
155.15889103065541
 20
79.846591192803345
 30
0.0
 11
141.15889103065311
 21
93.846591192805633
 31
0.0
  0
LINE
  5
A1A
  8
0
 62
     0
 10
153.391124077689
 20
79.846591192803331
 30
0.0
 11
139.8717832336593
 21
93.365932036833044
 31
0.0
  0
LINE
  5
A1B
  8
0
 62
     0
 10
151.6233571247227
 20
79.846591192803345
 30
0.0
 11
139.8717832336593
 21
91.598165083866675
 31
0.0
  0
LINE
  5
A1C
  8
0
 62
     0
 10
149.85559017175621
 20
79.846591192803416
 30
0.0
 11
139.8717832336593
 21
89.830398130900349
 31
0.0
  0
LINE
  5
A1D
  8
0
 62
     0
 10
148.08782321878991
 20
79.846591192803359
 30
0.0
 11
139.8717832336593
 21
88.062631177933966
 31
0.0
  0
LINE
  5
A1E
  8
0
 62
     0
 10
146.3200562658235
 20
79.846591192803416
 30
0.0
 11
139.8717832336593
 21
86.294864224967625
 31
0.0
  0
LINE
  5
A1F
  8
0
 62
     0
 10
144.55228931285711
 20
79.84659119280343
 30
0.0
 11
139.87178323365919
 21
84.527097272001328
 31
0.0
  0
LINE
  5
A20
  8
0
 62
     0
 10
142.7845223598907
 20
79.846591192803444
 30
0.0
 11
139.87178323365919
 21
82.759330319034916
 31
0.0
  0
LINE
  5
A21
  8
0
 62
     0
 10
141.0167554069244
 20
79.846591192803444
 30
0.0
 11
139.87178323365919
 21
80.991563366068576
 31
0.0
  0
ENDBLK
  5
A23
  8
0
  0
BLOCK
  8
0
  2
*X1
 70
     1
 10
0.0
 20
0.0
 30
0.0
  3
*X1
  1

  0
LINE
  5
A25
  8
0
 62
     0
 10
171.7075167961352
 20
79.846591192803231
 30
0.0
 11
173.3717832336593
 21
81.510857630327294
 31
0.0
  0
LINE
  5
A26
  8
0
 62
     0
 10
169.93974984316881
 20
79.84659119280326
 30
0.0
 11
173.37178323365919
 21
83.278624583293663
 31
0.0
  0
LINE
  5
A27
  8
0
 62
     0
 10
168.1719828902024
 20
79.846591192803203
 30
0.0
 11
173.3717832336593
 21
85.046391536260046
 31
0.0
  0
LINE
  5
A28
  8
0
 62
     0
 10
166.4042159372361
 20
79.846591192803231
 30
0.0
 11
173.3717832336593
 21
86.814158489226443
 31
0.0
  0
LINE
  5
A29
  8
0
 62
     0
 10
171.8632015074931
 20
87.073343716026557
 30
0.0
 11
173.3717832336593
 21
88.581925442192812
 31
0.0
  0
LINE
  5
A2A
  8
0
 62
     0
 10
164.6364489842698
 20
79.84659119280326
 30
0.0
 11
168.64503070120651
 21
83.855172909739963
 31
0.0
  0
LINE
  5
A2B
  8
0
 62
     0
 10
171.43216090048281
 20
88.410070061982708
 30
0.0
 11
173.3717832336593
 21
90.349692395159195
 31
0.0
  0
LINE
  5
A2C
  8
0
 62
     0
 10
162.86868203130339
 20
79.84659119280326
 30
0.0
 11
167.3083043552503
 21
84.286213516750138
 31
0.0
  0
LINE
  5
A2D
  8
0
 62
     0
 10
170.57235983405491
 20
89.318035948521114
 30
0.0
 11
173.37178323365939
 21
92.117459348125607
 31
0.0
  0
LINE
  5
A2E
  8
0
 62
     0
 10
161.1009150783371
 20
79.846591192803288
 30
0.0
 11
166.40033846871179
 21
85.146014583178115
 31
0.0
  0
LINE
  5
A2F
  8
0
 62
     0
 10
169.30212238583479
 20
89.815565453267425
 30
0.0
 11
173.33314812537279
 21
93.846591192805363
 31
0.0
  0
LINE
  5
A30
  8
0
 62
     0
 10
159.33314812537071
 20
79.846591192803317
 30
0.0
 11
165.90280896396561
 21
86.416252031398187
 31
0.0
  0
LINE
  5
A31
  8
0
 62
     0
 10
157.5653811724043
 20
79.846591192803288
 30
0.0
 11
171.5653811724064
 21
93.846591192805406
 31
0.0
  0
LINE
  5
A32
  8
0
 62
     0
 10
155.797614219438
 20
79.846591192803317
 30
0.0
 11
169.79761421944011
 21
93.846591192805406
 31
0.0
  0
LINE
  5
A33
  8
0
 62
     0
 10
154.02984726647159
 20
79.846591192803317
 30
0.0
 11
168.02984726647369
 21
93.846591192805406
 31
0.0
  0
LINE
  5
A34
  8
0
 62
     0
 10
152.26208031350529
 20
79.846591192803402
 30
0.0
 11
166.26208031350731
 21
93.846591192805448
 31
0.0
  0
LINE
  5
A35
  8
0
 62
     0
 10
150.49431336053891
 20
79.846591192803373
 30
0.0
 11
164.49431336054101
 21
93.846591192805406
 31
0.0
  0
LINE
  5
A36
  8
0
 62
     0
 10
148.72654640757261
 20
79.846591192803373
 30
0.0
 11
162.7265464075746
 21
93.846591192805406
 31
0.0
  0
LINE
  5
A37
  8
0
 62
     0
 10
146.9587794546062
 20
79.846591192803345
 30
0.0
 11
160.9587794546083
 21
93.846591192805448
 31
0.0
  0
LINE
  5
A38
  8
0
 62
     0
 10
145.19101250163979
 20
79.846591192803373
 30
0.0
 11
159.19101250164189
 21
93.846591192805477
 31
0.0
  0
LINE
  5
A39
  8
0
 62
     0
 10
143.42324554867349
 20
79.846591192803402
 30
0.0
 11
157.4232455486756
 21
93.846591192805505
 31
0.0
  0
LINE
  5
A3A
  8
0
 62
     0
 10
141.65547859570711
 20
79.84659119280343
 30
0.0
 11
155.65547859570921
 21
93.846591192805533
 31
0.0
  0
LINE
  5
A3B
  8
0
 62
     0
 10
139.88771164274081
 20
79.84659119280343
 30
0.0
 11
153.8877116427428
 21
93.846591192805477
 31
0.0
  0
LINE
  5
A3C
  8
0
 62
     0
 10
139.87178323365919
 20
81.598429736688303
 30
0.0
 11
152.1199446897765
 21
93.846591192805505
 31
0.0
  0
LINE
  5
A3D
  8
0
 62
     0
 10
139.87178323365919
 20
83.366196689654657
 30
0.0
 11
150.35217773681021
 21
93.84659119280559
 31
0.0
  0
LINE
  5
A3E
  8
0
 62
     0
 10
139.8717832336593
 20
85.133963642621055
 30
0.0
 11
148.58441078384379
 21
93.84659119280559
 31
0.0
  0
LINE
  5
A3F
  8
0
 62
     0
 10
139.8717832336593
 20
86.901730595587395
 30
0.0
 11
146.81664383087741
 21
93.846591192805562
 31
0.0
  0
LINE
  5
A40
  8
0
 62
     0
 10
139.8717832336593
 20
88.669497548553863
 30
0.0
 11
145.04887687791111
 21
93.84659119280559
 31
0.0
  0
LINE
  5
A41
  8
0
 62
     0
 10
139.8717832336593
 20
90.437264501520204
 30
0.0
 11
143.28110992494479
 21
93.846591192805676
 31
0.0
  0
LINE
  5
A42
  8
0
 62
     0
 10
139.8717832336593
 20
92.205031454486587
 30
0.0
 11
141.5133429719784
 21
93.846591192805704
 31
0.0
  0
ENDBLK
  5
A44
  8
0
  0
ENDSEC
  0
SECTION
  2
ENTITIES
  0
CIRCLE
  5
884
  8
0
 10
200.87178323366061
 20
86.846591192804254
 30
0.0
 40
4.75
  0
LINE
  5
885
  8
1
 10
200.87178323366069
 20
74.846591192803231
 30
0.0
 11
200.87178323366041
 21
98.846591192805406
 31
0.0
  0
LINE
  5
886
  8
1
 10
212.8717832336616
 20
86.846591192804198
 30
0.0
 11
188.87178323365939
 21
86.846591192804297
 31
0.0
  0
CIRCLE
  5
887
  8
0
 10
200.87178323366049
 20
86.846591192804297
 30
0.0
 40
7.00000000000108
  0
INSERT
  5
888
  8
3
  6
CONTINUOUS
  2
*X0
 10
0.0
 20
0.0
 30
0.0
1001
ACAD
1000
HATCH
1002
{
1070
    19
1000
ANSI31
1040
10.0
1040
1.5707963267948959
1000
R14_HATCH_DATA
1000
888
1011
1.0
1021
0.0
1031
0.0
1021
0.0
1031
0.0
1011
0.0
1021
0.0
1031
0.0
1021
1.0
1031
0.0
1011
0.0
1021
0.0
1031
0.0
1021
0.0
1031
1.0
1040
0.0
1010
0.0
1020
0.0
1030
1.0
1000
ANSI31
1070
     0
1070
     0
1071
        2
1071
       16
1071
        1
1070
     2
1040
168.87178323365939
1040
86.846591183573565
1040
2.9999999999999019
1040
0.0
1040
6.2831853071795862
1070
     1
1071
        0
1071
        1
1071
        4
1070
     1
1040
139.8717832336593
1040
93.846591192805676
1040
139.87178323365919
1040
79.846591192803459
1070
     1
1040
139.87178323365919
1040
79.846591192803459
1040
173.37178323365919
1040
79.846591192803203
1070
     1
1040
173.37178323365919
1040
79.846591192803203
1040
173.3717832336593
1040
93.846591192805406
1070
     1
1040
173.3717832336593
1040
93.846591192805406
1040
139.8717832336593
1040
93.846591192805676
1071
        0
1070
     0
1070
     1
1040
1.5707963267948959
1040
10.0
1070
     0
1070
     1
1040
2.3561944901923439
1040
-189.23630320339521
1040
-162.65684295798039
1040
-0.8838834764831844
1040
-0.8838834764831842
1070
     0
1071
        1
1040
-189.23630320339521
1040
-162.65684295798039
1040
0.0
1002
}
  0
INSERT
  5
889
  8
3
  6
CONTINUOUS
  2
*X1
 10
0.0
 20
0.0
 30
0.0
1001
ACAD
1000
HATCH
1002
{
1070
    19
1000
ANSI31
1040
10.0
1040
0.0
1000
R14_HATCH_DATA
1000
889
1011
1.0
1021
0.0
1031
0.0
1021
0.0
1031
0.0
1011
0.0
1021
0.0
1031
0.0
1021
1.0
1031
0.0
1011
0.0
1021
0.0
1031
0.0
1021
0.0
1031
1.0
1040
0.0
1010
0.0
1020
0.0
1030
1.0
1000
ANSI31
1070
     0
1070
     0
1071
        2
1071
       16
1071
        1
1070
     2
1040
168.87178323365939
1040
86.846591183573565
1040
2.9999999999999019
1040
0.0
1040
6.2831853071795862
1070
     1
1071
        0
1071
        1
1071
        4
1070
     1
1040
139.8717832336593
1040
93.846591192805676
1040
139.87178323365919
1040
79.846591192803459
1070
     1
1040
139.87178323365919
1040
79.846591192803459
1040
173.37178323365919
1040
79.846591192803203
1070
     1
1040
173.37178323365919
1040
79.846591192803203
1040
173.3717832336593
1040
93.846591192805406
1070
     1
1040
173.3717832336593
1040
93.846591192805406
1040
139.8717832336593
1040
93.846591192805676
1071
        0
1070
     0
1070
     1
1040
0.0
1040
10.0
1070
     0
1070
     1
1040
0.7853981633974483
1040
-189.23630320339521
1040
-162.65684295798039
1040
-0.8838834764831842
1040
0.8838834764831844
1070
     0
1071
        1
1040
-189.23630320339521
1040
-162.65684295798039
1040
0.0
1002
}
  0
LINE
  5
88A
  8
0
 10
138.8717832336593
 20
92.846591192804453
 30
0.0
 11
138.8717832336593
 21
80.846591192803444
 31
0.0
  0
LINE
  5
88B
  8
0
 10
173.8717832336593
 20
93.346591192805349
 30
0.0
 11
173.87178323365919
 21
80.346591192803231
 31
0.0
  0
LINE
  5
88C
  8
0
 10
40.721783234325919
 20
85.761464474463054
 30
0.0
 11
40.721783232990497
 21
87.931717915884107
 31
0.0
  0
ARC
  5
88D
  8
0
 10
36.871783233658221
 20
86.846591192804667
 30
0.0
 40
4.000000000000016
 50
15.740548560423941
 51
344.25945151008671
  0
CIRCLE
  5
88E
  8
0
 10
36.871783233658221
 20
86.846591192804667
 30
0.0
 40
3.4641016151377779
  0
CIRCLE
  5
88F
  8
0
 10
36.871783233658221
 20
86.846591192804425
 30
0.0
 40
5.9999999999998863
  0
ARC
  5
890
  8
0
 10
36.871783233658221
 20
86.846591192804425
 30
0.0
 40
4.0000000000000586
 50
344.25945151008472
 51
15.74054856042634
  0
CIRCLE
  5
891
  8
0
 10
36.871783233658221
 20
86.846591192804397
 30
0.0
 40
7.00000000000108
  0
CIRCLE
  5
892
  8
0
 10
168.87178323365939
 20
86.846591183573565
 30
0.0
 40
2.9999999999999019
  0
LINE
  5
893
  8
0
 10
65.871783233659357
 20
82.846591192804794
 30
0.0
 11
133.87178323365919
 21
82.846590731400511
 31
0.0
  0
LINE
  5
894
  8
0
 10
133.8717832336593
 20
90.846591654208112
 30
0.0
 11
65.871783233659357
 21
90.846591192804823
 31
0.0
  0
LINE
  5
895
  8
0
 10
65.871783233659357
 20
90.846591192804823
 30
0.0
 11
63.871783233659357
 21
90.310692807942587
 31
0.0
  0
LINE
  5
896
  8
0
 10
63.871783233659301
 20
83.382489577667059
 30
0.0
 11
65.871783233659357
 21
82.846591192804794
 31
0.0
  0
LINE
  5
899
  8
0
 10
173.3717832336593
 20
93.846591192805406
 30
0.0
 11
139.8717832336593
 21
93.846591192805647
 31
0.0
  0
LINE
  5
89A
  8
0
 10
139.87178323365919
 20
79.846591192803459
 30
0.0
 11
173.37178323365919
 21
79.846591192803203
 31
0.0
  0
LINE
  5
89B
  8
0
 10
139.8717832336593
 20
93.846591192805647
 30
0.0
 11
138.8717832336593
 21
92.846591192804453
 31
0.0
  0
LINE
  5
89C
  8
0
 10
138.8717832336593
 20
80.846591192803444
 30
0.0
 11
139.87178323365919
 21
79.846591192803459
 31
0.0
  0
LINE
  5
89D
  8
0
 10
138.8717832336593
 20
92.846591192804453
 30
0.0
 11
134.3717832336593
 21
92.846591192804482
 31
0.0
  0
LINE
  5
89E
  8
0
 10
134.37178323365919
 20
80.846591192804681
 30
0.0
 11
138.8717832336593
 21
80.846591192803444
 31
0.0
  0
LINE
  5
89F
  8
0
 10
134.3717832336593
 20
92.846591192804482
 30
0.0
 11
133.8717832336593
 21
92.346591192804496
 31
0.0
  0
LINE
  5
8A0
  8
0
 10
133.87178323365919
 20
81.346591192804695
 30
0.0
 11
134.37178323365919
 21
80.846591192804681
 31
0.0
  0
LINE
  5
8A1
  8
0
 10
65.871783233659357
 20
87.931717915884292
 30
0.0
 11
65.871783233659357
 21
90.846591192804823
 31
0.0
  0
LINE
  5
8A2
  8
0
 10
65.871783233659357
 20
82.846591192804794
 30
0.0
 11
65.871783233659357
 21
85.761464474463224
 31
0.0
  0
LINE
  5
8A3
  8
0
 10
133.8717832336593
 20
85.761464342879506
 30
0.0
 11
65.871783233659357
 21
85.761464474463224
 31
0.0
  0
LINE
  5
8A4
  8
0
 10
133.8717832336593
 20
87.93171803596077
 30
0.0
 11
65.871783233659357
 21
87.931717915884292
 31
0.0
  0
POLYLINE
  5
8A5
  8
0
 66
     1
 10
0.0
 20
0.0
 30
0.0
 70
   128
  0
VERTEX
  5
A45
  8
0
 10
65.871783449726124
 20
85.761464420281897
 30
0.0
  0
VERTEX
  5
A46
  8
0
 10
65.626618835555334
 20
86.036478505045721
 30
0.0
  0
VERTEX
  5
A47
  8
0
 10
65.39179190196279
 20
86.440222586313794
 30
0.0
  0
VERTEX
  5
A48
  8
0
 10
65.31291213952187
 20
86.802636176069115
 30
0.0
  0
VERTEX
  5
A49
  8
0
 10
65.36299354531053
 20
87.171318752732674
 30
0.0
  0
VERTEX
  5
A4A
  8
0
 10
65.582960295902581
 20
87.597836785059954
 30
0.0
  0
VERTEX
  5
A4B
  8
0
 10
65.871783449726195
 20
87.931717965327735
 30
0.0
  0
SEQEND
  5
A4C
  8
0
  0
LINE
  5
8A6
  8
0
 10
63.871783233659301
 20
83.382489577667073
 30
0.0
 11
63.871783233659357
 21
90.310692807942587
 31
0.0
  0
LINE
  5
8A7
  8
0
 10
173.37178323365919
 20
79.846591192803203
 30
0.0
 11
173.3717832336593
 21
93.846591192805406
 31
0.0
  0
LINE
  5
8A8
  8
0
 10
139.8717832336593
 20
93.846591192805647
 30
0.0
 11
139.87178323365919
 21
79.846591192803459
 31
0.0
  0
LINE
  5
8A9
  8
0
 10
134.3717832336593
 20
92.846591192804482
 30
0.0
 11
134.37178323365919
 21
80.846591192804681
 31
0.0
  0
LINE
  5
8AA
  8
0
 10
133.87178323365919
 20
81.346591192804695
 30
0.0
 11
133.8717832336593
 21
92.346591192804496
 31
0.0
  0
LINE
  5
8AC
  8
1
 10
178.8717832336593
 20
86.846591192804297
 30
0.0
 11
58.871783233659301
 21
86.846591192804283
 31
0.0
  0
LINE
  5
8AD
  8
1
 10
168.87178323365939
 20
81.346591183573651
 30
0.0
 11
168.87178323365939
 21
92.346591183573466
 31
0.0
  0
LINE
  5
8AE
  8
1
 10
48.871783233659301
 20
86.846591192804283
 30
0.0
 11
24.87178323365714
 21
86.846591192804397
 31
0.0
  0
LINE
  5
8AF
  8
1
 10
36.871783233658391
 20
74.846591192803317
 30
0.0
 11
36.871783233658107
 21
98.846591192805491
 31
0.0
  0
CIRCLE
  5
8BD
  8
0
 10
200.87178323366049
 20
86.846591192804055
 30
0.0
 40
3.730384757729325
  0
LINE
  5
8BE
  8
0
 10
198.87178323366069
 20
85.691890654424995
 30
0.0
 11
200.87178323366069
 21
84.537190116045664
 31
0.0
  0
LINE
  5
8BF
  8
0
 10
200.87178323366069
 20
84.537190116045664
 30
0.0
 11
202.87178323366049
 21
85.691890654424995
 31
0.0
  0
LINE
  5
8C0
  8
0
 10
202.87178323366049
 20
85.691890654424995
 30
0.0
 11
202.87178323366049
 21
88.001291731183812
 31
0.0
  0
LINE
  5
8C1
  8
0
 10
202.87178323366049
 20
88.001291731183812
 30
0.0
 11
200.87178323366049
 21
89.155992269562645
 31
0.0
  0
LINE
  5
8C2
  8
0
 10
200.87178323366049
 20
89.155992269562645
 30
0.0
 11
198.87178323366021
 21
88.001291731183116
 31
0.0
  0
LINE
  5
8C3
  8
0
 10
198.87178323366021
 20
88.001291731183116
 30
0.0
 11
198.87178323366069
 21
85.691890654424995
 31
0.0
  0
CIRCLE
  5
8C4
  8
0
 10
200.87178323366049
 20
86.846591192804055
 30
0.0
 40
4.25
  0
LINE
  5
901
  8
0
 10
173.8717832336593
 20
93.346591192805349
 30
0.0
 11
173.3717832336593
 21
93.846591192805406
 31
0.0
  0
LINE
  5
903
  8
0
 10
173.87178323365919
 20
80.346591192803231
 30
0.0
 11
173.37178323365919
 21
79.846591192803203
 31
0.0
  0
TEXT
  5
9A8
  8
0
 62
     3
 10
0.0
 20
0.0
 30
0.0
 40
10.0
  1
BJ820-08070
  7
STANDARD1
  0
ENDSEC
  0
EOF
