  0
SECTION
  2
HEADER
  9
$ACADVER
  1
AC1009
  9
$INSBASE
 10
0.0
 20
0.0
 30
0.0
  9
$EXTMIN
 10
0.0
 20
-1.4802182810368341
 30
0.0
  9
$EXTMAX
 10
195.329446785925
 20
121.9147233929625
 30
0.0
  9
$LIMMIN
 10
0.0
 20
0.0
  9
$LIMMAX
 10
385.0
 20
270.0
  9
$ORTHOMODE
 70
     1
  9
$REGENMODE
 70
     1
  9
$FILLMODE
 70
     1
  9
$QTEXTMODE
 70
     0
  9
$MIRRTEXT
 70
     0
  9
$DRAGMODE
 70
     2
  9
$LTSCALE
 40
10.0
  9
$OSMODE
 70
    37
  9
$ATTMODE
 70
     1
  9
$TEXTSIZE
 40
0.2
  9
$TRACEWID
 40
0.05
  9
$TEXTSTYLE
  7
STANDARD
  9
$CLAYER
  8
0
  9
$CELTYPE
  6
BYLAYER
  9
$CECOLOR
 62
   256
  9
$DIMSCALE
 40
1.0
  9
$DIMASZ
 40
3.0
  9
$DIMEXO
 40
1.0
  9
$DIMDLI
 40
6.0
  9
$DIMRND
 40
0.0
  9
$DIMDLE
 40
0.0
  9
$DIMEXE
 40
1.0
  9
$DIMTP
 40
495.0
  9
$DIMTM
 40
0.0
  9
$DIMTXT
 40
3.0
  9
$DIMCEN
 40
0.0
  9
$DIMTSZ
 40
0.0
  9
$DIMTOL
 70
     0
  9
$DIMLIM
 70
     0
  9
$DIMTIH
 70
     0
  9
$DIMTOH
 70
     0
  9
$DIMSE1
 70
     0
  9
$DIMSE2
 70
     0
  9
$DIMTAD
 70
     1
  9
$DIMZIN
 70
     8
  9
$DIMBLK
  1

  9
$DIMASO
 70
     0
  9
$DIMSHO
 70
     0
  9
$DIMPOST
  1

  9
$DIMAPOST
  1

  9
$DIMALT
 70
     0
  9
$DIMALTD
 70
     2
  9
$DIMALTF
 40
25.399999999999999
  9
$DIMLFAC
 40
1.0
  9
$DIMTOFL
 70
     1
  9
$DIMTVP
 40
0.0
  9
$DIMTIX
 70
     1
  9
$DIMSOXD
 70
     0
  9
$DIMSAH
 70
     0
  9
$DIMBLK1
  1

  9
$DIMBLK2
  1

  9
$DIMSTYLE
  2
STANDARD
  9
$DIMCLRD
 70
     0
  9
$DIMCLRE
 70
     0
  9
$DIMCLRT
 70
   256
  9
$DIMTFAC
 40
1.0
  9
$DIMGAP
 40
1.0
  9
$LUNITS
 70
     2
  9
$LUPREC
 70
     1
  9
$SKETCHINC
 40
0.1
  9
$FILLETRAD
 40
0.0
  9
$AUNITS
 70
     0
  9
$AUPREC
 70
     1
  9
$MENU
  1
E:\r13\win\SUPPORT\ACAD
  9
$ELEVATION
 40
0.0
  9
$PELEVATION
 40
0.0
  9
$THICKNESS
 40
0.0
  9
$LIMCHECK
 70
     0
  9
$BLIPMODE
 70
     0
  9
$CHAMFERA
 40
0.0
  9
$CHAMFERB
 40
0.0
  9
$SKPOLY
 70
     0
  9
$TDCREATE
 40
2450653.5278402781
  9
$TDUPDATE
 40
2457550.4785447111
  9
$TDINDWG
 40
0.0401404745
  9
$TDUSRTIMER
 40
0.0401404745
  9
$USRTIMER
 70
     1
  9
$ANGBASE
 50
0.0
  9
$ANGDIR
 70
     0
  9
$PDMODE
 70
     0
  9
$PDSIZE
 40
0.0
  9
$PLINEWID
 40
0.0
  9
$COORDS
 70
     1
  9
$SPLFRAME
 70
     0
  9
$SPLINETYPE
 70
     6
  9
$SPLINESEGS
 70
     8
  9
$ATTDIA
 70
     0
  9
$ATTREQ
 70
     1
  9
$HANDLING
 70
     1
  9
$HANDSEED
  5
590
  9
$SURFTAB1
 70
     6
  9
$SURFTAB2
 70
     6
  9
$SURFTYPE
 70
     6
  9
$SURFU
 70
     6
  9
$SURFV
 70
     6
  9
$UCSNAME
  2

  9
$UCSORG
 10
0.0
 20
0.0
 30
0.0
  9
$UCSXDIR
 10
1.0
 20
0.0
 30
0.0
  9
$UCSYDIR
 10
0.0
 20
1.0
 30
0.0
  9
$PUCSNAME
  2

  9
$PUCSORG
 10
0.0
 20
0.0
 30
0.0
  9
$PUCSXDIR
 10
1.0
 20
0.0
 30
0.0
  9
$PUCSYDIR
 10
0.0
 20
1.0
 30
0.0
  9
$USERI1
 70
     3
  9
$USERI2
 70
     1
  9
$USERI3
 70
     0
  9
$USERI4
 70
     0
  9
$USERI5
 70
     0
  9
$USERR1
 40
1.0
  9
$USERR2
 40
3.0
  9
$USERR3
 40
3.0
  9
$USERR4
 40
3.0
  9
$USERR5
 40
10.0
  9
$WORLDVIEW
 70
     1
  9
$SHADEDGE
 70
     3
  9
$SHADEDIF
 70
    70
  9
$TILEMODE
 70
     1
  9
$MAXACTVP
 70
    16
  9
$PLIMCHECK
 70
     0
  9
$PEXTMIN
 10
1.0000000000000000E+020
 20
1.0000000000000000E+020
 30
1.0000000000000000E+020
  9
$PEXTMAX
 10
-1.0000000000000000E+020
 20
-1.0000000000000000E+020
 30
-1.0000000000000000E+020
  9
$PLIMMIN
 10
0.0
 20
0.0
  9
$PLIMMAX
 10
12.0
 20
9.0
  9
$UNITMODE
 70
     0
  9
$VISRETAIN
 70
     0
  9
$PLINEGEN
 70
     0
  9
$PSLTSCALE
 70
     0
  0
ENDSEC
  0
SECTION
  2
TABLES
  0
TABLE
  2
VPORT
 70
     1
  0
VPORT
  2
*ACTIVE
 70
     0
 10
0.0
 20
0.0
 11
1.0
 21
1.0
 12
172.54273504273499
 22
95.0
 13
0.0
 23
0.0
 14
5.0
 24
5.0
 15
10.0
 25
10.0
 16
0.0
 26
0.0
 36
1.0
 17
0.0
 27
0.0
 37
0.0
 40
190.0
 41
1.816239316239316
 42
50.0
 43
0.0
 44
0.0
 50
0.0
 51
0.0
 71
     0
 72
   100
 73
     1
 74
     0
 75
     0
 76
     0
 77
     0
 78
     0
  0
ENDTAB
  0
TABLE
  2
LTYPE
 70
     4
  0
LTYPE
  2
CONTINUOUS
 70
     0
  3
Solid Line
 72
    65
 73
     0
 40
0.0
  0
LTYPE
  2
CENTER
 70
     0
  3
____ _ ____ _ ____ _ ____ _ ____ _ ____ _ ____
 72
    65
 73
     4
 40
2.0
 49
1.25
 49
-0.25
 49
0.25
 49
-0.25
  0
LTYPE
  2
HIDDEN
 70
     0
  3
_ _ _ _ _ _ _ _ _ _ _ _ _ _ _ _ _ _ _ _ _ _ _
 72
    65
 73
     2
 40
0.375
 49
0.25
 49
-0.125
  0
LTYPE
  2
PHANTOM2
 70
     0
  3
___ _ _ ___ _ _ ___ _ _ ___ _ _
 72
    65
 73
     6
 40
1.25
 49
0.625
 49
-0.125
 49
0.125
 49
-0.125
 49
0.125
 49
-0.125
  0
ENDTAB
  0
TABLE
  2
LAYER
 70
     3
  0
LAYER
  2
0
 70
     0
 62
     7
  6
CONTINUOUS
  0
LAYER
  2
1
 70
     0
 62
     1
  6
CENTER
  0
LAYER
  2
2
 70
     0
 62
     2
  6
HIDDEN
  0
ENDTAB
  0
TABLE
  2
STYLE
 70
     2
  0
STYLE
  2
STANDARD
 70
     0
 40
0.0
 41
1.0
 50
0.0
 71
     0
 42
0.2
  3
simplex
  4
bigfont
  0
STYLE
  2
STANDARD1
 70
     0
 40
0.0
 41
1.0
 50
0.0
 71
     0
 42
3.0
  3
txt
  4

  0
ENDTAB
  0
TABLE
  2
VIEW
 70
     0
  0
ENDTAB
  0
TABLE
  2
UCS
 70
     0
  0
ENDTAB
  0
TABLE
  2
APPID
 70
     6
  0
APPID
  2
ACAD
 70
     0
  0
APPID
  2
ACAD_MLEADERVER
 70
     0
  0
APPID
  2
ACAD_EXEMPT_FROM_CAD_STANDARDS
 70
     0
  0
APPID
  2
ACAD_NAV_VCDISPLAY
 70
     0
  0
APPID
  2
ACAD_DSTYLE_DIMJAG
 70
     0
  0
APPID
  2
ACAD_DSTYLE_DIMTALN
 70
     0
  0
ENDTAB
  0
TABLE
  2
DIMSTYLE
 70
     1
  0
DIMSTYLE
  2
STANDARD
 70
     0
  3

  4

  5

  6

  7

 40
1.0
 41
0.18
 42
0.0625
 43
0.38
 44
0.18
 45
0.0
 46
0.0
 47
0.0
 48
0.0
140
0.18
141
0.09
142
0.0
143
25.399999999999999
144
1.0
145
0.0
146
1.0
147
0.09
 71
     0
 72
     0
 73
     1
 74
     1
 75
     0
 76
     0
 77
     0
 78
     0
170
     0
171
     2
172
     0
173
     0
174
     0
175
     0
176
     0
177
     0
178
     0
  0
ENDTAB
  0
ENDSEC
  0
SECTION
  2
BLOCKS
  0
BLOCK
  8
0
  2
$MODEL_SPACE
 70
     0
 10
0.0
 20
0.0
 30
0.0
  3
$MODEL_SPACE
  1

  0
ENDBLK
  5
3A3
  8
0
  0
BLOCK
 67
     1
  8
0
  2
$PAPER_SPACE
 70
     0
 10
0.0
 20
0.0
 30
0.0
  3
$PAPER_SPACE
  1

  0
ENDBLK
  5
3A1
 67
     1
  8
0
  0
ENDSEC
  0
SECTION
  2
ENTITIES
  0
ARC
  5
2DB
  8
0
 10
116.4147233929625
 20
101.4147233929625
 30
0.0
 40
18.0
 50
187.96415715516321
 51
172.03584284483679
  0
LINE
  5
2DC
  8
1
 10
116.4147233929625
 20
80.914723392962486
 30
0.0
 11
116.4147233929625
 21
121.9147233929625
 31
0.0
  0
LINE
  5
2DD
  8
1
 10
136.91472339296249
 20
101.4147233929625
 30
0.0
 11
95.914723392962514
 21
101.4147233929625
 31
0.0
  0
ARC
  5
2DF
  8
0
 10
116.4147233929625
 20
101.4147233929625
 30
0.0
 40
11.0
 50
294.6199773286549
 51
65.380022671345117
  0
LINE
  5
2E0
  8
0
 10
120.99729908791829
 20
91.414723392962486
 30
0.0
 11
111.83214769800659
 21
91.414723392962486
 31
0.0
  0
LINE
  5
2E1
  8
0
 10
120.99729908791829
 20
111.4147233929625
 30
0.0
 11
111.83214769800659
 21
111.4147233929624
 31
0.0
  0
ARC
  5
2E2
  8
0
 10
116.4147233929625
 20
101.4147233929625
 30
0.0
 40
11.0
 50
114.6199773286548
 51
245.3800226713449
  0
ARC
  5
2E3
  8
0
 10
98.414723392962514
 20
101.4147233929625
 30
0.0
 40
2.5
 50
273.98207857758149
 51
86.017921422418496
  0
LINE
  5
2E4
  8
0
 10
59.000000000000021
 20
119.4147233929624
 30
0.0
 11
41.999999999999929
 21
119.4147233929625
 31
0.0
  0
LINE
  5
2E5
  8
0
 10
40.0
 20
119.0620694315455
 30
0.0
 11
39.999999999999993
 21
83.767377354379448
 31
0.0
  0
LINE
  5
2E6
  8
0
 10
42.000000000000007
 20
83.414723392962486
 30
0.0
 11
58.999999999999979
 21
83.414723392962486
 31
0.0
  0
LINE
  5
2E7
  8
0
 10
58.999999999999979
 20
119.4147233929625
 30
0.0
 11
58.999999999999979
 21
83.414723392962486
 31
0.0
  0
LINE
  5
2E8
  8
1
 10
61.499999999999979
 20
101.4147233929625
 30
0.0
 11
37.499999999999993
 21
101.4147233929625
 31
0.0
  0
LINE
  5
2E9
  8
2
 10
59.000000000000021
 20
91.414723392962486
 30
0.0
 11
39.999999999999993
 21
91.414723392962486
 31
0.0
  0
LINE
  5
2EA
  8
2
 10
59.000000000000021
 20
111.4147233929625
 30
0.0
 11
39.999999999999993
 21
111.4147233929625
 31
0.0
  0
LINE
  5
2EB
  8
0
 10
59.000000000000021
 20
98.920758841871432
 30
0.0
 11
39.999999999999993
 21
98.920758841871447
 31
0.0
  0
LINE
  5
2EC
  8
0
 10
59.000000000000021
 20
103.9086879440535
 30
0.0
 11
39.999999999999993
 21
103.9086879440535
 31
0.0
  0
LINE
  5
2ED
  8
0
 10
42.0
 20
119.4147233929625
 30
0.0
 11
41.999999999999979
 21
103.9086879440535
 31
0.0
  0
LINE
  5
2EE
  8
0
 10
41.999999999999979
 20
83.414723392962486
 30
0.0
 11
39.999999999999993
 21
83.767377354379406
 31
0.0
  0
LINE
  5
2EF
  8
0
 10
42.0
 20
119.4147233929625
 30
0.0
 11
40.0
 21
119.06206943154559
 31
0.0
  0
LINE
  5
2F0
  8
0
 10
41.999999999999979
 20
98.920758841871447
 30
0.0
 11
41.999999999999979
 21
83.414723392962486
 31
0.0
  0
LINE
  5
2F1
  8
0
 10
98.767377354379434
 20
25.0
 30
0.0
 11
134.0620694315455
 21
25.0
 31
0.0
  0
LINE
  5
2F2
  8
0
 10
98.414723392962514
 20
44.0
 30
0.0
 11
134.41472339296249
 21
44.0
 31
0.0
  0
LINE
  5
2F3
  8
0
 10
98.414723392962514
 20
44.000000000000028
 30
0.0
 11
98.414723392962514
 21
26.999999999999929
 31
0.0
  0
LINE
  5
2F6
  8
1
 10
116.4147233929625
 20
46.5
 30
0.0
 11
116.4147233929625
 21
22.5
 31
0.0
  0
LINE
  5
2F7
  8
0
 10
98.414723392962514
 20
27.0
 30
0.0
 11
134.41472339296249
 21
27.000000000000011
 31
0.0
  0
LINE
  5
2F8
  8
0
 10
98.414723392962514
 20
27.0
 30
0.0
 11
98.767377354379434
 21
25.0
 31
0.0
  0
LINE
  5
2F9
  8
0
 10
134.41472339296249
 20
27.000000000000028
 30
0.0
 11
134.41472339296249
 21
44.0
 31
0.0
  0
LINE
  5
2FD
  8
0
 10
134.41472339296249
 20
27.0
 30
0.0
 11
134.06206943154561
 21
25.0
 31
0.0
  0
LINE
  5
306
  8
2
 10
127.4147233929625
 20
44.000000000000028
 30
0.0
 11
127.4147233929625
 21
25.0
 31
0.0
  0
LINE
  5
307
  8
2
 10
120.99729908791829
 20
44.000000000000028
 30
0.0
 11
120.99729908791829
 21
25.0
 31
0.0
  0
LINE
  5
308
  8
2
 10
111.83214769800669
 20
44.000000000000028
 30
0.0
 11
111.83214769800669
 21
25.0
 31
0.0
  0
LINE
  5
309
  8
2
 10
105.4147233929625
 20
44.000000000000028
 30
0.0
 11
105.4147233929625
 21
25.0
 31
0.0
  0
LINE
  5
30A
  8
0
 10
192.829446785925
 20
83.767377354379406
 30
0.0
 11
192.829446785925
 21
119.0620694315455
 31
0.0
  0
LINE
  5
30B
  8
0
 10
173.82944678592489
 20
83.414723392962486
 30
0.0
 11
173.82944678592489
 21
119.4147233929625
 31
0.0
  0
LINE
  5
30C
  8
0
 10
173.82944678592489
 20
83.414723392962486
 30
0.0
 11
190.82944678592509
 21
83.414723392962486
 31
0.0
  0
LINE
  5
30D
  8
2
 10
173.82944678592489
 20
91.414723392962486
 30
0.0
 11
192.829446785925
 21
91.414723392962486
 31
0.0
  0
LINE
  5
30F
  8
1
 10
171.32944678592489
 20
101.4147233929625
 30
0.0
 11
195.329446785925
 21
101.4147233929625
 31
0.0
  0
LINE
  5
311
  8
0
 10
190.82944678592489
 20
83.414723392962486
 30
0.0
 11
192.829446785925
 21
83.767377354379406
 31
0.0
  0
LINE
  5
312
  8
0
 10
190.82944678592489
 20
119.4147233929625
 30
0.0
 11
173.82944678592489
 21
119.4147233929625
 31
0.0
  0
LINE
  5
313
  8
2
 10
173.82944678592489
 20
111.4147233929625
 30
0.0
 11
192.829446785925
 21
111.4147233929625
 31
0.0
  0
LINE
  5
315
  8
0
 10
190.82944678592489
 20
83.414723392962486
 30
0.0
 11
190.82944678592489
 21
119.4147233929625
 31
0.0
  0
LINE
  5
316
  8
0
 10
190.82944678592489
 20
119.4147233929625
 30
0.0
 11
192.829446785925
 21
119.0620694315455
 31
0.0
  0
TEXT
  5
454
  8
0
 62
     3
 10
0.0
 20
0.0
 30
0.0
 40
5.0
  1
BJ902-20001N
  7
STANDARD1
  0
LINE
  5
4F3
  8
2
 10
100.9147233929625
 20
25.0
 30
0.0
 11
100.9147233929625
 21
44.0
 31
0.0
  0
ENDSEC
  0
EOF
