  0
SECTION
  2
HEADER
  9
$ACADVER
  1
AC1009
  9
$INSBASE
 10
0.0
 20
0.0
 30
0.0
  9
$EXTMIN
 10
0.0
 20
-2.960436562073669
 30
0.0
  9
$EXTMAX
 10
70.012967191975918
 20
127.3187319214192
 30
0.0
  9
$LIMMIN
 10
0.0
 20
0.0
  9
$LIMMAX
 10
279.39999999999998
 20
215.90000000000001
  9
$ORTHOMODE
 70
     0
  9
$REGENMODE
 70
     1
  9
$FILLMODE
 70
     1
  9
$QTEXTMODE
 70
     0
  9
$MIRRTEXT
 70
     1
  9
$DRAGMODE
 70
     2
  9
$LTSCALE
 40
5.0
  9
$OSMODE
 70
    37
  9
$ATTMODE
 70
     1
  9
$TEXTSIZE
 40
2.5
  9
$TRACEWID
 40
1.0
  9
$TEXTSTYLE
  7
STANDARD
  9
$CLAYER
  8
0
  9
$CELTYPE
  6
BYLAYER
  9
$CECOLOR
 62
   256
  9
$DIMSCALE
 40
1.0
  9
$DIMASZ
 40
6.0
  9
$DIMEXO
 40
1.0
  9
$DIMDLI
 40
3.75
  9
$DIMRND
 40
0.0
  9
$DIMDLE
 40
0.0
  9
$DIMEXE
 40
1.0
  9
$DIMTP
 40
0.0
  9
$DIMTM
 40
0.0
  9
$DIMTXT
 40
3.5
  9
$DIMCEN
 40
2.5
  9
$DIMTSZ
 40
0.0
  9
$DIMTOL
 70
     0
  9
$DIMLIM
 70
     0
  9
$DIMTIH
 70
     1
  9
$DIMTOH
 70
     1
  9
$DIMSE1
 70
     0
  9
$DIMSE2
 70
     0
  9
$DIMTAD
 70
     1
  9
$DIMZIN
 70
     8
  9
$DIMBLK
  1

  9
$DIMASO
 70
     1
  9
$DIMSHO
 70
     1
  9
$DIMPOST
  1

  9
$DIMAPOST
  1

  9
$DIMALT
 70
     0
  9
$DIMALTD
 70
     3
  9
$DIMALTF
 40
0.0393700787401575
  9
$DIMLFAC
 40
1.0
  9
$DIMTOFL
 70
     1
  9
$DIMTVP
 40
0.0
  9
$DIMTIX
 70
     0
  9
$DIMSOXD
 70
     0
  9
$DIMSAH
 70
     0
  9
$DIMBLK1
  1

  9
$DIMBLK2
  1

  9
$DIMSTYLE
  2
ISO-25
  9
$DIMCLRD
 70
     0
  9
$DIMCLRE
 70
     0
  9
$DIMCLRT
 70
     0
  9
$DIMTFAC
 40
1.0
  9
$DIMGAP
 40
1.524
  9
$LUNITS
 70
     2
  9
$LUPREC
 70
     3
  9
$SKETCHINC
 40
1.0
  9
$FILLETRAD
 40
10.0
  9
$AUNITS
 70
     0
  9
$AUPREC
 70
     0
  9
$MENU
  1
.
  9
$ELEVATION
 40
0.0
  9
$PELEVATION
 40
0.0
  9
$THICKNESS
 40
0.0
  9
$LIMCHECK
 70
     0
  9
$BLIPMODE
 70
     0
  9
$CHAMFERA
 40
10.0
  9
$CHAMFERB
 40
10.0
  9
$SKPOLY
 70
     0
  9
$TDCREATE
 40
2455132.3971222108
  9
$TDUPDATE
 40
2458824.599593298
  9
$TDINDWG
 40
0.1332279977
  9
$TDUSRTIMER
 40
0.1332279977
  9
$USRTIMER
 70
     1
  9
$ANGBASE
 50
0.0
  9
$ANGDIR
 70
     0
  9
$PDMODE
 70
     0
  9
$PDSIZE
 40
-1.0
  9
$PLINEWID
 40
0.0
  9
$COORDS
 70
     1
  9
$SPLFRAME
 70
     0
  9
$SPLINETYPE
 70
     6
  9
$SPLINESEGS
 70
     8
  9
$ATTDIA
 70
     0
  9
$ATTREQ
 70
     1
  9
$HANDLING
 70
     1
  9
$HANDSEED
  5
916
  9
$SURFTAB1
 70
     6
  9
$SURFTAB2
 70
     6
  9
$SURFTYPE
 70
     6
  9
$SURFU
 70
     6
  9
$SURFV
 70
     6
  9
$UCSNAME
  2

  9
$UCSORG
 10
0.0
 20
0.0
 30
0.0
  9
$UCSXDIR
 10
1.0
 20
0.0
 30
0.0
  9
$UCSYDIR
 10
0.0
 20
1.0
 30
0.0
  9
$PUCSNAME
  2

  9
$PUCSORG
 10
0.0
 20
0.0
 30
0.0
  9
$PUCSXDIR
 10
1.0
 20
0.0
 30
0.0
  9
$PUCSYDIR
 10
0.0
 20
1.0
 30
0.0
  9
$USERI1
 70
     0
  9
$USERI2
 70
     0
  9
$USERI3
 70
     0
  9
$USERI4
 70
     0
  9
$USERI5
 70
     0
  9
$USERR1
 40
0.0
  9
$USERR2
 40
0.0
  9
$USERR3
 40
0.0
  9
$USERR4
 40
0.0
  9
$USERR5
 40
0.0
  9
$WORLDVIEW
 70
     1
  9
$SHADEDGE
 70
     3
  9
$SHADEDIF
 70
    70
  9
$TILEMODE
 70
     1
  9
$MAXACTVP
 70
    64
  9
$PLIMCHECK
 70
     0
  9
$PEXTMIN
 10
1.0000000000000000E+020
 20
1.0000000000000000E+020
 30
1.0000000000000000E+020
  9
$PEXTMAX
 10
-1.0000000000000000E+020
 20
-1.0000000000000000E+020
 30
-1.0000000000000000E+020
  9
$PLIMMIN
 10
0.0
 20
0.0
  9
$PLIMMAX
 10
420.0
 20
297.0
  9
$UNITMODE
 70
     0
  9
$VISRETAIN
 70
     1
  9
$PLINEGEN
 70
     0
  9
$PSLTSCALE
 70
     1
  0
ENDSEC
  0
SECTION
  2
TABLES
  0
TABLE
  2
VPORT
 70
     1
  0
VPORT
  2
*ACTIVE
 70
     0
 10
0.0
 20
0.0
 11
1.0
 21
1.0
 12
35.010273667340194
 22
70.016961781948282
 13
0.0
 23
0.0
 14
10.0
 24
10.0
 15
10.0
 25
10.0
 16
0.0
 26
0.0
 36
1.0
 17
0.0
 27
0.0
 37
0.0
 40
147.0411703348415
 41
2.3366214549938338
 42
50.0
 43
0.0
 44
0.0
 50
0.0
 51
0.0
 71
     0
 72
  2000
 73
     1
 74
     3
 75
     0
 76
     0
 77
     0
 78
     0
  0
ENDTAB
  0
TABLE
  2
LTYPE
 70
     4
  0
LTYPE
  2
CONTINUOUS
 70
     0
  3
Solid line
 72
    65
 73
     0
 40
0.0
  0
LTYPE
  2
CENTER
 70
     0
  3
____ _ ____ _ ____ _ ____ _ ____ _ ____ _ ____
 72
    65
 73
     4
 40
2.0
 49
1.25
 49
-0.25
 49
0.25
 49
-0.25
  0
LTYPE
  2
HIDDEN
 70
     0
  3
_ _ _ _ _ _ _ _ _ _ _ _ _ _ _ _ _ _ _ _ _ _ _
 72
    65
 73
     2
 40
0.375
 49
0.25
 49
-0.125
  0
LTYPE
  2
SASEN1
 70
     0
  3
SASEN1 ___ _ ___ _ ___ _ ___
 72
    65
 73
     4
 40
8.0
 49
5.0
 49
-1.0
 49
1.0
 49
-1.0
  0
ENDTAB
  0
TABLE
  2
LAYER
 70
     8
  0
LAYER
  2
0
 70
     0
 62
     7
  6
CONTINUOUS
  0
LAYER
  2
1
 70
     0
 62
     1
  6
CENTER
  0
LAYER
  2
DEFPOINTS
 70
     0
 62
     7
  6
CONTINUOUS
  0
LAYER
  2
2
 70
     0
 62
     2
  6
HIDDEN
  0
LAYER
  2
10_CHOKU02
 70
     0
 62
     7
  6
CONTINUOUS
  0
LAYER
  2
40_SASEN01-1-50-10-10
 70
     0
 62
     1
  6
SASEN1
  0
LAYER
  2
60_DIM_NOTE
 70
     0
 62
     6
  6
CONTINUOUS
  0
LAYER
  2
ATARI
 70
     0
 62
     8
  6
CONTINUOUS
  0
ENDTAB
  0
TABLE
  2
STYLE
 70
     3
  0
STYLE
  2
STANDARD
 70
     0
 40
0.0
 41
1.0
 50
0.0
 71
     0
 42
2.5
  3
txt
  4
bigfont
  0
STYLE
  2
STANDARD1
 70
     0
 40
0.0
 41
1.0
 50
0.0
 71
     0
 42
3.0
  3
txt
  4

  0
STYLE
  2
IMAO_TXT_W100
 70
     0
 40
0.0
 41
1.0
 50
0.0
 71
     0
 42
2.5
  3
txt
  4

  0
ENDTAB
  0
TABLE
  2
VIEW
 70
     0
  0
ENDTAB
  0
TABLE
  2
UCS
 70
     0
  0
ENDTAB
  0
TABLE
  2
APPID
 70
    10
  0
APPID
  2
ACAD
 70
     0
  0
APPID
  2
ACAD_MLEADERVER
 70
     0
  0
APPID
  2
ACAD_PSEXT
 70
     0
  0
APPID
  2
ACAD_DSTYLE_DIMJAG
 70
     0
  0
APPID
  2
ACAD_DSTYLE_DIMTALN
 70
     0
  0
APPID
  2
ACAD_DSTYLE_DIMBREAK
 70
     0
  0
APPID
  2
ACAECLAYERSTANDARD
 70
     0
  0
APPID
  2
ACCMTRANSPARENCY
 70
     0
  0
APPID
  2
ACAD_NAV_VCDISPLAY
 70
     0
  0
APPID
  2
ACAD_EXEMPT_FROM_CAD_STANDARDS
 70
     0
  0
ENDTAB
  0
TABLE
  2
DIMSTYLE
 70
     4
  0
DIMSTYLE
  2
ISO-25
 70
     0
  3

  4

  5

  6

  7

 40
1.0
 41
2.5
 42
0.625
 43
3.75
 44
1.25
 45
0.0
 46
0.0
 47
0.0
 48
0.0
140
2.5
141
2.5
142
0.0
143
0.03937007874016
144
1.0
145
0.0
146
1.0
147
0.625
 71
     0
 72
     0
 73
     0
 74
     0
 75
     0
 76
     0
 77
     1
 78
     8
170
     0
171
     3
172
     1
173
     0
174
     0
175
     0
176
     0
177
     0
178
     0
  0
DIMSTYLE
  2
STANDARD
 70
     0
  3

  4

  5

  6

  7

 40
1.0
 41
0.18
 42
0.0625
 43
0.38
 44
0.18
 45
0.0
 46
0.0
 47
0.0
 48
0.0
140
0.18
141
0.09
142
0.0
143
25.399999999999999
144
1.0
145
0.0
146
1.0
147
0.09
 71
     0
 72
     0
 73
     1
 74
     1
 75
     0
 76
     0
 77
     0
 78
     0
170
     0
171
     2
172
     0
173
     0
174
     0
175
     0
176
     0
177
     0
178
     0
  0
DIMSTYLE
  2
IMAO_DIM_HAN
 70
     0
  3

  4

  5

  6

  7

 40
1.0
 41
1.5
 42
1.0
 43
4.0
 44
1.0
 45
0.0
 46
0.0
 47
0.0
 48
0.0
140
1.8
141
0.09
142
0.0
143
25.399999999999999
144
1.0
145
0.0
146
1.0
147
0.9
 71
     0
 72
     0
 73
     0
 74
     0
 75
     0
 76
     0
 77
     1
 78
     8
170
     0
171
     2
172
     1
173
     0
174
     0
175
     0
176
   256
177
     0
178
   256
  0
DIMSTYLE
  2
IMAO_DIM_ZEN
 70
     0
  3

  4

  5

  6

  7

 40
1.0
 41
1.5
 42
1.0
 43
4.0
 44
1.0
 45
0.0
 46
0.0
 47
0.0
 48
0.0
140
1.8
141
0.09
142
0.0
143
25.399999999999999
144
1.0
145
0.0
146
1.0
147
0.65
 71
     0
 72
     0
 73
     0
 74
     0
 75
     0
 76
     0
 77
     1
 78
     8
170
     0
171
     2
172
     1
173
     0
174
     0
175
     0
176
   256
177
     0
178
   256
  0
ENDTAB
  0
ENDSEC
  0
SECTION
  2
BLOCKS
  0
BLOCK
  8
0
  2
$MODEL_SPACE
 70
     0
 10
0.0
 20
0.0
 30
0.0
  3
$MODEL_SPACE
  1

  0
ENDBLK
  5
21
  8
0
  0
BLOCK
 67
     1
  8
0
  2
$PAPER_SPACE
 70
     0
 10
0.0
 20
0.0
 30
0.0
  3
$PAPER_SPACE
  1

  0
ENDBLK
  5
1D
 67
     1
  8
0
  0
BLOCK
  8
0
  2
*U5
 70
     1
 10
0.0
 20
0.0
 30
0.0
  3
*U5
  1

  0
TEXT
  5
4F7
  8
0
 62
     0
 10
46.846300525309253
 20
84.78597470718455
 30
0.0
 40
3.5
  1
9
  0
ENDBLK
  5
4F9
  8
0
  0
BLOCK
  8
0
  2
*U6
 70
     1
 10
0.0
 20
0.0
 30
0.0
  3
*U6
  1

  0
TEXT
  5
4FB
  8
0
 62
     0
 10
45.096300525309253
 20
35.167717104124108
 30
0.0
 40
3.5
  1
34
  0
ENDBLK
  5
4FD
  8
0
  0
BLOCK
  8
0
  2
*U7
 70
     1
 10
0.0
 20
0.0
 30
0.0
  3
*U7
  1

  0
TEXT
  5
4FF
  8
0
 62
     0
 10
9.4620508419122338
 20
108.5687319214192
 30
0.0
 40
3.5
  1
24
  0
ENDBLK
  5
501
  8
0
  0
BLOCK
  8
0
  2
*U8
 70
     1
 10
0.0
 20
0.0
 30
0.0
  3
*U8
  1

  0
TEXT
  5
503
  8
0
 62
     0
 10
69.203587916371092
 20
55.031065254752441
 30
0.0
 40
3.5
  1
16,2
  0
ENDBLK
  5
505
  8
0
  0
ENDSEC
  0
SECTION
  2
ENTITIES
  0
TEXT
  5
274
  8
0
 62
     3
 10
0.0
 20
0.0
 30
0.0
 40
10.0
  1
BK2-BPP1
  7
STANDARD1
  0
LINE
  5
33F
  8
0
 10
59.383802067377083
 20
75.128432459798361
 30
0.0
 11
58.883802067377069
 21
74.262407056013828
 31
0.0
  0
LINE
  5
344
  8
0
 10
37.142132316574759
 20
74.262407056013828
 30
0.0
 11
36.642132316574759
 21
75.128432459798361
 31
0.0
  0
LINE
  5
345
  8
0
 10
58.88380206737704
 20
74.262407056013771
 30
0.0
 11
63.51296719197591
 21
71.589757325203593
 31
0.0
  0
LINE
  5
346
  8
0
 10
64.012967191975918
 20
72.455782728987884
 30
0.0
 11
59.383802067377083
 21
75.128432459798375
 31
0.0
  0
LINE
  5
347
  8
0
 10
37.142132316574767
 20
74.262407056013814
 30
0.0
 11
32.512967191975918
 21
71.589757325203593
 31
0.0
  0
LINE
  5
348
  8
0
 10
36.642132316574717
 20
75.12843245979839
 30
0.0
 11
32.012967191975918
 21
72.455782728987884
 31
0.0
  0
ARC
  5
349
  8
0
 10
63.01296719197591
 20
70.723731921419059
 30
0.0
 40
2.0000000000000031
 50
0.0
 51
59.999999999999169
  0
ARC
  5
34A
  8
0
 10
-63.01296719197591
 20
70.723731921419059
 30
0.0
 40
1.0000000000000091
210
0.0
220
0.0
230
-1.0
 50
120.0000000000008
 51
180.0
  0
ARC
  5
34B
  8
0
 10
33.012967191975918
 20
70.723731921419059
 30
0.0
 40
2.0000000000000049
 50
120.0000000000008
 51
180.0
  0
ARC
  5
34C
  8
0
 10
33.012967191975918
 20
70.723731921419059
 30
0.0
 40
0.9999999999999945
 50
120.0000000000008
 51
180.0
  0
ARC
  5
34D
  8
0
 10
63.01296719197591
 20
60.923731921419098
 30
0.0
 40
1.999999999999998
 50
270.0
 51
0.0
  0
ARC
  5
34E
  8
0
 10
-63.01296719197591
 20
60.923731921419098
 30
0.0
 40
1.000000000000002
210
0.0
220
0.0
230
-1.0
 50
180.0
 51
270.0
  0
ARC
  5
34F
  8
0
 10
33.012967191975918
 20
60.923731921419098
 30
0.0
 40
2.0000000000000031
 50
180.0
 51
270.0
  0
ARC
  5
350
  8
0
 10
33.012967191975918
 20
60.923731921419098
 30
0.0
 40
1.000000000000002
 50
180.0
 51
270.0
  0
LINE
  5
351
  8
0
 10
64.012967191975918
 20
70.723731921419059
 30
0.0
 11
64.012967191975918
 21
60.923731921419098
 31
0.0
  0
LINE
  5
352
  8
0
 10
65.012967191975918
 20
60.923731921419098
 30
0.0
 11
65.012967191975918
 21
70.723731921419059
 31
0.0
  0
LINE
  5
353
  8
0
 10
32.012967191975918
 20
70.723731921419059
 30
0.0
 11
32.012967191975918
 21
60.923731921419098
 31
0.0
  0
LINE
  5
354
  8
0
 10
31.012967191975921
 20
70.723731921419059
 30
0.0
 11
31.012967191975921
 21
60.923731921419098
 31
0.0
  0
LINE
  5
355
  8
0
 10
63.01296719197591
 20
59.923731921419098
 30
0.0
 11
33.012967191975918
 21
59.923731921419098
 31
0.0
  0
LINE
  5
356
  8
0
 10
33.012967191975918
 20
58.923731921419098
 30
0.0
 11
63.01296719197591
 21
58.923731921419098
 31
0.0
  0
LINE
  5
357
  8
2
 10
43.51296719197591
 20
58.923731921419098
 30
0.0
 11
43.51296719197591
 21
59.923731921419098
 31
0.0
  0
LINE
  5
358
  8
2
 10
52.512967191975918
 20
58.923731921419098
 30
0.0
 11
52.512967191975918
 21
59.923731921419098
 31
0.0
  0
POLYLINE
  5
359
  8
0
 10
59.383802067377104
 20
120.81873192142363
 30
0.0
 66
     1
 70
     8
  0
VERTEX
  8
0
  5
506
 10
59.3838
 20
120.819
 30
0.000000
  70
    32
  0
VERTEX
  8
0
  5
507
 10
59.3839
 20
120.837
 30
0.000000
  70
    32
  0
VERTEX
  8
0
  5
508
 10
59.3842
 20
120.856
 30
0.000000
  70
    32
  0
VERTEX
  8
0
  5
509
 10
59.3847
 20
120.874
 30
0.000000
  70
    32
  0
VERTEX
  8
0
  5
50A
 10
59.3854
 20
120.892
 30
0.000000
  70
    32
  0
VERTEX
  8
0
  5
50B
 10
59.3862
 20
120.911
 30
0.000000
  70
    32
  0
VERTEX
  8
0
  5
50C
 10
59.3873
 20
120.929
 30
0.000000
  70
    32
  0
VERTEX
  8
0
  5
50D
 10
59.3886
 20
120.947
 30
0.000000
  70
    32
  0
VERTEX
  8
0
  5
50E
 10
59.3901
 20
120.966
 30
0.000000
  70
    32
  0
VERTEX
  8
0
  5
50F
 10
59.3917
 20
120.984
 30
0.000000
  70
    32
  0
VERTEX
  8
0
  5
510
 10
59.3936
 20
121.002
 30
0.000000
  70
    32
  0
VERTEX
  8
0
  5
511
 10
59.3956
 20
121.021
 30
0.000000
  70
    32
  0
VERTEX
  8
0
  5
512
 10
59.3979
 20
121.039
 30
0.000000
  70
    32
  0
VERTEX
  8
0
  5
513
 10
59.4003
 20
121.057
 30
0.000000
  70
    32
  0
VERTEX
  8
0
  5
514
 10
59.4029
 20
121.075
 30
0.000000
  70
    32
  0
VERTEX
  8
0
  5
515
 10
59.4057
 20
121.093
 30
0.000000
  70
    32
  0
VERTEX
  8
0
  5
516
 10
59.4088
 20
121.111
 30
0.000000
  70
    32
  0
VERTEX
  8
0
  5
517
 10
59.4120
 20
121.129
 30
0.000000
  70
    32
  0
VERTEX
  8
0
  5
518
 10
59.4154
 20
121.147
 30
0.000000
  70
    32
  0
VERTEX
  8
0
  5
519
 10
59.4190
 20
121.165
 30
0.000000
  70
    32
  0
VERTEX
  8
0
  5
51A
 10
59.4227
 20
121.183
 30
0.000000
  70
    32
  0
VERTEX
  8
0
  5
51B
 10
59.4267
 20
121.201
 30
0.000000
  70
    32
  0
VERTEX
  8
0
  5
51C
 10
59.4309
 20
121.219
 30
0.000000
  70
    32
  0
VERTEX
  8
0
  5
51D
 10
59.4352
 20
121.237
 30
0.000000
  70
    32
  0
VERTEX
  8
0
  5
51E
 10
59.4397
 20
121.254
 30
0.000000
  70
    32
  0
VERTEX
  8
0
  5
51F
 10
59.4445
 20
121.272
 30
0.000000
  70
    32
  0
VERTEX
  8
0
  5
520
 10
59.4494
 20
121.289
 30
0.000000
  70
    32
  0
VERTEX
  8
0
  5
521
 10
59.4545
 20
121.307
 30
0.000000
  70
    32
  0
VERTEX
  8
0
  5
522
 10
59.4597
 20
121.324
 30
0.000000
  70
    32
  0
VERTEX
  8
0
  5
523
 10
59.4652
 20
121.341
 30
0.000000
  70
    32
  0
VERTEX
  8
0
  5
524
 10
59.4708
 20
121.359
 30
0.000000
  70
    32
  0
VERTEX
  8
0
  5
525
 10
59.4767
 20
121.376
 30
0.000000
  70
    32
  0
VERTEX
  8
0
  5
526
 10
59.4827
 20
121.393
 30
0.000000
  70
    32
  0
VERTEX
  8
0
  5
527
 10
59.4889
 20
121.410
 30
0.000000
  70
    32
  0
VERTEX
  8
0
  5
528
 10
59.4952
 20
121.427
 30
0.000000
  70
    32
  0
VERTEX
  8
0
  5
529
 10
59.5018
 20
121.443
 30
0.000000
  70
    32
  0
VERTEX
  8
0
  5
52A
 10
59.5085
 20
121.460
 30
0.000000
  70
    32
  0
VERTEX
  8
0
  5
52B
 10
59.5154
 20
121.477
 30
0.000000
  70
    32
  0
VERTEX
  8
0
  5
52C
 10
59.5225
 20
121.493
 30
0.000000
  70
    32
  0
VERTEX
  8
0
  5
52D
 10
59.5298
 20
121.510
 30
0.000000
  70
    32
  0
VERTEX
  8
0
  5
52E
 10
59.5372
 20
121.526
 30
0.000000
  70
    32
  0
VERTEX
  8
0
  5
52F
 10
59.5448
 20
121.542
 30
0.000000
  70
    32
  0
VERTEX
  8
0
  5
530
 10
59.5526
 20
121.558
 30
0.000000
  70
    32
  0
VERTEX
  8
0
  5
531
 10
59.5605
 20
121.574
 30
0.000000
  70
    32
  0
VERTEX
  8
0
  5
532
 10
59.5686
 20
121.590
 30
0.000000
  70
    32
  0
VERTEX
  8
0
  5
533
 10
59.5769
 20
121.606
 30
0.000000
  70
    32
  0
VERTEX
  8
0
  5
534
 10
59.5853
 20
121.621
 30
0.000000
  70
    32
  0
VERTEX
  8
0
  5
535
 10
59.5940
 20
121.637
 30
0.000000
  70
    32
  0
VERTEX
  8
0
  5
536
 10
59.6027
 20
121.652
 30
0.000000
  70
    32
  0
VERTEX
  8
0
  5
537
 10
59.6117
 20
121.667
 30
0.000000
  70
    32
  0
VERTEX
  8
0
  5
538
 10
59.6208
 20
121.682
 30
0.000000
  70
    32
  0
VERTEX
  8
0
  5
539
 10
59.6300
 20
121.697
 30
0.000000
  70
    32
  0
VERTEX
  8
0
  5
53A
 10
59.6394
 20
121.712
 30
0.000000
  70
    32
  0
VERTEX
  8
0
  5
53B
 10
59.6490
 20
121.727
 30
0.000000
  70
    32
  0
VERTEX
  8
0
  5
53C
 10
59.6587
 20
121.742
 30
0.000000
  70
    32
  0
VERTEX
  8
0
  5
53D
 10
59.6686
 20
121.756
 30
0.000000
  70
    32
  0
VERTEX
  8
0
  5
53E
 10
59.6787
 20
121.770
 30
0.000000
  70
    32
  0
VERTEX
  8
0
  5
53F
 10
59.6889
 20
121.784
 30
0.000000
  70
    32
  0
VERTEX
  8
0
  5
540
 10
59.6992
 20
121.798
 30
0.000000
  70
    32
  0
VERTEX
  8
0
  5
541
 10
59.7097
 20
121.812
 30
0.000000
  70
    32
  0
VERTEX
  8
0
  5
542
 10
59.7203
 20
121.826
 30
0.000000
  70
    32
  0
VERTEX
  8
0
  5
543
 10
59.7311
 20
121.840
 30
0.000000
  70
    32
  0
VERTEX
  8
0
  5
544
 10
59.7420
 20
121.853
 30
0.000000
  70
    32
  0
VERTEX
  8
0
  5
545
 10
59.7531
 20
121.866
 30
0.000000
  70
    32
  0
VERTEX
  8
0
  5
546
 10
59.7643
 20
121.879
 30
0.000000
  70
    32
  0
VERTEX
  8
0
  5
547
 10
59.7756
 20
121.892
 30
0.000000
  70
    32
  0
VERTEX
  8
0
  5
548
 10
59.7871
 20
121.905
 30
0.000000
  70
    32
  0
VERTEX
  8
0
  5
549
 10
59.7987
 20
121.918
 30
0.000000
  70
    32
  0
VERTEX
  8
0
  5
54A
 10
59.8105
 20
121.930
 30
0.000000
  70
    32
  0
VERTEX
  8
0
  5
54B
 10
59.8223
 20
121.942
 30
0.000000
  70
    32
  0
VERTEX
  8
0
  5
54C
 10
59.8343
 20
121.955
 30
0.000000
  70
    32
  0
VERTEX
  8
0
  5
54D
 10
59.8465
 20
121.966
 30
0.000000
  70
    32
  0
VERTEX
  8
0
  5
54E
 10
59.8587
 20
121.978
 30
0.000000
  70
    32
  0
VERTEX
  8
0
  5
54F
 10
59.8711
 20
121.990
 30
0.000000
  70
    32
  0
VERTEX
  8
0
  5
550
 10
59.8836
 20
122.001
 30
0.000000
  70
    32
  0
VERTEX
  8
0
  5
551
 10
59.8963
 20
122.012
 30
0.000000
  70
    32
  0
VERTEX
  8
0
  5
552
 10
59.9090
 20
122.024
 30
0.000000
  70
    32
  0
VERTEX
  8
0
  5
553
 10
59.9219
 20
122.034
 30
0.000000
  70
    32
  0
VERTEX
  8
0
  5
554
 10
59.9348
 20
122.045
 30
0.000000
  70
    32
  0
VERTEX
  8
0
  5
555
 10
59.9479
 20
122.056
 30
0.000000
  70
    32
  0
VERTEX
  8
0
  5
556
 10
59.9611
 20
122.066
 30
0.000000
  70
    32
  0
VERTEX
  8
0
  5
557
 10
59.9744
 20
122.076
 30
0.000000
  70
    32
  0
VERTEX
  8
0
  5
558
 10
59.9879
 20
122.086
 30
0.000000
  70
    32
  0
VERTEX
  8
0
  5
559
 10
60.0014
 20
122.096
 30
0.000000
  70
    32
  0
VERTEX
  8
0
  5
55A
 10
60.0150
 20
122.105
 30
0.000000
  70
    32
  0
VERTEX
  8
0
  5
55B
 10
60.0287
 20
122.115
 30
0.000000
  70
    32
  0
VERTEX
  8
0
  5
55C
 10
60.0425
 20
122.124
 30
0.000000
  70
    32
  0
VERTEX
  8
0
  5
55D
 10
60.0565
 20
122.133
 30
0.000000
  70
    32
  0
VERTEX
  8
0
  5
55E
 10
60.0705
 20
122.142
 30
0.000000
  70
    32
  0
VERTEX
  8
0
  5
55F
 10
60.0846
 20
122.150
 30
0.000000
  70
    32
  0
VERTEX
  8
0
  5
560
 10
60.0988
 20
122.159
 30
0.000000
  70
    32
  0
VERTEX
  8
0
  5
561
 10
60.1131
 20
122.167
 30
0.000000
  70
    32
  0
VERTEX
  8
0
  5
562
 10
60.1274
 20
122.175
 30
0.000000
  70
    32
  0
VERTEX
  8
0
  5
563
 10
60.1419
 20
122.182
 30
0.000000
  70
    32
  0
VERTEX
  8
0
  5
564
 10
60.1564
 20
122.190
 30
0.000000
  70
    32
  0
VERTEX
  8
0
  5
565
 10
60.1710
 20
122.197
 30
0.000000
  70
    32
  0
VERTEX
  8
0
  5
566
 10
60.1857
 20
122.205
 30
0.000000
  70
    32
  0
VERTEX
  8
0
  5
567
 10
60.2005
 20
122.211
 30
0.000000
  70
    32
  0
VERTEX
  8
0
  5
568
 10
60.2153
 20
122.218
 30
0.000000
  70
    32
  0
VERTEX
  8
0
  5
569
 10
60.2302
 20
122.225
 30
0.000000
  70
    32
  0
VERTEX
  8
0
  5
56A
 10
60.2452
 20
122.231
 30
0.000000
  70
    32
  0
VERTEX
  8
0
  5
56B
 10
60.2602
 20
122.237
 30
0.000000
  70
    32
  0
VERTEX
  8
0
  5
56C
 10
60.2754
 20
122.243
 30
0.000000
  70
    32
  0
VERTEX
  8
0
  5
56D
 10
60.2905
 20
122.249
 30
0.000000
  70
    32
  0
VERTEX
  8
0
  5
56E
 10
60.3057
 20
122.254
 30
0.000000
  70
    32
  0
VERTEX
  8
0
  5
56F
 10
60.3210
 20
122.259
 30
0.000000
  70
    32
  0
VERTEX
  8
0
  5
570
 10
60.3364
 20
122.264
 30
0.000000
  70
    32
  0
VERTEX
  8
0
  5
571
 10
60.3518
 20
122.269
 30
0.000000
  70
    32
  0
VERTEX
  8
0
  5
572
 10
60.3672
 20
122.274
 30
0.000000
  70
    32
  0
VERTEX
  8
0
  5
573
 10
60.3827
 20
122.278
 30
0.000000
  70
    32
  0
VERTEX
  8
0
  5
574
 10
60.3982
 20
122.282
 30
0.000000
  70
    32
  0
VERTEX
  8
0
  5
575
 10
60.4138
 20
122.286
 30
0.000000
  70
    32
  0
VERTEX
  8
0
  5
576
 10
60.4294
 20
122.290
 30
0.000000
  70
    32
  0
VERTEX
  8
0
  5
577
 10
60.4451
 20
122.293
 30
0.000000
  70
    32
  0
VERTEX
  8
0
  5
578
 10
60.4608
 20
122.297
 30
0.000000
  70
    32
  0
VERTEX
  8
0
  5
579
 10
60.4765
 20
122.300
 30
0.000000
  70
    32
  0
VERTEX
  8
0
  5
57A
 10
60.4922
 20
122.302
 30
0.000000
  70
    32
  0
VERTEX
  8
0
  5
57B
 10
60.5080
 20
122.305
 30
0.000000
  70
    32
  0
VERTEX
  8
0
  5
57C
 10
60.5238
 20
122.307
 30
0.000000
  70
    32
  0
VERTEX
  8
0
  5
57D
 10
60.5397
 20
122.310
 30
0.000000
  70
    32
  0
VERTEX
  8
0
  5
57E
 10
60.5555
 20
122.312
 30
0.000000
  70
    32
  0
VERTEX
  8
0
  5
57F
 10
60.5714
 20
122.313
 30
0.000000
  70
    32
  0
VERTEX
  8
0
  5
580
 10
60.5873
 20
122.315
 30
0.000000
  70
    32
  0
VERTEX
  8
0
  5
581
 10
60.6032
 20
122.316
 30
0.000000
  70
    32
  0
VERTEX
  8
0
  5
582
 10
60.6191
 20
122.317
 30
0.000000
  70
    32
  0
VERTEX
  8
0
  5
583
 10
60.6350
 20
122.318
 30
0.000000
  70
    32
  0
VERTEX
  8
0
  5
584
 10
60.6510
 20
122.318
 30
0.000000
  70
    32
  0
VERTEX
  8
0
  5
585
 10
60.6669
 20
122.319
 30
0.000000
  70
    32
  0
VERTEX
  8
0
  5
586
 10
60.6828
 20
122.319
 30
0.000000
  70
    32
  0
SEQEND
  8
0
  5
587
  0
POLYLINE
  5
35B
  8
0
 10
60.182840173053506
 20
122.31873192142309
 30
0.0
 66
     1
 70
     8
  0
VERTEX
  8
0
  5
588
 10
60.1828
 20
122.319
 30
0.000000
  70
    32
  0
VERTEX
  8
0
  5
589
 10
60.1669
 20
122.319
 30
0.000000
  70
    32
  0
VERTEX
  8
0
  5
58A
 10
60.1510
 20
122.318
 30
0.000000
  70
    32
  0
VERTEX
  8
0
  5
58B
 10
60.1350
 20
122.318
 30
0.000000
  70
    32
  0
VERTEX
  8
0
  5
58C
 10
60.1191
 20
122.317
 30
0.000000
  70
    32
  0
VERTEX
  8
0
  5
58D
 10
60.1032
 20
122.316
 30
0.000000
  70
    32
  0
VERTEX
  8
0
  5
58E
 10
60.0873
 20
122.315
 30
0.000000
  70
    32
  0
VERTEX
  8
0
  5
58F
 10
60.0714
 20
122.313
 30
0.000000
  70
    32
  0
VERTEX
  8
0
  5
590
 10
60.0555
 20
122.312
 30
0.000000
  70
    32
  0
VERTEX
  8
0
  5
591
 10
60.0397
 20
122.310
 30
0.000000
  70
    32
  0
VERTEX
  8
0
  5
592
 10
60.0238
 20
122.307
 30
0.000000
  70
    32
  0
VERTEX
  8
0
  5
593
 10
60.0080
 20
122.305
 30
0.000000
  70
    32
  0
VERTEX
  8
0
  5
594
 10
59.9922
 20
122.302
 30
0.000000
  70
    32
  0
VERTEX
  8
0
  5
595
 10
59.9765
 20
122.300
 30
0.000000
  70
    32
  0
VERTEX
  8
0
  5
596
 10
59.9608
 20
122.297
 30
0.000000
  70
    32
  0
VERTEX
  8
0
  5
597
 10
59.9451
 20
122.293
 30
0.000000
  70
    32
  0
VERTEX
  8
0
  5
598
 10
59.9294
 20
122.290
 30
0.000000
  70
    32
  0
VERTEX
  8
0
  5
599
 10
59.9138
 20
122.286
 30
0.000000
  70
    32
  0
VERTEX
  8
0
  5
59A
 10
59.8982
 20
122.282
 30
0.000000
  70
    32
  0
VERTEX
  8
0
  5
59B
 10
59.8827
 20
122.278
 30
0.000000
  70
    32
  0
VERTEX
  8
0
  5
59C
 10
59.8672
 20
122.274
 30
0.000000
  70
    32
  0
VERTEX
  8
0
  5
59D
 10
59.8518
 20
122.269
 30
0.000000
  70
    32
  0
VERTEX
  8
0
  5
59E
 10
59.8364
 20
122.264
 30
0.000000
  70
    32
  0
VERTEX
  8
0
  5
59F
 10
59.8210
 20
122.259
 30
0.000000
  70
    32
  0
VERTEX
  8
0
  5
5A0
 10
59.8057
 20
122.254
 30
0.000000
  70
    32
  0
VERTEX
  8
0
  5
5A1
 10
59.7905
 20
122.249
 30
0.000000
  70
    32
  0
VERTEX
  8
0
  5
5A2
 10
59.7754
 20
122.243
 30
0.000000
  70
    32
  0
VERTEX
  8
0
  5
5A3
 10
59.7602
 20
122.237
 30
0.000000
  70
    32
  0
VERTEX
  8
0
  5
5A4
 10
59.7452
 20
122.231
 30
0.000000
  70
    32
  0
VERTEX
  8
0
  5
5A5
 10
59.7302
 20
122.225
 30
0.000000
  70
    32
  0
VERTEX
  8
0
  5
5A6
 10
59.7153
 20
122.218
 30
0.000000
  70
    32
  0
VERTEX
  8
0
  5
5A7
 10
59.7005
 20
122.211
 30
0.000000
  70
    32
  0
VERTEX
  8
0
  5
5A8
 10
59.6857
 20
122.205
 30
0.000000
  70
    32
  0
VERTEX
  8
0
  5
5A9
 10
59.6710
 20
122.197
 30
0.000000
  70
    32
  0
VERTEX
  8
0
  5
5AA
 10
59.6564
 20
122.190
 30
0.000000
  70
    32
  0
VERTEX
  8
0
  5
5AB
 10
59.6419
 20
122.182
 30
0.000000
  70
    32
  0
VERTEX
  8
0
  5
5AC
 10
59.6274
 20
122.175
 30
0.000000
  70
    32
  0
VERTEX
  8
0
  5
5AD
 10
59.6131
 20
122.167
 30
0.000000
  70
    32
  0
VERTEX
  8
0
  5
5AE
 10
59.5988
 20
122.159
 30
0.000000
  70
    32
  0
VERTEX
  8
0
  5
5AF
 10
59.5846
 20
122.150
 30
0.000000
  70
    32
  0
VERTEX
  8
0
  5
5B0
 10
59.5705
 20
122.142
 30
0.000000
  70
    32
  0
VERTEX
  8
0
  5
5B1
 10
59.5565
 20
122.133
 30
0.000000
  70
    32
  0
VERTEX
  8
0
  5
5B2
 10
59.5425
 20
122.124
 30
0.000000
  70
    32
  0
VERTEX
  8
0
  5
5B3
 10
59.5287
 20
122.115
 30
0.000000
  70
    32
  0
VERTEX
  8
0
  5
5B4
 10
59.5150
 20
122.105
 30
0.000000
  70
    32
  0
VERTEX
  8
0
  5
5B5
 10
59.5014
 20
122.096
 30
0.000000
  70
    32
  0
VERTEX
  8
0
  5
5B6
 10
59.4879
 20
122.086
 30
0.000000
  70
    32
  0
VERTEX
  8
0
  5
5B7
 10
59.4744
 20
122.076
 30
0.000000
  70
    32
  0
VERTEX
  8
0
  5
5B8
 10
59.4611
 20
122.066
 30
0.000000
  70
    32
  0
VERTEX
  8
0
  5
5B9
 10
59.4479
 20
122.056
 30
0.000000
  70
    32
  0
VERTEX
  8
0
  5
5BA
 10
59.4348
 20
122.045
 30
0.000000
  70
    32
  0
VERTEX
  8
0
  5
5BB
 10
59.4219
 20
122.034
 30
0.000000
  70
    32
  0
VERTEX
  8
0
  5
5BC
 10
59.4090
 20
122.024
 30
0.000000
  70
    32
  0
VERTEX
  8
0
  5
5BD
 10
59.3963
 20
122.012
 30
0.000000
  70
    32
  0
VERTEX
  8
0
  5
5BE
 10
59.3836
 20
122.001
 30
0.000000
  70
    32
  0
VERTEX
  8
0
  5
5BF
 10
59.3711
 20
121.990
 30
0.000000
  70
    32
  0
VERTEX
  8
0
  5
5C0
 10
59.3587
 20
121.978
 30
0.000000
  70
    32
  0
VERTEX
  8
0
  5
5C1
 10
59.3465
 20
121.966
 30
0.000000
  70
    32
  0
VERTEX
  8
0
  5
5C2
 10
59.3343
 20
121.955
 30
0.000000
  70
    32
  0
VERTEX
  8
0
  5
5C3
 10
59.3223
 20
121.942
 30
0.000000
  70
    32
  0
VERTEX
  8
0
  5
5C4
 10
59.3105
 20
121.930
 30
0.000000
  70
    32
  0
VERTEX
  8
0
  5
5C5
 10
59.2987
 20
121.918
 30
0.000000
  70
    32
  0
VERTEX
  8
0
  5
5C6
 10
59.2871
 20
121.905
 30
0.000000
  70
    32
  0
VERTEX
  8
0
  5
5C7
 10
59.2756
 20
121.892
 30
0.000000
  70
    32
  0
VERTEX
  8
0
  5
5C8
 10
59.2643
 20
121.879
 30
0.000000
  70
    32
  0
VERTEX
  8
0
  5
5C9
 10
59.2531
 20
121.866
 30
0.000000
  70
    32
  0
VERTEX
  8
0
  5
5CA
 10
59.2420
 20
121.853
 30
0.000000
  70
    32
  0
VERTEX
  8
0
  5
5CB
 10
59.2311
 20
121.840
 30
0.000000
  70
    32
  0
VERTEX
  8
0
  5
5CC
 10
59.2203
 20
121.826
 30
0.000000
  70
    32
  0
VERTEX
  8
0
  5
5CD
 10
59.2097
 20
121.812
 30
0.000000
  70
    32
  0
VERTEX
  8
0
  5
5CE
 10
59.1992
 20
121.798
 30
0.000000
  70
    32
  0
VERTEX
  8
0
  5
5CF
 10
59.1889
 20
121.784
 30
0.000000
  70
    32
  0
VERTEX
  8
0
  5
5D0
 10
59.1787
 20
121.770
 30
0.000000
  70
    32
  0
VERTEX
  8
0
  5
5D1
 10
59.1686
 20
121.756
 30
0.000000
  70
    32
  0
VERTEX
  8
0
  5
5D2
 10
59.1587
 20
121.742
 30
0.000000
  70
    32
  0
VERTEX
  8
0
  5
5D3
 10
59.1490
 20
121.727
 30
0.000000
  70
    32
  0
VERTEX
  8
0
  5
5D4
 10
59.1394
 20
121.712
 30
0.000000
  70
    32
  0
VERTEX
  8
0
  5
5D5
 10
59.1300
 20
121.697
 30
0.000000
  70
    32
  0
VERTEX
  8
0
  5
5D6
 10
59.1208
 20
121.682
 30
0.000000
  70
    32
  0
VERTEX
  8
0
  5
5D7
 10
59.1117
 20
121.667
 30
0.000000
  70
    32
  0
VERTEX
  8
0
  5
5D8
 10
59.1027
 20
121.652
 30
0.000000
  70
    32
  0
VERTEX
  8
0
  5
5D9
 10
59.0940
 20
121.637
 30
0.000000
  70
    32
  0
VERTEX
  8
0
  5
5DA
 10
59.0853
 20
121.621
 30
0.000000
  70
    32
  0
VERTEX
  8
0
  5
5DB
 10
59.0769
 20
121.606
 30
0.000000
  70
    32
  0
VERTEX
  8
0
  5
5DC
 10
59.0686
 20
121.590
 30
0.000000
  70
    32
  0
VERTEX
  8
0
  5
5DD
 10
59.0605
 20
121.574
 30
0.000000
  70
    32
  0
VERTEX
  8
0
  5
5DE
 10
59.0526
 20
121.558
 30
0.000000
  70
    32
  0
VERTEX
  8
0
  5
5DF
 10
59.0448
 20
121.542
 30
0.000000
  70
    32
  0
VERTEX
  8
0
  5
5E0
 10
59.0372
 20
121.526
 30
0.000000
  70
    32
  0
VERTEX
  8
0
  5
5E1
 10
59.0298
 20
121.510
 30
0.000000
  70
    32
  0
VERTEX
  8
0
  5
5E2
 10
59.0225
 20
121.493
 30
0.000000
  70
    32
  0
VERTEX
  8
0
  5
5E3
 10
59.0154
 20
121.477
 30
0.000000
  70
    32
  0
VERTEX
  8
0
  5
5E4
 10
59.0085
 20
121.460
 30
0.000000
  70
    32
  0
VERTEX
  8
0
  5
5E5
 10
59.0018
 20
121.443
 30
0.000000
  70
    32
  0
VERTEX
  8
0
  5
5E6
 10
58.9952
 20
121.427
 30
0.000000
  70
    32
  0
VERTEX
  8
0
  5
5E7
 10
58.9889
 20
121.410
 30
0.000000
  70
    32
  0
VERTEX
  8
0
  5
5E8
 10
58.9827
 20
121.393
 30
0.000000
  70
    32
  0
VERTEX
  8
0
  5
5E9
 10
58.9767
 20
121.376
 30
0.000000
  70
    32
  0
VERTEX
  8
0
  5
5EA
 10
58.9708
 20
121.359
 30
0.000000
  70
    32
  0
VERTEX
  8
0
  5
5EB
 10
58.9652
 20
121.341
 30
0.000000
  70
    32
  0
VERTEX
  8
0
  5
5EC
 10
58.9597
 20
121.324
 30
0.000000
  70
    32
  0
VERTEX
  8
0
  5
5ED
 10
58.9545
 20
121.307
 30
0.000000
  70
    32
  0
VERTEX
  8
0
  5
5EE
 10
58.9494
 20
121.289
 30
0.000000
  70
    32
  0
VERTEX
  8
0
  5
5EF
 10
58.9445
 20
121.272
 30
0.000000
  70
    32
  0
VERTEX
  8
0
  5
5F0
 10
58.9397
 20
121.254
 30
0.000000
  70
    32
  0
VERTEX
  8
0
  5
5F1
 10
58.9352
 20
121.237
 30
0.000000
  70
    32
  0
VERTEX
  8
0
  5
5F2
 10
58.9309
 20
121.219
 30
0.000000
  70
    32
  0
VERTEX
  8
0
  5
5F3
 10
58.9267
 20
121.201
 30
0.000000
  70
    32
  0
VERTEX
  8
0
  5
5F4
 10
58.9227
 20
121.183
 30
0.000000
  70
    32
  0
VERTEX
  8
0
  5
5F5
 10
58.9190
 20
121.165
 30
0.000000
  70
    32
  0
VERTEX
  8
0
  5
5F6
 10
58.9154
 20
121.147
 30
0.000000
  70
    32
  0
VERTEX
  8
0
  5
5F7
 10
58.9120
 20
121.129
 30
0.000000
  70
    32
  0
VERTEX
  8
0
  5
5F8
 10
58.9088
 20
121.111
 30
0.000000
  70
    32
  0
VERTEX
  8
0
  5
5F9
 10
58.9057
 20
121.093
 30
0.000000
  70
    32
  0
VERTEX
  8
0
  5
5FA
 10
58.9029
 20
121.075
 30
0.000000
  70
    32
  0
VERTEX
  8
0
  5
5FB
 10
58.9003
 20
121.057
 30
0.000000
  70
    32
  0
VERTEX
  8
0
  5
5FC
 10
58.8979
 20
121.039
 30
0.000000
  70
    32
  0
VERTEX
  8
0
  5
5FD
 10
58.8956
 20
121.021
 30
0.000000
  70
    32
  0
VERTEX
  8
0
  5
5FE
 10
58.8936
 20
121.002
 30
0.000000
  70
    32
  0
VERTEX
  8
0
  5
5FF
 10
58.8917
 20
120.984
 30
0.000000
  70
    32
  0
VERTEX
  8
0
  5
600
 10
58.8901
 20
120.966
 30
0.000000
  70
    32
  0
VERTEX
  8
0
  5
601
 10
58.8886
 20
120.947
 30
0.000000
  70
    32
  0
VERTEX
  8
0
  5
602
 10
58.8873
 20
120.929
 30
0.000000
  70
    32
  0
VERTEX
  8
0
  5
603
 10
58.8862
 20
120.911
 30
0.000000
  70
    32
  0
VERTEX
  8
0
  5
604
 10
58.8854
 20
120.892
 30
0.000000
  70
    32
  0
VERTEX
  8
0
  5
605
 10
58.8847
 20
120.874
 30
0.000000
  70
    32
  0
VERTEX
  8
0
  5
606
 10
58.8842
 20
120.856
 30
0.000000
  70
    32
  0
VERTEX
  8
0
  5
607
 10
58.8839
 20
120.837
 30
0.000000
  70
    32
  0
VERTEX
  8
0
  5
608
 10
58.8838
 20
120.819
 30
0.000000
  70
    32
  0
SEQEND
  8
0
  5
609
  0
POLYLINE
  5
35C
  8
0
 10
58.883802067377104
 20
99.818731921423392
 30
0.0
 66
     1
 70
     8
  0
VERTEX
  8
0
  5
60A
 10
58.8838
 20
99.8187
 30
0.000000
  70
    32
  0
VERTEX
  8
0
  5
60B
 10
58.8839
 20
99.8003
 30
0.000000
  70
    32
  0
VERTEX
  8
0
  5
60C
 10
58.8842
 20
99.7819
 30
0.000000
  70
    32
  0
VERTEX
  8
0
  5
60D
 10
58.8847
 20
99.7635
 30
0.000000
  70
    32
  0
VERTEX
  8
0
  5
60E
 10
58.8854
 20
99.7451
 30
0.000000
  70
    32
  0
VERTEX
  8
0
  5
60F
 10
58.8862
 20
99.7268
 30
0.000000
  70
    32
  0
VERTEX
  8
0
  5
610
 10
58.8873
 20
99.7084
 30
0.000000
  70
    32
  0
VERTEX
  8
0
  5
611
 10
58.8886
 20
99.6900
 30
0.000000
  70
    32
  0
VERTEX
  8
0
  5
612
 10
58.8901
 20
99.6717
 30
0.000000
  70
    32
  0
VERTEX
  8
0
  5
613
 10
58.8917
 20
99.6534
 30
0.000000
  70
    32
  0
VERTEX
  8
0
  5
614
 10
58.8936
 20
99.6351
 30
0.000000
  70
    32
  0
VERTEX
  8
0
  5
615
 10
58.8956
 20
99.6169
 30
0.000000
  70
    32
  0
VERTEX
  8
0
  5
616
 10
58.8979
 20
99.5986
 30
0.000000
  70
    32
  0
VERTEX
  8
0
  5
617
 10
58.9003
 20
99.5804
 30
0.000000
  70
    32
  0
VERTEX
  8
0
  5
618
 10
58.9029
 20
99.5623
 30
0.000000
  70
    32
  0
VERTEX
  8
0
  5
619
 10
58.9057
 20
99.5442
 30
0.000000
  70
    32
  0
VERTEX
  8
0
  5
61A
 10
58.9088
 20
99.5261
 30
0.000000
  70
    32
  0
VERTEX
  8
0
  5
61B
 10
58.9120
 20
99.5081
 30
0.000000
  70
    32
  0
VERTEX
  8
0
  5
61C
 10
58.9154
 20
99.4901
 30
0.000000
  70
    32
  0
VERTEX
  8
0
  5
61D
 10
58.9190
 20
99.4721
 30
0.000000
  70
    32
  0
VERTEX
  8
0
  5
61E
 10
58.9227
 20
99.4543
 30
0.000000
  70
    32
  0
VERTEX
  8
0
  5
61F
 10
58.9267
 20
99.4364
 30
0.000000
  70
    32
  0
VERTEX
  8
0
  5
620
 10
58.9309
 20
99.4187
 30
0.000000
  70
    32
  0
VERTEX
  8
0
  5
621
 10
58.9352
 20
99.4010
 30
0.000000
  70
    32
  0
VERTEX
  8
0
  5
622
 10
58.9397
 20
99.3833
 30
0.000000
  70
    32
  0
VERTEX
  8
0
  5
623
 10
58.9445
 20
99.3657
 30
0.000000
  70
    32
  0
VERTEX
  8
0
  5
624
 10
58.9494
 20
99.3482
 30
0.000000
  70
    32
  0
VERTEX
  8
0
  5
625
 10
58.9545
 20
99.3308
 30
0.000000
  70
    32
  0
VERTEX
  8
0
  5
626
 10
58.9597
 20
99.3134
 30
0.000000
  70
    32
  0
VERTEX
  8
0
  5
627
 10
58.9652
 20
99.2961
 30
0.000000
  70
    32
  0
VERTEX
  8
0
  5
628
 10
58.9708
 20
99.2789
 30
0.000000
  70
    32
  0
VERTEX
  8
0
  5
629
 10
58.9767
 20
99.2618
 30
0.000000
  70
    32
  0
VERTEX
  8
0
  5
62A
 10
58.9827
 20
99.2447
 30
0.000000
  70
    32
  0
VERTEX
  8
0
  5
62B
 10
58.9889
 20
99.2277
 30
0.000000
  70
    32
  0
VERTEX
  8
0
  5
62C
 10
58.9952
 20
99.2109
 30
0.000000
  70
    32
  0
VERTEX
  8
0
  5
62D
 10
59.0018
 20
99.1941
 30
0.000000
  70
    32
  0
VERTEX
  8
0
  5
62E
 10
59.0085
 20
99.1774
 30
0.000000
  70
    32
  0
VERTEX
  8
0
  5
62F
 10
59.0154
 20
99.1608
 30
0.000000
  70
    32
  0
VERTEX
  8
0
  5
630
 10
59.0225
 20
99.1443
 30
0.000000
  70
    32
  0
VERTEX
  8
0
  5
631
 10
59.0298
 20
99.1279
 30
0.000000
  70
    32
  0
VERTEX
  8
0
  5
632
 10
59.0372
 20
99.1116
 30
0.000000
  70
    32
  0
VERTEX
  8
0
  5
633
 10
59.0448
 20
99.0955
 30
0.000000
  70
    32
  0
VERTEX
  8
0
  5
634
 10
59.0526
 20
99.0794
 30
0.000000
  70
    32
  0
VERTEX
  8
0
  5
635
 10
59.0605
 20
99.0634
 30
0.000000
  70
    32
  0
VERTEX
  8
0
  5
636
 10
59.0686
 20
99.0476
 30
0.000000
  70
    32
  0
VERTEX
  8
0
  5
637
 10
59.0769
 20
99.0318
 30
0.000000
  70
    32
  0
VERTEX
  8
0
  5
638
 10
59.0853
 20
99.0162
 30
0.000000
  70
    32
  0
VERTEX
  8
0
  5
639
 10
59.0940
 20
99.0007
 30
0.000000
  70
    32
  0
VERTEX
  8
0
  5
63A
 10
59.1027
 20
98.9854
 30
0.000000
  70
    32
  0
VERTEX
  8
0
  5
63B
 10
59.1117
 20
98.9701
 30
0.000000
  70
    32
  0
VERTEX
  8
0
  5
63C
 10
59.1208
 20
98.9550
 30
0.000000
  70
    32
  0
VERTEX
  8
0
  5
63D
 10
59.1300
 20
98.9400
 30
0.000000
  70
    32
  0
VERTEX
  8
0
  5
63E
 10
59.1394
 20
98.9252
 30
0.000000
  70
    32
  0
VERTEX
  8
0
  5
63F
 10
59.1490
 20
98.9105
 30
0.000000
  70
    32
  0
VERTEX
  8
0
  5
640
 10
59.1587
 20
98.8959
 30
0.000000
  70
    32
  0
VERTEX
  8
0
  5
641
 10
59.1686
 20
98.8814
 30
0.000000
  70
    32
  0
VERTEX
  8
0
  5
642
 10
59.1787
 20
98.8671
 30
0.000000
  70
    32
  0
VERTEX
  8
0
  5
643
 10
59.1889
 20
98.8530
 30
0.000000
  70
    32
  0
VERTEX
  8
0
  5
644
 10
59.1992
 20
98.8390
 30
0.000000
  70
    32
  0
VERTEX
  8
0
  5
645
 10
59.2097
 20
98.8251
 30
0.000000
  70
    32
  0
VERTEX
  8
0
  5
646
 10
59.2203
 20
98.8114
 30
0.000000
  70
    32
  0
VERTEX
  8
0
  5
647
 10
59.2311
 20
98.7978
 30
0.000000
  70
    32
  0
VERTEX
  8
0
  5
648
 10
59.2420
 20
98.7844
 30
0.000000
  70
    32
  0
VERTEX
  8
0
  5
649
 10
59.2531
 20
98.7712
 30
0.000000
  70
    32
  0
VERTEX
  8
0
  5
64A
 10
59.2643
 20
98.7581
 30
0.000000
  70
    32
  0
VERTEX
  8
0
  5
64B
 10
59.2756
 20
98.7451
 30
0.000000
  70
    32
  0
VERTEX
  8
0
  5
64C
 10
59.2871
 20
98.7324
 30
0.000000
  70
    32
  0
VERTEX
  8
0
  5
64D
 10
59.2987
 20
98.7198
 30
0.000000
  70
    32
  0
VERTEX
  8
0
  5
64E
 10
59.3105
 20
98.7073
 30
0.000000
  70
    32
  0
VERTEX
  8
0
  5
64F
 10
59.3223
 20
98.6950
 30
0.000000
  70
    32
  0
VERTEX
  8
0
  5
650
 10
59.3343
 20
98.6829
 30
0.000000
  70
    32
  0
VERTEX
  8
0
  5
651
 10
59.3465
 20
98.6710
 30
0.000000
  70
    32
  0
VERTEX
  8
0
  5
652
 10
59.3587
 20
98.6592
 30
0.000000
  70
    32
  0
VERTEX
  8
0
  5
653
 10
59.3711
 20
98.6476
 30
0.000000
  70
    32
  0
VERTEX
  8
0
  5
654
 10
59.3836
 20
98.6362
 30
0.000000
  70
    32
  0
VERTEX
  8
0
  5
655
 10
59.3963
 20
98.6250
 30
0.000000
  70
    32
  0
VERTEX
  8
0
  5
656
 10
59.4090
 20
98.6139
 30
0.000000
  70
    32
  0
VERTEX
  8
0
  5
657
 10
59.4219
 20
98.6030
 30
0.000000
  70
    32
  0
VERTEX
  8
0
  5
658
 10
59.4348
 20
98.5924
 30
0.000000
  70
    32
  0
VERTEX
  8
0
  5
659
 10
59.4479
 20
98.5818
 30
0.000000
  70
    32
  0
VERTEX
  8
0
  5
65A
 10
59.4611
 20
98.5715
 30
0.000000
  70
    32
  0
VERTEX
  8
0
  5
65B
 10
59.4744
 20
98.5614
 30
0.000000
  70
    32
  0
VERTEX
  8
0
  5
65C
 10
59.4879
 20
98.5515
 30
0.000000
  70
    32
  0
VERTEX
  8
0
  5
65D
 10
59.5014
 20
98.5417
 30
0.000000
  70
    32
  0
VERTEX
  8
0
  5
65E
 10
59.5150
 20
98.5321
 30
0.000000
  70
    32
  0
VERTEX
  8
0
  5
65F
 10
59.5287
 20
98.5228
 30
0.000000
  70
    32
  0
VERTEX
  8
0
  5
660
 10
59.5425
 20
98.5136
 30
0.000000
  70
    32
  0
VERTEX
  8
0
  5
661
 10
59.5565
 20
98.5046
 30
0.000000
  70
    32
  0
VERTEX
  8
0
  5
662
 10
59.5705
 20
98.4959
 30
0.000000
  70
    32
  0
VERTEX
  8
0
  5
663
 10
59.5846
 20
98.4873
 30
0.000000
  70
    32
  0
VERTEX
  8
0
  5
664
 10
59.5988
 20
98.4789
 30
0.000000
  70
    32
  0
VERTEX
  8
0
  5
665
 10
59.6131
 20
98.4707
 30
0.000000
  70
    32
  0
VERTEX
  8
0
  5
666
 10
59.6274
 20
98.4627
 30
0.000000
  70
    32
  0
VERTEX
  8
0
  5
667
 10
59.6419
 20
98.4550
 30
0.000000
  70
    32
  0
VERTEX
  8
0
  5
668
 10
59.6564
 20
98.4474
 30
0.000000
  70
    32
  0
VERTEX
  8
0
  5
669
 10
59.6710
 20
98.4401
 30
0.000000
  70
    32
  0
VERTEX
  8
0
  5
66A
 10
59.6857
 20
98.4329
 30
0.000000
  70
    32
  0
VERTEX
  8
0
  5
66B
 10
59.7005
 20
98.4260
 30
0.000000
  70
    32
  0
VERTEX
  8
0
  5
66C
 10
59.7153
 20
98.4192
 30
0.000000
  70
    32
  0
VERTEX
  8
0
  5
66D
 10
59.7302
 20
98.4127
 30
0.000000
  70
    32
  0
VERTEX
  8
0
  5
66E
 10
59.7452
 20
98.4064
 30
0.000000
  70
    32
  0
VERTEX
  8
0
  5
66F
 10
59.7602
 20
98.4003
 30
0.000000
  70
    32
  0
VERTEX
  8
0
  5
670
 10
59.7754
 20
98.3944
 30
0.000000
  70
    32
  0
VERTEX
  8
0
  5
671
 10
59.7905
 20
98.3888
 30
0.000000
  70
    32
  0
VERTEX
  8
0
  5
672
 10
59.8057
 20
98.3833
 30
0.000000
  70
    32
  0
VERTEX
  8
0
  5
673
 10
59.8210
 20
98.3781
 30
0.000000
  70
    32
  0
VERTEX
  8
0
  5
674
 10
59.8364
 20
98.3731
 30
0.000000
  70
    32
  0
VERTEX
  8
0
  5
675
 10
59.8518
 20
98.3683
 30
0.000000
  70
    32
  0
VERTEX
  8
0
  5
676
 10
59.8672
 20
98.3637
 30
0.000000
  70
    32
  0
VERTEX
  8
0
  5
677
 10
59.8827
 20
98.3593
 30
0.000000
  70
    32
  0
VERTEX
  8
0
  5
678
 10
59.8982
 20
98.3552
 30
0.000000
  70
    32
  0
VERTEX
  8
0
  5
679
 10
59.9138
 20
98.3513
 30
0.000000
  70
    32
  0
VERTEX
  8
0
  5
67A
 10
59.9294
 20
98.3476
 30
0.000000
  70
    32
  0
VERTEX
  8
0
  5
67B
 10
59.9451
 20
98.3441
 30
0.000000
  70
    32
  0
VERTEX
  8
0
  5
67C
 10
59.9608
 20
98.3408
 30
0.000000
  70
    32
  0
VERTEX
  8
0
  5
67D
 10
59.9765
 20
98.3378
 30
0.000000
  70
    32
  0
VERTEX
  8
0
  5
67E
 10
59.9922
 20
98.3350
 30
0.000000
  70
    32
  0
VERTEX
  8
0
  5
67F
 10
60.0080
 20
98.3324
 30
0.000000
  70
    32
  0
VERTEX
  8
0
  5
680
 10
60.0238
 20
98.3300
 30
0.000000
  70
    32
  0
VERTEX
  8
0
  5
681
 10
60.0397
 20
98.3279
 30
0.000000
  70
    32
  0
VERTEX
  8
0
  5
682
 10
60.0555
 20
98.3260
 30
0.000000
  70
    32
  0
VERTEX
  8
0
  5
683
 10
60.0714
 20
98.3243
 30
0.000000
  70
    32
  0
VERTEX
  8
0
  5
684
 10
60.0873
 20
98.3228
 30
0.000000
  70
    32
  0
VERTEX
  8
0
  5
685
 10
60.1032
 20
98.3216
 30
0.000000
  70
    32
  0
VERTEX
  8
0
  5
686
 10
60.1191
 20
98.3205
 30
0.000000
  70
    32
  0
VERTEX
  8
0
  5
687
 10
60.1350
 20
98.3197
 30
0.000000
  70
    32
  0
VERTEX
  8
0
  5
688
 10
60.1510
 20
98.3192
 30
0.000000
  70
    32
  0
VERTEX
  8
0
  5
689
 10
60.1669
 20
98.3188
 30
0.000000
  70
    32
  0
VERTEX
  8
0
  5
68A
 10
60.1828
 20
98.3187
 30
0.000000
  70
    32
  0
SEQEND
  8
0
  5
68B
  0
POLYLINE
  5
35D
  8
0
 10
60.682840173054018
 20
98.318731921423364
 30
0.0
 66
     1
 70
     8
  0
VERTEX
  8
0
  5
68C
 10
60.6828
 20
98.3187
 30
0.000000
  70
    32
  0
VERTEX
  8
0
  5
68D
 10
60.6669
 20
98.3188
 30
0.000000
  70
    32
  0
VERTEX
  8
0
  5
68E
 10
60.6510
 20
98.3192
 30
0.000000
  70
    32
  0
VERTEX
  8
0
  5
68F
 10
60.6350
 20
98.3197
 30
0.000000
  70
    32
  0
VERTEX
  8
0
  5
690
 10
60.6191
 20
98.3205
 30
0.000000
  70
    32
  0
VERTEX
  8
0
  5
691
 10
60.6032
 20
98.3216
 30
0.000000
  70
    32
  0
VERTEX
  8
0
  5
692
 10
60.5873
 20
98.3228
 30
0.000000
  70
    32
  0
VERTEX
  8
0
  5
693
 10
60.5714
 20
98.3243
 30
0.000000
  70
    32
  0
VERTEX
  8
0
  5
694
 10
60.5555
 20
98.3260
 30
0.000000
  70
    32
  0
VERTEX
  8
0
  5
695
 10
60.5397
 20
98.3279
 30
0.000000
  70
    32
  0
VERTEX
  8
0
  5
696
 10
60.5238
 20
98.3300
 30
0.000000
  70
    32
  0
VERTEX
  8
0
  5
697
 10
60.5080
 20
98.3324
 30
0.000000
  70
    32
  0
VERTEX
  8
0
  5
698
 10
60.4922
 20
98.3350
 30
0.000000
  70
    32
  0
VERTEX
  8
0
  5
699
 10
60.4765
 20
98.3378
 30
0.000000
  70
    32
  0
VERTEX
  8
0
  5
69A
 10
60.4608
 20
98.3408
 30
0.000000
  70
    32
  0
VERTEX
  8
0
  5
69B
 10
60.4451
 20
98.3441
 30
0.000000
  70
    32
  0
VERTEX
  8
0
  5
69C
 10
60.4294
 20
98.3476
 30
0.000000
  70
    32
  0
VERTEX
  8
0
  5
69D
 10
60.4138
 20
98.3513
 30
0.000000
  70
    32
  0
VERTEX
  8
0
  5
69E
 10
60.3982
 20
98.3552
 30
0.000000
  70
    32
  0
VERTEX
  8
0
  5
69F
 10
60.3827
 20
98.3593
 30
0.000000
  70
    32
  0
VERTEX
  8
0
  5
6A0
 10
60.3672
 20
98.3637
 30
0.000000
  70
    32
  0
VERTEX
  8
0
  5
6A1
 10
60.3518
 20
98.3683
 30
0.000000
  70
    32
  0
VERTEX
  8
0
  5
6A2
 10
60.3364
 20
98.3731
 30
0.000000
  70
    32
  0
VERTEX
  8
0
  5
6A3
 10
60.3210
 20
98.3781
 30
0.000000
  70
    32
  0
VERTEX
  8
0
  5
6A4
 10
60.3057
 20
98.3833
 30
0.000000
  70
    32
  0
VERTEX
  8
0
  5
6A5
 10
60.2905
 20
98.3888
 30
0.000000
  70
    32
  0
VERTEX
  8
0
  5
6A6
 10
60.2754
 20
98.3944
 30
0.000000
  70
    32
  0
VERTEX
  8
0
  5
6A7
 10
60.2602
 20
98.4003
 30
0.000000
  70
    32
  0
VERTEX
  8
0
  5
6A8
 10
60.2452
 20
98.4064
 30
0.000000
  70
    32
  0
VERTEX
  8
0
  5
6A9
 10
60.2302
 20
98.4127
 30
0.000000
  70
    32
  0
VERTEX
  8
0
  5
6AA
 10
60.2153
 20
98.4192
 30
0.000000
  70
    32
  0
VERTEX
  8
0
  5
6AB
 10
60.2005
 20
98.4260
 30
0.000000
  70
    32
  0
VERTEX
  8
0
  5
6AC
 10
60.1857
 20
98.4329
 30
0.000000
  70
    32
  0
VERTEX
  8
0
  5
6AD
 10
60.1710
 20
98.4401
 30
0.000000
  70
    32
  0
VERTEX
  8
0
  5
6AE
 10
60.1564
 20
98.4474
 30
0.000000
  70
    32
  0
VERTEX
  8
0
  5
6AF
 10
60.1419
 20
98.4550
 30
0.000000
  70
    32
  0
VERTEX
  8
0
  5
6B0
 10
60.1274
 20
98.4627
 30
0.000000
  70
    32
  0
VERTEX
  8
0
  5
6B1
 10
60.1131
 20
98.4707
 30
0.000000
  70
    32
  0
VERTEX
  8
0
  5
6B2
 10
60.0988
 20
98.4789
 30
0.000000
  70
    32
  0
VERTEX
  8
0
  5
6B3
 10
60.0846
 20
98.4873
 30
0.000000
  70
    32
  0
VERTEX
  8
0
  5
6B4
 10
60.0705
 20
98.4959
 30
0.000000
  70
    32
  0
VERTEX
  8
0
  5
6B5
 10
60.0565
 20
98.5046
 30
0.000000
  70
    32
  0
VERTEX
  8
0
  5
6B6
 10
60.0425
 20
98.5136
 30
0.000000
  70
    32
  0
VERTEX
  8
0
  5
6B7
 10
60.0287
 20
98.5228
 30
0.000000
  70
    32
  0
VERTEX
  8
0
  5
6B8
 10
60.0150
 20
98.5321
 30
0.000000
  70
    32
  0
VERTEX
  8
0
  5
6B9
 10
60.0014
 20
98.5417
 30
0.000000
  70
    32
  0
VERTEX
  8
0
  5
6BA
 10
59.9879
 20
98.5515
 30
0.000000
  70
    32
  0
VERTEX
  8
0
  5
6BB
 10
59.9744
 20
98.5614
 30
0.000000
  70
    32
  0
VERTEX
  8
0
  5
6BC
 10
59.9611
 20
98.5715
 30
0.000000
  70
    32
  0
VERTEX
  8
0
  5
6BD
 10
59.9479
 20
98.5818
 30
0.000000
  70
    32
  0
VERTEX
  8
0
  5
6BE
 10
59.9348
 20
98.5924
 30
0.000000
  70
    32
  0
VERTEX
  8
0
  5
6BF
 10
59.9219
 20
98.6030
 30
0.000000
  70
    32
  0
VERTEX
  8
0
  5
6C0
 10
59.9090
 20
98.6139
 30
0.000000
  70
    32
  0
VERTEX
  8
0
  5
6C1
 10
59.8963
 20
98.6250
 30
0.000000
  70
    32
  0
VERTEX
  8
0
  5
6C2
 10
59.8836
 20
98.6362
 30
0.000000
  70
    32
  0
VERTEX
  8
0
  5
6C3
 10
59.8711
 20
98.6476
 30
0.000000
  70
    32
  0
VERTEX
  8
0
  5
6C4
 10
59.8587
 20
98.6592
 30
0.000000
  70
    32
  0
VERTEX
  8
0
  5
6C5
 10
59.8465
 20
98.6710
 30
0.000000
  70
    32
  0
VERTEX
  8
0
  5
6C6
 10
59.8343
 20
98.6829
 30
0.000000
  70
    32
  0
VERTEX
  8
0
  5
6C7
 10
59.8223
 20
98.6950
 30
0.000000
  70
    32
  0
VERTEX
  8
0
  5
6C8
 10
59.8105
 20
98.7073
 30
0.000000
  70
    32
  0
VERTEX
  8
0
  5
6C9
 10
59.7987
 20
98.7198
 30
0.000000
  70
    32
  0
VERTEX
  8
0
  5
6CA
 10
59.7871
 20
98.7324
 30
0.000000
  70
    32
  0
VERTEX
  8
0
  5
6CB
 10
59.7756
 20
98.7451
 30
0.000000
  70
    32
  0
VERTEX
  8
0
  5
6CC
 10
59.7643
 20
98.7581
 30
0.000000
  70
    32
  0
VERTEX
  8
0
  5
6CD
 10
59.7531
 20
98.7712
 30
0.000000
  70
    32
  0
VERTEX
  8
0
  5
6CE
 10
59.7420
 20
98.7844
 30
0.000000
  70
    32
  0
VERTEX
  8
0
  5
6CF
 10
59.7311
 20
98.7978
 30
0.000000
  70
    32
  0
VERTEX
  8
0
  5
6D0
 10
59.7203
 20
98.8114
 30
0.000000
  70
    32
  0
VERTEX
  8
0
  5
6D1
 10
59.7097
 20
98.8251
 30
0.000000
  70
    32
  0
VERTEX
  8
0
  5
6D2
 10
59.6992
 20
98.8390
 30
0.000000
  70
    32
  0
VERTEX
  8
0
  5
6D3
 10
59.6889
 20
98.8530
 30
0.000000
  70
    32
  0
VERTEX
  8
0
  5
6D4
 10
59.6787
 20
98.8671
 30
0.000000
  70
    32
  0
VERTEX
  8
0
  5
6D5
 10
59.6686
 20
98.8814
 30
0.000000
  70
    32
  0
VERTEX
  8
0
  5
6D6
 10
59.6587
 20
98.8959
 30
0.000000
  70
    32
  0
VERTEX
  8
0
  5
6D7
 10
59.6490
 20
98.9105
 30
0.000000
  70
    32
  0
VERTEX
  8
0
  5
6D8
 10
59.6394
 20
98.9252
 30
0.000000
  70
    32
  0
VERTEX
  8
0
  5
6D9
 10
59.6300
 20
98.9400
 30
0.000000
  70
    32
  0
VERTEX
  8
0
  5
6DA
 10
59.6208
 20
98.9550
 30
0.000000
  70
    32
  0
VERTEX
  8
0
  5
6DB
 10
59.6117
 20
98.9701
 30
0.000000
  70
    32
  0
VERTEX
  8
0
  5
6DC
 10
59.6027
 20
98.9854
 30
0.000000
  70
    32
  0
VERTEX
  8
0
  5
6DD
 10
59.5940
 20
99.0007
 30
0.000000
  70
    32
  0
VERTEX
  8
0
  5
6DE
 10
59.5853
 20
99.0162
 30
0.000000
  70
    32
  0
VERTEX
  8
0
  5
6DF
 10
59.5769
 20
99.0318
 30
0.000000
  70
    32
  0
VERTEX
  8
0
  5
6E0
 10
59.5686
 20
99.0476
 30
0.000000
  70
    32
  0
VERTEX
  8
0
  5
6E1
 10
59.5605
 20
99.0634
 30
0.000000
  70
    32
  0
VERTEX
  8
0
  5
6E2
 10
59.5526
 20
99.0794
 30
0.000000
  70
    32
  0
VERTEX
  8
0
  5
6E3
 10
59.5448
 20
99.0955
 30
0.000000
  70
    32
  0
VERTEX
  8
0
  5
6E4
 10
59.5372
 20
99.1116
 30
0.000000
  70
    32
  0
VERTEX
  8
0
  5
6E5
 10
59.5298
 20
99.1279
 30
0.000000
  70
    32
  0
VERTEX
  8
0
  5
6E6
 10
59.5225
 20
99.1443
 30
0.000000
  70
    32
  0
VERTEX
  8
0
  5
6E7
 10
59.5154
 20
99.1608
 30
0.000000
  70
    32
  0
VERTEX
  8
0
  5
6E8
 10
59.5085
 20
99.1774
 30
0.000000
  70
    32
  0
VERTEX
  8
0
  5
6E9
 10
59.5018
 20
99.1941
 30
0.000000
  70
    32
  0
VERTEX
  8
0
  5
6EA
 10
59.4952
 20
99.2109
 30
0.000000
  70
    32
  0
VERTEX
  8
0
  5
6EB
 10
59.4889
 20
99.2277
 30
0.000000
  70
    32
  0
VERTEX
  8
0
  5
6EC
 10
59.4827
 20
99.2447
 30
0.000000
  70
    32
  0
VERTEX
  8
0
  5
6ED
 10
59.4767
 20
99.2618
 30
0.000000
  70
    32
  0
VERTEX
  8
0
  5
6EE
 10
59.4708
 20
99.2789
 30
0.000000
  70
    32
  0
VERTEX
  8
0
  5
6EF
 10
59.4652
 20
99.2961
 30
0.000000
  70
    32
  0
VERTEX
  8
0
  5
6F0
 10
59.4597
 20
99.3134
 30
0.000000
  70
    32
  0
VERTEX
  8
0
  5
6F1
 10
59.4545
 20
99.3308
 30
0.000000
  70
    32
  0
VERTEX
  8
0
  5
6F2
 10
59.4494
 20
99.3482
 30
0.000000
  70
    32
  0
VERTEX
  8
0
  5
6F3
 10
59.4445
 20
99.3657
 30
0.000000
  70
    32
  0
VERTEX
  8
0
  5
6F4
 10
59.4397
 20
99.3833
 30
0.000000
  70
    32
  0
VERTEX
  8
0
  5
6F5
 10
59.4352
 20
99.4010
 30
0.000000
  70
    32
  0
VERTEX
  8
0
  5
6F6
 10
59.4309
 20
99.4187
 30
0.000000
  70
    32
  0
VERTEX
  8
0
  5
6F7
 10
59.4267
 20
99.4364
 30
0.000000
  70
    32
  0
VERTEX
  8
0
  5
6F8
 10
59.4227
 20
99.4543
 30
0.000000
  70
    32
  0
VERTEX
  8
0
  5
6F9
 10
59.4190
 20
99.4721
 30
0.000000
  70
    32
  0
VERTEX
  8
0
  5
6FA
 10
59.4154
 20
99.4901
 30
0.000000
  70
    32
  0
VERTEX
  8
0
  5
6FB
 10
59.4120
 20
99.5081
 30
0.000000
  70
    32
  0
VERTEX
  8
0
  5
6FC
 10
59.4088
 20
99.5261
 30
0.000000
  70
    32
  0
VERTEX
  8
0
  5
6FD
 10
59.4057
 20
99.5442
 30
0.000000
  70
    32
  0
VERTEX
  8
0
  5
6FE
 10
59.4029
 20
99.5623
 30
0.000000
  70
    32
  0
VERTEX
  8
0
  5
6FF
 10
59.4003
 20
99.5804
 30
0.000000
  70
    32
  0
VERTEX
  8
0
  5
700
 10
59.3979
 20
99.5986
 30
0.000000
  70
    32
  0
VERTEX
  8
0
  5
701
 10
59.3956
 20
99.6169
 30
0.000000
  70
    32
  0
VERTEX
  8
0
  5
702
 10
59.3936
 20
99.6351
 30
0.000000
  70
    32
  0
VERTEX
  8
0
  5
703
 10
59.3917
 20
99.6534
 30
0.000000
  70
    32
  0
VERTEX
  8
0
  5
704
 10
59.3901
 20
99.6717
 30
0.000000
  70
    32
  0
VERTEX
  8
0
  5
705
 10
59.3886
 20
99.6900
 30
0.000000
  70
    32
  0
VERTEX
  8
0
  5
706
 10
59.3873
 20
99.7084
 30
0.000000
  70
    32
  0
VERTEX
  8
0
  5
707
 10
59.3862
 20
99.7268
 30
0.000000
  70
    32
  0
VERTEX
  8
0
  5
708
 10
59.3854
 20
99.7451
 30
0.000000
  70
    32
  0
VERTEX
  8
0
  5
709
 10
59.3847
 20
99.7635
 30
0.000000
  70
    32
  0
VERTEX
  8
0
  5
70A
 10
59.3842
 20
99.7819
 30
0.000000
  70
    32
  0
VERTEX
  8
0
  5
70B
 10
59.3839
 20
99.8003
 30
0.000000
  70
    32
  0
VERTEX
  8
0
  5
70C
 10
59.3838
 20
99.8187
 30
0.000000
  70
    32
  0
SEQEND
  8
0
  5
70D
  0
POLYLINE
  5
35F
  8
0
 10
35.343094210898386
 20
122.31873192142341
 30
0.0
 66
     1
 70
     8
  0
VERTEX
  8
0
  5
70E
 10
35.3431
 20
122.319
 30
0.000000
  70
    32
  0
VERTEX
  8
0
  5
70F
 10
35.3590
 20
122.319
 30
0.000000
  70
    32
  0
VERTEX
  8
0
  5
710
 10
35.3750
 20
122.318
 30
0.000000
  70
    32
  0
VERTEX
  8
0
  5
711
 10
35.3909
 20
122.318
 30
0.000000
  70
    32
  0
VERTEX
  8
0
  5
712
 10
35.4068
 20
122.317
 30
0.000000
  70
    32
  0
VERTEX
  8
0
  5
713
 10
35.4228
 20
122.316
 30
0.000000
  70
    32
  0
VERTEX
  8
0
  5
714
 10
35.4387
 20
122.315
 30
0.000000
  70
    32
  0
VERTEX
  8
0
  5
715
 10
35.4545
 20
122.313
 30
0.000000
  70
    32
  0
VERTEX
  8
0
  5
716
 10
35.4704
 20
122.312
 30
0.000000
  70
    32
  0
VERTEX
  8
0
  5
717
 10
35.4863
 20
122.310
 30
0.000000
  70
    32
  0
VERTEX
  8
0
  5
718
 10
35.5021
 20
122.307
 30
0.000000
  70
    32
  0
VERTEX
  8
0
  5
719
 10
35.5179
 20
122.305
 30
0.000000
  70
    32
  0
VERTEX
  8
0
  5
71A
 10
35.5337
 20
122.302
 30
0.000000
  70
    32
  0
VERTEX
  8
0
  5
71B
 10
35.5495
 20
122.300
 30
0.000000
  70
    32
  0
VERTEX
  8
0
  5
71C
 10
35.5652
 20
122.297
 30
0.000000
  70
    32
  0
VERTEX
  8
0
  5
71D
 10
35.5809
 20
122.293
 30
0.000000
  70
    32
  0
VERTEX
  8
0
  5
71E
 10
35.5965
 20
122.290
 30
0.000000
  70
    32
  0
VERTEX
  8
0
  5
71F
 10
35.6121
 20
122.286
 30
0.000000
  70
    32
  0
VERTEX
  8
0
  5
720
 10
35.6277
 20
122.282
 30
0.000000
  70
    32
  0
VERTEX
  8
0
  5
721
 10
35.6432
 20
122.278
 30
0.000000
  70
    32
  0
VERTEX
  8
0
  5
722
 10
35.6587
 20
122.274
 30
0.000000
  70
    32
  0
VERTEX
  8
0
  5
723
 10
35.6742
 20
122.269
 30
0.000000
  70
    32
  0
VERTEX
  8
0
  5
724
 10
35.6896
 20
122.264
 30
0.000000
  70
    32
  0
VERTEX
  8
0
  5
725
 10
35.7049
 20
122.259
 30
0.000000
  70
    32
  0
VERTEX
  8
0
  5
726
 10
35.7202
 20
122.254
 30
0.000000
  70
    32
  0
VERTEX
  8
0
  5
727
 10
35.7354
 20
122.249
 30
0.000000
  70
    32
  0
VERTEX
  8
0
  5
728
 10
35.7506
 20
122.243
 30
0.000000
  70
    32
  0
VERTEX
  8
0
  5
729
 10
35.7657
 20
122.237
 30
0.000000
  70
    32
  0
VERTEX
  8
0
  5
72A
 10
35.7807
 20
122.231
 30
0.000000
  70
    32
  0
VERTEX
  8
0
  5
72B
 10
35.7957
 20
122.225
 30
0.000000
  70
    32
  0
VERTEX
  8
0
  5
72C
 10
35.8106
 20
122.218
 30
0.000000
  70
    32
  0
VERTEX
  8
0
  5
72D
 10
35.8254
 20
122.211
 30
0.000000
  70
    32
  0
VERTEX
  8
0
  5
72E
 10
35.8402
 20
122.205
 30
0.000000
  70
    32
  0
VERTEX
  8
0
  5
72F
 10
35.8549
 20
122.197
 30
0.000000
  70
    32
  0
VERTEX
  8
0
  5
730
 10
35.8695
 20
122.190
 30
0.000000
  70
    32
  0
VERTEX
  8
0
  5
731
 10
35.8841
 20
122.182
 30
0.000000
  70
    32
  0
VERTEX
  8
0
  5
732
 10
35.8985
 20
122.175
 30
0.000000
  70
    32
  0
VERTEX
  8
0
  5
733
 10
35.9129
 20
122.167
 30
0.000000
  70
    32
  0
VERTEX
  8
0
  5
734
 10
35.9272
 20
122.159
 30
0.000000
  70
    32
  0
VERTEX
  8
0
  5
735
 10
35.9414
 20
122.150
 30
0.000000
  70
    32
  0
VERTEX
  8
0
  5
736
 10
35.9555
 20
122.142
 30
0.000000
  70
    32
  0
VERTEX
  8
0
  5
737
 10
35.9695
 20
122.133
 30
0.000000
  70
    32
  0
VERTEX
  8
0
  5
738
 10
35.9834
 20
122.124
 30
0.000000
  70
    32
  0
VERTEX
  8
0
  5
739
 10
35.9972
 20
122.115
 30
0.000000
  70
    32
  0
VERTEX
  8
0
  5
73A
 10
36.0109
 20
122.105
 30
0.000000
  70
    32
  0
VERTEX
  8
0
  5
73B
 10
36.0246
 20
122.096
 30
0.000000
  70
    32
  0
VERTEX
  8
0
  5
73C
 10
36.0381
 20
122.086
 30
0.000000
  70
    32
  0
VERTEX
  8
0
  5
73D
 10
36.0515
 20
122.076
 30
0.000000
  70
    32
  0
VERTEX
  8
0
  5
73E
 10
36.0648
 20
122.066
 30
0.000000
  70
    32
  0
VERTEX
  8
0
  5
73F
 10
36.0780
 20
122.056
 30
0.000000
  70
    32
  0
VERTEX
  8
0
  5
740
 10
36.0911
 20
122.045
 30
0.000000
  70
    32
  0
VERTEX
  8
0
  5
741
 10
36.1041
 20
122.034
 30
0.000000
  70
    32
  0
VERTEX
  8
0
  5
742
 10
36.1169
 20
122.024
 30
0.000000
  70
    32
  0
VERTEX
  8
0
  5
743
 10
36.1297
 20
122.012
 30
0.000000
  70
    32
  0
VERTEX
  8
0
  5
744
 10
36.1423
 20
122.001
 30
0.000000
  70
    32
  0
VERTEX
  8
0
  5
745
 10
36.1548
 20
121.990
 30
0.000000
  70
    32
  0
VERTEX
  8
0
  5
746
 10
36.1672
 20
121.978
 30
0.000000
  70
    32
  0
VERTEX
  8
0
  5
747
 10
36.1795
 20
121.966
 30
0.000000
  70
    32
  0
VERTEX
  8
0
  5
748
 10
36.1916
 20
121.955
 30
0.000000
  70
    32
  0
VERTEX
  8
0
  5
749
 10
36.2036
 20
121.942
 30
0.000000
  70
    32
  0
VERTEX
  8
0
  5
74A
 10
36.2155
 20
121.930
 30
0.000000
  70
    32
  0
VERTEX
  8
0
  5
74B
 10
36.2272
 20
121.918
 30
0.000000
  70
    32
  0
VERTEX
  8
0
  5
74C
 10
36.2388
 20
121.905
 30
0.000000
  70
    32
  0
VERTEX
  8
0
  5
74D
 10
36.2503
 20
121.892
 30
0.000000
  70
    32
  0
VERTEX
  8
0
  5
74E
 10
36.2617
 20
121.879
 30
0.000000
  70
    32
  0
VERTEX
  8
0
  5
74F
 10
36.2729
 20
121.866
 30
0.000000
  70
    32
  0
VERTEX
  8
0
  5
750
 10
36.2839
 20
121.853
 30
0.000000
  70
    32
  0
VERTEX
  8
0
  5
751
 10
36.2948
 20
121.840
 30
0.000000
  70
    32
  0
VERTEX
  8
0
  5
752
 10
36.3056
 20
121.826
 30
0.000000
  70
    32
  0
VERTEX
  8
0
  5
753
 10
36.3163
 20
121.812
 30
0.000000
  70
    32
  0
VERTEX
  8
0
  5
754
 10
36.3267
 20
121.798
 30
0.000000
  70
    32
  0
VERTEX
  8
0
  5
755
 10
36.3371
 20
121.784
 30
0.000000
  70
    32
  0
VERTEX
  8
0
  5
756
 10
36.3473
 20
121.770
 30
0.000000
  70
    32
  0
VERTEX
  8
0
  5
757
 10
36.3573
 20
121.756
 30
0.000000
  70
    32
  0
VERTEX
  8
0
  5
758
 10
36.3672
 20
121.742
 30
0.000000
  70
    32
  0
VERTEX
  8
0
  5
759
 10
36.3769
 20
121.727
 30
0.000000
  70
    32
  0
VERTEX
  8
0
  5
75A
 10
36.3865
 20
121.712
 30
0.000000
  70
    32
  0
VERTEX
  8
0
  5
75B
 10
36.3959
 20
121.697
 30
0.000000
  70
    32
  0
VERTEX
  8
0
  5
75C
 10
36.4052
 20
121.682
 30
0.000000
  70
    32
  0
VERTEX
  8
0
  5
75D
 10
36.4143
 20
121.667
 30
0.000000
  70
    32
  0
VERTEX
  8
0
  5
75E
 10
36.4232
 20
121.652
 30
0.000000
  70
    32
  0
VERTEX
  8
0
  5
75F
 10
36.4320
 20
121.637
 30
0.000000
  70
    32
  0
VERTEX
  8
0
  5
760
 10
36.4406
 20
121.621
 30
0.000000
  70
    32
  0
VERTEX
  8
0
  5
761
 10
36.4490
 20
121.606
 30
0.000000
  70
    32
  0
VERTEX
  8
0
  5
762
 10
36.4573
 20
121.590
 30
0.000000
  70
    32
  0
VERTEX
  8
0
  5
763
 10
36.4654
 20
121.574
 30
0.000000
  70
    32
  0
VERTEX
  8
0
  5
764
 10
36.4734
 20
121.558
 30
0.000000
  70
    32
  0
VERTEX
  8
0
  5
765
 10
36.4811
 20
121.542
 30
0.000000
  70
    32
  0
VERTEX
  8
0
  5
766
 10
36.4887
 20
121.526
 30
0.000000
  70
    32
  0
VERTEX
  8
0
  5
767
 10
36.4962
 20
121.510
 30
0.000000
  70
    32
  0
VERTEX
  8
0
  5
768
 10
36.5034
 20
121.493
 30
0.000000
  70
    32
  0
VERTEX
  8
0
  5
769
 10
36.5105
 20
121.477
 30
0.000000
  70
    32
  0
VERTEX
  8
0
  5
76A
 10
36.5174
 20
121.460
 30
0.000000
  70
    32
  0
VERTEX
  8
0
  5
76B
 10
36.5241
 20
121.443
 30
0.000000
  70
    32
  0
VERTEX
  8
0
  5
76C
 10
36.5307
 20
121.427
 30
0.000000
  70
    32
  0
VERTEX
  8
0
  5
76D
 10
36.5371
 20
121.410
 30
0.000000
  70
    32
  0
VERTEX
  8
0
  5
76E
 10
36.5432
 20
121.393
 30
0.000000
  70
    32
  0
VERTEX
  8
0
  5
76F
 10
36.5493
 20
121.376
 30
0.000000
  70
    32
  0
VERTEX
  8
0
  5
770
 10
36.5551
 20
121.359
 30
0.000000
  70
    32
  0
VERTEX
  8
0
  5
771
 10
36.5607
 20
121.341
 30
0.000000
  70
    32
  0
VERTEX
  8
0
  5
772
 10
36.5662
 20
121.324
 30
0.000000
  70
    32
  0
VERTEX
  8
0
  5
773
 10
36.5715
 20
121.307
 30
0.000000
  70
    32
  0
VERTEX
  8
0
  5
774
 10
36.5766
 20
121.289
 30
0.000000
  70
    32
  0
VERTEX
  8
0
  5
775
 10
36.5815
 20
121.272
 30
0.000000
  70
    32
  0
VERTEX
  8
0
  5
776
 10
36.5862
 20
121.254
 30
0.000000
  70
    32
  0
VERTEX
  8
0
  5
777
 10
36.5907
 20
121.237
 30
0.000000
  70
    32
  0
VERTEX
  8
0
  5
778
 10
36.5951
 20
121.219
 30
0.000000
  70
    32
  0
VERTEX
  8
0
  5
779
 10
36.5992
 20
121.201
 30
0.000000
  70
    32
  0
VERTEX
  8
0
  5
77A
 10
36.6032
 20
121.183
 30
0.000000
  70
    32
  0
VERTEX
  8
0
  5
77B
 10
36.6070
 20
121.165
 30
0.000000
  70
    32
  0
VERTEX
  8
0
  5
77C
 10
36.6106
 20
121.147
 30
0.000000
  70
    32
  0
VERTEX
  8
0
  5
77D
 10
36.6140
 20
121.129
 30
0.000000
  70
    32
  0
VERTEX
  8
0
  5
77E
 10
36.6172
 20
121.111
 30
0.000000
  70
    32
  0
VERTEX
  8
0
  5
77F
 10
36.6202
 20
121.093
 30
0.000000
  70
    32
  0
VERTEX
  8
0
  5
780
 10
36.6230
 20
121.075
 30
0.000000
  70
    32
  0
VERTEX
  8
0
  5
781
 10
36.6256
 20
121.057
 30
0.000000
  70
    32
  0
VERTEX
  8
0
  5
782
 10
36.6281
 20
121.039
 30
0.000000
  70
    32
  0
VERTEX
  8
0
  5
783
 10
36.6303
 20
121.021
 30
0.000000
  70
    32
  0
VERTEX
  8
0
  5
784
 10
36.6324
 20
121.002
 30
0.000000
  70
    32
  0
VERTEX
  8
0
  5
785
 10
36.6342
 20
120.984
 30
0.000000
  70
    32
  0
VERTEX
  8
0
  5
786
 10
36.6359
 20
120.966
 30
0.000000
  70
    32
  0
VERTEX
  8
0
  5
787
 10
36.6373
 20
120.947
 30
0.000000
  70
    32
  0
VERTEX
  8
0
  5
788
 10
36.6386
 20
120.929
 30
0.000000
  70
    32
  0
VERTEX
  8
0
  5
789
 10
36.6397
 20
120.911
 30
0.000000
  70
    32
  0
VERTEX
  8
0
  5
78A
 10
36.6406
 20
120.892
 30
0.000000
  70
    32
  0
VERTEX
  8
0
  5
78B
 10
36.6413
 20
120.874
 30
0.000000
  70
    32
  0
VERTEX
  8
0
  5
78C
 10
36.6417
 20
120.856
 30
0.000000
  70
    32
  0
VERTEX
  8
0
  5
78D
 10
36.6420
 20
120.837
 30
0.000000
  70
    32
  0
VERTEX
  8
0
  5
78E
 10
36.6421
 20
120.819
 30
0.000000
  70
    32
  0
SEQEND
  8
0
  5
78F
  0
POLYLINE
  5
360
  8
0
 10
37.142132316574788
 20
120.81873192142332
 30
0.0
 66
     1
 70
     8
  0
VERTEX
  8
0
  5
790
 10
37.1421
 20
120.819
 30
0.000000
  70
    32
  0
VERTEX
  8
0
  5
791
 10
37.1420
 20
120.837
 30
0.000000
  70
    32
  0
VERTEX
  8
0
  5
792
 10
37.1417
 20
120.856
 30
0.000000
  70
    32
  0
VERTEX
  8
0
  5
793
 10
37.1413
 20
120.874
 30
0.000000
  70
    32
  0
VERTEX
  8
0
  5
794
 10
37.1406
 20
120.892
 30
0.000000
  70
    32
  0
VERTEX
  8
0
  5
795
 10
37.1397
 20
120.911
 30
0.000000
  70
    32
  0
VERTEX
  8
0
  5
796
 10
37.1386
 20
120.929
 30
0.000000
  70
    32
  0
VERTEX
  8
0
  5
797
 10
37.1373
 20
120.947
 30
0.000000
  70
    32
  0
VERTEX
  8
0
  5
798
 10
37.1359
 20
120.966
 30
0.000000
  70
    32
  0
VERTEX
  8
0
  5
799
 10
37.1342
 20
120.984
 30
0.000000
  70
    32
  0
VERTEX
  8
0
  5
79A
 10
37.1324
 20
121.002
 30
0.000000
  70
    32
  0
VERTEX
  8
0
  5
79B
 10
37.1303
 20
121.021
 30
0.000000
  70
    32
  0
VERTEX
  8
0
  5
79C
 10
37.1281
 20
121.039
 30
0.000000
  70
    32
  0
VERTEX
  8
0
  5
79D
 10
37.1256
 20
121.057
 30
0.000000
  70
    32
  0
VERTEX
  8
0
  5
79E
 10
37.1230
 20
121.075
 30
0.000000
  70
    32
  0
VERTEX
  8
0
  5
79F
 10
37.1202
 20
121.093
 30
0.000000
  70
    32
  0
VERTEX
  8
0
  5
7A0
 10
37.1172
 20
121.111
 30
0.000000
  70
    32
  0
VERTEX
  8
0
  5
7A1
 10
37.1140
 20
121.129
 30
0.000000
  70
    32
  0
VERTEX
  8
0
  5
7A2
 10
37.1106
 20
121.147
 30
0.000000
  70
    32
  0
VERTEX
  8
0
  5
7A3
 10
37.1070
 20
121.165
 30
0.000000
  70
    32
  0
VERTEX
  8
0
  5
7A4
 10
37.1032
 20
121.183
 30
0.000000
  70
    32
  0
VERTEX
  8
0
  5
7A5
 10
37.0992
 20
121.201
 30
0.000000
  70
    32
  0
VERTEX
  8
0
  5
7A6
 10
37.0951
 20
121.219
 30
0.000000
  70
    32
  0
VERTEX
  8
0
  5
7A7
 10
37.0907
 20
121.237
 30
0.000000
  70
    32
  0
VERTEX
  8
0
  5
7A8
 10
37.0862
 20
121.254
 30
0.000000
  70
    32
  0
VERTEX
  8
0
  5
7A9
 10
37.0815
 20
121.272
 30
0.000000
  70
    32
  0
VERTEX
  8
0
  5
7AA
 10
37.0766
 20
121.289
 30
0.000000
  70
    32
  0
VERTEX
  8
0
  5
7AB
 10
37.0715
 20
121.307
 30
0.000000
  70
    32
  0
VERTEX
  8
0
  5
7AC
 10
37.0662
 20
121.324
 30
0.000000
  70
    32
  0
VERTEX
  8
0
  5
7AD
 10
37.0607
 20
121.341
 30
0.000000
  70
    32
  0
VERTEX
  8
0
  5
7AE
 10
37.0551
 20
121.359
 30
0.000000
  70
    32
  0
VERTEX
  8
0
  5
7AF
 10
37.0493
 20
121.376
 30
0.000000
  70
    32
  0
VERTEX
  8
0
  5
7B0
 10
37.0432
 20
121.393
 30
0.000000
  70
    32
  0
VERTEX
  8
0
  5
7B1
 10
37.0371
 20
121.410
 30
0.000000
  70
    32
  0
VERTEX
  8
0
  5
7B2
 10
37.0307
 20
121.427
 30
0.000000
  70
    32
  0
VERTEX
  8
0
  5
7B3
 10
37.0241
 20
121.443
 30
0.000000
  70
    32
  0
VERTEX
  8
0
  5
7B4
 10
37.0174
 20
121.460
 30
0.000000
  70
    32
  0
VERTEX
  8
0
  5
7B5
 10
37.0105
 20
121.477
 30
0.000000
  70
    32
  0
VERTEX
  8
0
  5
7B6
 10
37.0034
 20
121.493
 30
0.000000
  70
    32
  0
VERTEX
  8
0
  5
7B7
 10
36.9962
 20
121.510
 30
0.000000
  70
    32
  0
VERTEX
  8
0
  5
7B8
 10
36.9887
 20
121.526
 30
0.000000
  70
    32
  0
VERTEX
  8
0
  5
7B9
 10
36.9811
 20
121.542
 30
0.000000
  70
    32
  0
VERTEX
  8
0
  5
7BA
 10
36.9734
 20
121.558
 30
0.000000
  70
    32
  0
VERTEX
  8
0
  5
7BB
 10
36.9654
 20
121.574
 30
0.000000
  70
    32
  0
VERTEX
  8
0
  5
7BC
 10
36.9573
 20
121.590
 30
0.000000
  70
    32
  0
VERTEX
  8
0
  5
7BD
 10
36.9490
 20
121.606
 30
0.000000
  70
    32
  0
VERTEX
  8
0
  5
7BE
 10
36.9406
 20
121.621
 30
0.000000
  70
    32
  0
VERTEX
  8
0
  5
7BF
 10
36.9320
 20
121.637
 30
0.000000
  70
    32
  0
VERTEX
  8
0
  5
7C0
 10
36.9232
 20
121.652
 30
0.000000
  70
    32
  0
VERTEX
  8
0
  5
7C1
 10
36.9143
 20
121.667
 30
0.000000
  70
    32
  0
VERTEX
  8
0
  5
7C2
 10
36.9052
 20
121.682
 30
0.000000
  70
    32
  0
VERTEX
  8
0
  5
7C3
 10
36.8959
 20
121.697
 30
0.000000
  70
    32
  0
VERTEX
  8
0
  5
7C4
 10
36.8865
 20
121.712
 30
0.000000
  70
    32
  0
VERTEX
  8
0
  5
7C5
 10
36.8769
 20
121.727
 30
0.000000
  70
    32
  0
VERTEX
  8
0
  5
7C6
 10
36.8672
 20
121.742
 30
0.000000
  70
    32
  0
VERTEX
  8
0
  5
7C7
 10
36.8573
 20
121.756
 30
0.000000
  70
    32
  0
VERTEX
  8
0
  5
7C8
 10
36.8473
 20
121.770
 30
0.000000
  70
    32
  0
VERTEX
  8
0
  5
7C9
 10
36.8371
 20
121.784
 30
0.000000
  70
    32
  0
VERTEX
  8
0
  5
7CA
 10
36.8267
 20
121.798
 30
0.000000
  70
    32
  0
VERTEX
  8
0
  5
7CB
 10
36.8163
 20
121.812
 30
0.000000
  70
    32
  0
VERTEX
  8
0
  5
7CC
 10
36.8056
 20
121.826
 30
0.000000
  70
    32
  0
VERTEX
  8
0
  5
7CD
 10
36.7948
 20
121.840
 30
0.000000
  70
    32
  0
VERTEX
  8
0
  5
7CE
 10
36.7839
 20
121.853
 30
0.000000
  70
    32
  0
VERTEX
  8
0
  5
7CF
 10
36.7729
 20
121.866
 30
0.000000
  70
    32
  0
VERTEX
  8
0
  5
7D0
 10
36.7617
 20
121.879
 30
0.000000
  70
    32
  0
VERTEX
  8
0
  5
7D1
 10
36.7503
 20
121.892
 30
0.000000
  70
    32
  0
VERTEX
  8
0
  5
7D2
 10
36.7388
 20
121.905
 30
0.000000
  70
    32
  0
VERTEX
  8
0
  5
7D3
 10
36.7272
 20
121.918
 30
0.000000
  70
    32
  0
VERTEX
  8
0
  5
7D4
 10
36.7155
 20
121.930
 30
0.000000
  70
    32
  0
VERTEX
  8
0
  5
7D5
 10
36.7036
 20
121.942
 30
0.000000
  70
    32
  0
VERTEX
  8
0
  5
7D6
 10
36.6916
 20
121.955
 30
0.000000
  70
    32
  0
VERTEX
  8
0
  5
7D7
 10
36.6795
 20
121.966
 30
0.000000
  70
    32
  0
VERTEX
  8
0
  5
7D8
 10
36.6672
 20
121.978
 30
0.000000
  70
    32
  0
VERTEX
  8
0
  5
7D9
 10
36.6548
 20
121.990
 30
0.000000
  70
    32
  0
VERTEX
  8
0
  5
7DA
 10
36.6423
 20
122.001
 30
0.000000
  70
    32
  0
VERTEX
  8
0
  5
7DB
 10
36.6297
 20
122.012
 30
0.000000
  70
    32
  0
VERTEX
  8
0
  5
7DC
 10
36.6169
 20
122.024
 30
0.000000
  70
    32
  0
VERTEX
  8
0
  5
7DD
 10
36.6041
 20
122.034
 30
0.000000
  70
    32
  0
VERTEX
  8
0
  5
7DE
 10
36.5911
 20
122.045
 30
0.000000
  70
    32
  0
VERTEX
  8
0
  5
7DF
 10
36.5780
 20
122.056
 30
0.000000
  70
    32
  0
VERTEX
  8
0
  5
7E0
 10
36.5648
 20
122.066
 30
0.000000
  70
    32
  0
VERTEX
  8
0
  5
7E1
 10
36.5515
 20
122.076
 30
0.000000
  70
    32
  0
VERTEX
  8
0
  5
7E2
 10
36.5381
 20
122.086
 30
0.000000
  70
    32
  0
VERTEX
  8
0
  5
7E3
 10
36.5246
 20
122.096
 30
0.000000
  70
    32
  0
VERTEX
  8
0
  5
7E4
 10
36.5109
 20
122.105
 30
0.000000
  70
    32
  0
VERTEX
  8
0
  5
7E5
 10
36.4972
 20
122.115
 30
0.000000
  70
    32
  0
VERTEX
  8
0
  5
7E6
 10
36.4834
 20
122.124
 30
0.000000
  70
    32
  0
VERTEX
  8
0
  5
7E7
 10
36.4695
 20
122.133
 30
0.000000
  70
    32
  0
VERTEX
  8
0
  5
7E8
 10
36.4555
 20
122.142
 30
0.000000
  70
    32
  0
VERTEX
  8
0
  5
7E9
 10
36.4414
 20
122.150
 30
0.000000
  70
    32
  0
VERTEX
  8
0
  5
7EA
 10
36.4272
 20
122.159
 30
0.000000
  70
    32
  0
VERTEX
  8
0
  5
7EB
 10
36.4129
 20
122.167
 30
0.000000
  70
    32
  0
VERTEX
  8
0
  5
7EC
 10
36.3985
 20
122.175
 30
0.000000
  70
    32
  0
VERTEX
  8
0
  5
7ED
 10
36.3841
 20
122.182
 30
0.000000
  70
    32
  0
VERTEX
  8
0
  5
7EE
 10
36.3695
 20
122.190
 30
0.000000
  70
    32
  0
VERTEX
  8
0
  5
7EF
 10
36.3549
 20
122.197
 30
0.000000
  70
    32
  0
VERTEX
  8
0
  5
7F0
 10
36.3402
 20
122.205
 30
0.000000
  70
    32
  0
VERTEX
  8
0
  5
7F1
 10
36.3254
 20
122.211
 30
0.000000
  70
    32
  0
VERTEX
  8
0
  5
7F2
 10
36.3106
 20
122.218
 30
0.000000
  70
    32
  0
VERTEX
  8
0
  5
7F3
 10
36.2957
 20
122.225
 30
0.000000
  70
    32
  0
VERTEX
  8
0
  5
7F4
 10
36.2807
 20
122.231
 30
0.000000
  70
    32
  0
VERTEX
  8
0
  5
7F5
 10
36.2657
 20
122.237
 30
0.000000
  70
    32
  0
VERTEX
  8
0
  5
7F6
 10
36.2506
 20
122.243
 30
0.000000
  70
    32
  0
VERTEX
  8
0
  5
7F7
 10
36.2354
 20
122.249
 30
0.000000
  70
    32
  0
VERTEX
  8
0
  5
7F8
 10
36.2202
 20
122.254
 30
0.000000
  70
    32
  0
VERTEX
  8
0
  5
7F9
 10
36.2049
 20
122.259
 30
0.000000
  70
    32
  0
VERTEX
  8
0
  5
7FA
 10
36.1896
 20
122.264
 30
0.000000
  70
    32
  0
VERTEX
  8
0
  5
7FB
 10
36.1742
 20
122.269
 30
0.000000
  70
    32
  0
VERTEX
  8
0
  5
7FC
 10
36.1587
 20
122.274
 30
0.000000
  70
    32
  0
VERTEX
  8
0
  5
7FD
 10
36.1432
 20
122.278
 30
0.000000
  70
    32
  0
VERTEX
  8
0
  5
7FE
 10
36.1277
 20
122.282
 30
0.000000
  70
    32
  0
VERTEX
  8
0
  5
7FF
 10
36.1121
 20
122.286
 30
0.000000
  70
    32
  0
VERTEX
  8
0
  5
800
 10
36.0965
 20
122.290
 30
0.000000
  70
    32
  0
VERTEX
  8
0
  5
801
 10
36.0809
 20
122.293
 30
0.000000
  70
    32
  0
VERTEX
  8
0
  5
802
 10
36.0652
 20
122.297
 30
0.000000
  70
    32
  0
VERTEX
  8
0
  5
803
 10
36.0495
 20
122.300
 30
0.000000
  70
    32
  0
VERTEX
  8
0
  5
804
 10
36.0337
 20
122.302
 30
0.000000
  70
    32
  0
VERTEX
  8
0
  5
805
 10
36.0179
 20
122.305
 30
0.000000
  70
    32
  0
VERTEX
  8
0
  5
806
 10
36.0021
 20
122.307
 30
0.000000
  70
    32
  0
VERTEX
  8
0
  5
807
 10
35.9863
 20
122.310
 30
0.000000
  70
    32
  0
VERTEX
  8
0
  5
808
 10
35.9704
 20
122.312
 30
0.000000
  70
    32
  0
VERTEX
  8
0
  5
809
 10
35.9545
 20
122.313
 30
0.000000
  70
    32
  0
VERTEX
  8
0
  5
80A
 10
35.9387
 20
122.315
 30
0.000000
  70
    32
  0
VERTEX
  8
0
  5
80B
 10
35.9228
 20
122.316
 30
0.000000
  70
    32
  0
VERTEX
  8
0
  5
80C
 10
35.9068
 20
122.317
 30
0.000000
  70
    32
  0
VERTEX
  8
0
  5
80D
 10
35.8909
 20
122.318
 30
0.000000
  70
    32
  0
VERTEX
  8
0
  5
80E
 10
35.8750
 20
122.318
 30
0.000000
  70
    32
  0
VERTEX
  8
0
  5
80F
 10
35.8590
 20
122.319
 30
0.000000
  70
    32
  0
VERTEX
  8
0
  5
810
 10
35.8431
 20
122.319
 30
0.000000
  70
    32
  0
SEQEND
  8
0
  5
811
  0
POLYLINE
  5
362
  8
0
 10
35.843094210897867
 20
98.318731921423165
 30
0.0
 66
     1
 70
     8
  0
VERTEX
  8
0
  5
812
 10
35.8431
 20
98.3187
 30
0.000000
  70
    32
  0
VERTEX
  8
0
  5
813
 10
35.8590
 20
98.3188
 30
0.000000
  70
    32
  0
VERTEX
  8
0
  5
814
 10
35.8750
 20
98.3192
 30
0.000000
  70
    32
  0
VERTEX
  8
0
  5
815
 10
35.8909
 20
98.3197
 30
0.000000
  70
    32
  0
VERTEX
  8
0
  5
816
 10
35.9068
 20
98.3205
 30
0.000000
  70
    32
  0
VERTEX
  8
0
  5
817
 10
35.9228
 20
98.3216
 30
0.000000
  70
    32
  0
VERTEX
  8
0
  5
818
 10
35.9387
 20
98.3228
 30
0.000000
  70
    32
  0
VERTEX
  8
0
  5
819
 10
35.9545
 20
98.3243
 30
0.000000
  70
    32
  0
VERTEX
  8
0
  5
81A
 10
35.9704
 20
98.3260
 30
0.000000
  70
    32
  0
VERTEX
  8
0
  5
81B
 10
35.9863
 20
98.3279
 30
0.000000
  70
    32
  0
VERTEX
  8
0
  5
81C
 10
36.0021
 20
98.3300
 30
0.000000
  70
    32
  0
VERTEX
  8
0
  5
81D
 10
36.0179
 20
98.3324
 30
0.000000
  70
    32
  0
VERTEX
  8
0
  5
81E
 10
36.0337
 20
98.3350
 30
0.000000
  70
    32
  0
VERTEX
  8
0
  5
81F
 10
36.0495
 20
98.3378
 30
0.000000
  70
    32
  0
VERTEX
  8
0
  5
820
 10
36.0652
 20
98.3408
 30
0.000000
  70
    32
  0
VERTEX
  8
0
  5
821
 10
36.0809
 20
98.3441
 30
0.000000
  70
    32
  0
VERTEX
  8
0
  5
822
 10
36.0965
 20
98.3476
 30
0.000000
  70
    32
  0
VERTEX
  8
0
  5
823
 10
36.1121
 20
98.3513
 30
0.000000
  70
    32
  0
VERTEX
  8
0
  5
824
 10
36.1277
 20
98.3552
 30
0.000000
  70
    32
  0
VERTEX
  8
0
  5
825
 10
36.1432
 20
98.3593
 30
0.000000
  70
    32
  0
VERTEX
  8
0
  5
826
 10
36.1587
 20
98.3637
 30
0.000000
  70
    32
  0
VERTEX
  8
0
  5
827
 10
36.1742
 20
98.3683
 30
0.000000
  70
    32
  0
VERTEX
  8
0
  5
828
 10
36.1896
 20
98.3731
 30
0.000000
  70
    32
  0
VERTEX
  8
0
  5
829
 10
36.2049
 20
98.3781
 30
0.000000
  70
    32
  0
VERTEX
  8
0
  5
82A
 10
36.2202
 20
98.3833
 30
0.000000
  70
    32
  0
VERTEX
  8
0
  5
82B
 10
36.2354
 20
98.3888
 30
0.000000
  70
    32
  0
VERTEX
  8
0
  5
82C
 10
36.2506
 20
98.3944
 30
0.000000
  70
    32
  0
VERTEX
  8
0
  5
82D
 10
36.2657
 20
98.4003
 30
0.000000
  70
    32
  0
VERTEX
  8
0
  5
82E
 10
36.2807
 20
98.4064
 30
0.000000
  70
    32
  0
VERTEX
  8
0
  5
82F
 10
36.2957
 20
98.4127
 30
0.000000
  70
    32
  0
VERTEX
  8
0
  5
830
 10
36.3106
 20
98.4192
 30
0.000000
  70
    32
  0
VERTEX
  8
0
  5
831
 10
36.3254
 20
98.4260
 30
0.000000
  70
    32
  0
VERTEX
  8
0
  5
832
 10
36.3402
 20
98.4329
 30
0.000000
  70
    32
  0
VERTEX
  8
0
  5
833
 10
36.3549
 20
98.4401
 30
0.000000
  70
    32
  0
VERTEX
  8
0
  5
834
 10
36.3695
 20
98.4474
 30
0.000000
  70
    32
  0
VERTEX
  8
0
  5
835
 10
36.3841
 20
98.4550
 30
0.000000
  70
    32
  0
VERTEX
  8
0
  5
836
 10
36.3985
 20
98.4627
 30
0.000000
  70
    32
  0
VERTEX
  8
0
  5
837
 10
36.4129
 20
98.4707
 30
0.000000
  70
    32
  0
VERTEX
  8
0
  5
838
 10
36.4272
 20
98.4789
 30
0.000000
  70
    32
  0
VERTEX
  8
0
  5
839
 10
36.4414
 20
98.4873
 30
0.000000
  70
    32
  0
VERTEX
  8
0
  5
83A
 10
36.4555
 20
98.4959
 30
0.000000
  70
    32
  0
VERTEX
  8
0
  5
83B
 10
36.4695
 20
98.5046
 30
0.000000
  70
    32
  0
VERTEX
  8
0
  5
83C
 10
36.4834
 20
98.5136
 30
0.000000
  70
    32
  0
VERTEX
  8
0
  5
83D
 10
36.4972
 20
98.5228
 30
0.000000
  70
    32
  0
VERTEX
  8
0
  5
83E
 10
36.5109
 20
98.5321
 30
0.000000
  70
    32
  0
VERTEX
  8
0
  5
83F
 10
36.5246
 20
98.5417
 30
0.000000
  70
    32
  0
VERTEX
  8
0
  5
840
 10
36.5381
 20
98.5515
 30
0.000000
  70
    32
  0
VERTEX
  8
0
  5
841
 10
36.5515
 20
98.5614
 30
0.000000
  70
    32
  0
VERTEX
  8
0
  5
842
 10
36.5648
 20
98.5715
 30
0.000000
  70
    32
  0
VERTEX
  8
0
  5
843
 10
36.5780
 20
98.5818
 30
0.000000
  70
    32
  0
VERTEX
  8
0
  5
844
 10
36.5911
 20
98.5924
 30
0.000000
  70
    32
  0
VERTEX
  8
0
  5
845
 10
36.6041
 20
98.6030
 30
0.000000
  70
    32
  0
VERTEX
  8
0
  5
846
 10
36.6169
 20
98.6139
 30
0.000000
  70
    32
  0
VERTEX
  8
0
  5
847
 10
36.6297
 20
98.6250
 30
0.000000
  70
    32
  0
VERTEX
  8
0
  5
848
 10
36.6423
 20
98.6362
 30
0.000000
  70
    32
  0
VERTEX
  8
0
  5
849
 10
36.6548
 20
98.6476
 30
0.000000
  70
    32
  0
VERTEX
  8
0
  5
84A
 10
36.6672
 20
98.6592
 30
0.000000
  70
    32
  0
VERTEX
  8
0
  5
84B
 10
36.6795
 20
98.6710
 30
0.000000
  70
    32
  0
VERTEX
  8
0
  5
84C
 10
36.6916
 20
98.6829
 30
0.000000
  70
    32
  0
VERTEX
  8
0
  5
84D
 10
36.7036
 20
98.6950
 30
0.000000
  70
    32
  0
VERTEX
  8
0
  5
84E
 10
36.7155
 20
98.7073
 30
0.000000
  70
    32
  0
VERTEX
  8
0
  5
84F
 10
36.7272
 20
98.7198
 30
0.000000
  70
    32
  0
VERTEX
  8
0
  5
850
 10
36.7388
 20
98.7324
 30
0.000000
  70
    32
  0
VERTEX
  8
0
  5
851
 10
36.7503
 20
98.7451
 30
0.000000
  70
    32
  0
VERTEX
  8
0
  5
852
 10
36.7617
 20
98.7581
 30
0.000000
  70
    32
  0
VERTEX
  8
0
  5
853
 10
36.7729
 20
98.7712
 30
0.000000
  70
    32
  0
VERTEX
  8
0
  5
854
 10
36.7839
 20
98.7844
 30
0.000000
  70
    32
  0
VERTEX
  8
0
  5
855
 10
36.7948
 20
98.7978
 30
0.000000
  70
    32
  0
VERTEX
  8
0
  5
856
 10
36.8056
 20
98.8114
 30
0.000000
  70
    32
  0
VERTEX
  8
0
  5
857
 10
36.8163
 20
98.8251
 30
0.000000
  70
    32
  0
VERTEX
  8
0
  5
858
 10
36.8267
 20
98.8390
 30
0.000000
  70
    32
  0
VERTEX
  8
0
  5
859
 10
36.8371
 20
98.8530
 30
0.000000
  70
    32
  0
VERTEX
  8
0
  5
85A
 10
36.8473
 20
98.8671
 30
0.000000
  70
    32
  0
VERTEX
  8
0
  5
85B
 10
36.8573
 20
98.8814
 30
0.000000
  70
    32
  0
VERTEX
  8
0
  5
85C
 10
36.8672
 20
98.8959
 30
0.000000
  70
    32
  0
VERTEX
  8
0
  5
85D
 10
36.8769
 20
98.9105
 30
0.000000
  70
    32
  0
VERTEX
  8
0
  5
85E
 10
36.8865
 20
98.9252
 30
0.000000
  70
    32
  0
VERTEX
  8
0
  5
85F
 10
36.8959
 20
98.9400
 30
0.000000
  70
    32
  0
VERTEX
  8
0
  5
860
 10
36.9052
 20
98.9550
 30
0.000000
  70
    32
  0
VERTEX
  8
0
  5
861
 10
36.9143
 20
98.9701
 30
0.000000
  70
    32
  0
VERTEX
  8
0
  5
862
 10
36.9232
 20
98.9854
 30
0.000000
  70
    32
  0
VERTEX
  8
0
  5
863
 10
36.9320
 20
99.0007
 30
0.000000
  70
    32
  0
VERTEX
  8
0
  5
864
 10
36.9406
 20
99.0162
 30
0.000000
  70
    32
  0
VERTEX
  8
0
  5
865
 10
36.9490
 20
99.0318
 30
0.000000
  70
    32
  0
VERTEX
  8
0
  5
866
 10
36.9573
 20
99.0476
 30
0.000000
  70
    32
  0
VERTEX
  8
0
  5
867
 10
36.9654
 20
99.0634
 30
0.000000
  70
    32
  0
VERTEX
  8
0
  5
868
 10
36.9734
 20
99.0794
 30
0.000000
  70
    32
  0
VERTEX
  8
0
  5
869
 10
36.9811
 20
99.0955
 30
0.000000
  70
    32
  0
VERTEX
  8
0
  5
86A
 10
36.9887
 20
99.1116
 30
0.000000
  70
    32
  0
VERTEX
  8
0
  5
86B
 10
36.9962
 20
99.1279
 30
0.000000
  70
    32
  0
VERTEX
  8
0
  5
86C
 10
37.0034
 20
99.1443
 30
0.000000
  70
    32
  0
VERTEX
  8
0
  5
86D
 10
37.0105
 20
99.1608
 30
0.000000
  70
    32
  0
VERTEX
  8
0
  5
86E
 10
37.0174
 20
99.1774
 30
0.000000
  70
    32
  0
VERTEX
  8
0
  5
86F
 10
37.0241
 20
99.1941
 30
0.000000
  70
    32
  0
VERTEX
  8
0
  5
870
 10
37.0307
 20
99.2109
 30
0.000000
  70
    32
  0
VERTEX
  8
0
  5
871
 10
37.0371
 20
99.2277
 30
0.000000
  70
    32
  0
VERTEX
  8
0
  5
872
 10
37.0432
 20
99.2447
 30
0.000000
  70
    32
  0
VERTEX
  8
0
  5
873
 10
37.0493
 20
99.2618
 30
0.000000
  70
    32
  0
VERTEX
  8
0
  5
874
 10
37.0551
 20
99.2789
 30
0.000000
  70
    32
  0
VERTEX
  8
0
  5
875
 10
37.0607
 20
99.2961
 30
0.000000
  70
    32
  0
VERTEX
  8
0
  5
876
 10
37.0662
 20
99.3134
 30
0.000000
  70
    32
  0
VERTEX
  8
0
  5
877
 10
37.0715
 20
99.3308
 30
0.000000
  70
    32
  0
VERTEX
  8
0
  5
878
 10
37.0766
 20
99.3482
 30
0.000000
  70
    32
  0
VERTEX
  8
0
  5
879
 10
37.0815
 20
99.3657
 30
0.000000
  70
    32
  0
VERTEX
  8
0
  5
87A
 10
37.0862
 20
99.3833
 30
0.000000
  70
    32
  0
VERTEX
  8
0
  5
87B
 10
37.0907
 20
99.4010
 30
0.000000
  70
    32
  0
VERTEX
  8
0
  5
87C
 10
37.0951
 20
99.4187
 30
0.000000
  70
    32
  0
VERTEX
  8
0
  5
87D
 10
37.0992
 20
99.4364
 30
0.000000
  70
    32
  0
VERTEX
  8
0
  5
87E
 10
37.1032
 20
99.4543
 30
0.000000
  70
    32
  0
VERTEX
  8
0
  5
87F
 10
37.1070
 20
99.4721
 30
0.000000
  70
    32
  0
VERTEX
  8
0
  5
880
 10
37.1106
 20
99.4901
 30
0.000000
  70
    32
  0
VERTEX
  8
0
  5
881
 10
37.1140
 20
99.5081
 30
0.000000
  70
    32
  0
VERTEX
  8
0
  5
882
 10
37.1172
 20
99.5261
 30
0.000000
  70
    32
  0
VERTEX
  8
0
  5
883
 10
37.1202
 20
99.5442
 30
0.000000
  70
    32
  0
VERTEX
  8
0
  5
884
 10
37.1230
 20
99.5623
 30
0.000000
  70
    32
  0
VERTEX
  8
0
  5
885
 10
37.1256
 20
99.5804
 30
0.000000
  70
    32
  0
VERTEX
  8
0
  5
886
 10
37.1281
 20
99.5986
 30
0.000000
  70
    32
  0
VERTEX
  8
0
  5
887
 10
37.1303
 20
99.6169
 30
0.000000
  70
    32
  0
VERTEX
  8
0
  5
888
 10
37.1324
 20
99.6351
 30
0.000000
  70
    32
  0
VERTEX
  8
0
  5
889
 10
37.1342
 20
99.6534
 30
0.000000
  70
    32
  0
VERTEX
  8
0
  5
88A
 10
37.1359
 20
99.6717
 30
0.000000
  70
    32
  0
VERTEX
  8
0
  5
88B
 10
37.1373
 20
99.6900
 30
0.000000
  70
    32
  0
VERTEX
  8
0
  5
88C
 10
37.1386
 20
99.7084
 30
0.000000
  70
    32
  0
VERTEX
  8
0
  5
88D
 10
37.1397
 20
99.7268
 30
0.000000
  70
    32
  0
VERTEX
  8
0
  5
88E
 10
37.1406
 20
99.7451
 30
0.000000
  70
    32
  0
VERTEX
  8
0
  5
88F
 10
37.1413
 20
99.7635
 30
0.000000
  70
    32
  0
VERTEX
  8
0
  5
890
 10
37.1417
 20
99.7819
 30
0.000000
  70
    32
  0
VERTEX
  8
0
  5
891
 10
37.1420
 20
99.8003
 30
0.000000
  70
    32
  0
VERTEX
  8
0
  5
892
 10
37.1421
 20
99.8187
 30
0.000000
  70
    32
  0
SEQEND
  8
0
  5
893
  0
POLYLINE
  5
363
  8
0
 10
36.642132316574781
 20
99.818731921423591
 30
0.0
 66
     1
 70
     8
  0
VERTEX
  8
0
  5
894
 10
36.6421
 20
99.8187
 30
0.000000
  70
    32
  0
VERTEX
  8
0
  5
895
 10
36.6420
 20
99.8003
 30
0.000000
  70
    32
  0
VERTEX
  8
0
  5
896
 10
36.6417
 20
99.7819
 30
0.000000
  70
    32
  0
VERTEX
  8
0
  5
897
 10
36.6413
 20
99.7635
 30
0.000000
  70
    32
  0
VERTEX
  8
0
  5
898
 10
36.6406
 20
99.7451
 30
0.000000
  70
    32
  0
VERTEX
  8
0
  5
899
 10
36.6397
 20
99.7268
 30
0.000000
  70
    32
  0
VERTEX
  8
0
  5
89A
 10
36.6386
 20
99.7084
 30
0.000000
  70
    32
  0
VERTEX
  8
0
  5
89B
 10
36.6373
 20
99.6900
 30
0.000000
  70
    32
  0
VERTEX
  8
0
  5
89C
 10
36.6359
 20
99.6717
 30
0.000000
  70
    32
  0
VERTEX
  8
0
  5
89D
 10
36.6342
 20
99.6534
 30
0.000000
  70
    32
  0
VERTEX
  8
0
  5
89E
 10
36.6324
 20
99.6351
 30
0.000000
  70
    32
  0
VERTEX
  8
0
  5
89F
 10
36.6303
 20
99.6169
 30
0.000000
  70
    32
  0
VERTEX
  8
0
  5
8A0
 10
36.6281
 20
99.5986
 30
0.000000
  70
    32
  0
VERTEX
  8
0
  5
8A1
 10
36.6256
 20
99.5804
 30
0.000000
  70
    32
  0
VERTEX
  8
0
  5
8A2
 10
36.6230
 20
99.5623
 30
0.000000
  70
    32
  0
VERTEX
  8
0
  5
8A3
 10
36.6202
 20
99.5442
 30
0.000000
  70
    32
  0
VERTEX
  8
0
  5
8A4
 10
36.6172
 20
99.5261
 30
0.000000
  70
    32
  0
VERTEX
  8
0
  5
8A5
 10
36.6140
 20
99.5081
 30
0.000000
  70
    32
  0
VERTEX
  8
0
  5
8A6
 10
36.6106
 20
99.4901
 30
0.000000
  70
    32
  0
VERTEX
  8
0
  5
8A7
 10
36.6070
 20
99.4721
 30
0.000000
  70
    32
  0
VERTEX
  8
0
  5
8A8
 10
36.6032
 20
99.4543
 30
0.000000
  70
    32
  0
VERTEX
  8
0
  5
8A9
 10
36.5992
 20
99.4364
 30
0.000000
  70
    32
  0
VERTEX
  8
0
  5
8AA
 10
36.5951
 20
99.4187
 30
0.000000
  70
    32
  0
VERTEX
  8
0
  5
8AB
 10
36.5907
 20
99.4010
 30
0.000000
  70
    32
  0
VERTEX
  8
0
  5
8AC
 10
36.5862
 20
99.3833
 30
0.000000
  70
    32
  0
VERTEX
  8
0
  5
8AD
 10
36.5815
 20
99.3657
 30
0.000000
  70
    32
  0
VERTEX
  8
0
  5
8AE
 10
36.5766
 20
99.3482
 30
0.000000
  70
    32
  0
VERTEX
  8
0
  5
8AF
 10
36.5715
 20
99.3308
 30
0.000000
  70
    32
  0
VERTEX
  8
0
  5
8B0
 10
36.5662
 20
99.3134
 30
0.000000
  70
    32
  0
VERTEX
  8
0
  5
8B1
 10
36.5607
 20
99.2961
 30
0.000000
  70
    32
  0
VERTEX
  8
0
  5
8B2
 10
36.5551
 20
99.2789
 30
0.000000
  70
    32
  0
VERTEX
  8
0
  5
8B3
 10
36.5493
 20
99.2618
 30
0.000000
  70
    32
  0
VERTEX
  8
0
  5
8B4
 10
36.5432
 20
99.2447
 30
0.000000
  70
    32
  0
VERTEX
  8
0
  5
8B5
 10
36.5371
 20
99.2277
 30
0.000000
  70
    32
  0
VERTEX
  8
0
  5
8B6
 10
36.5307
 20
99.2109
 30
0.000000
  70
    32
  0
VERTEX
  8
0
  5
8B7
 10
36.5241
 20
99.1941
 30
0.000000
  70
    32
  0
VERTEX
  8
0
  5
8B8
 10
36.5174
 20
99.1774
 30
0.000000
  70
    32
  0
VERTEX
  8
0
  5
8B9
 10
36.5105
 20
99.1608
 30
0.000000
  70
    32
  0
VERTEX
  8
0
  5
8BA
 10
36.5034
 20
99.1443
 30
0.000000
  70
    32
  0
VERTEX
  8
0
  5
8BB
 10
36.4962
 20
99.1279
 30
0.000000
  70
    32
  0
VERTEX
  8
0
  5
8BC
 10
36.4887
 20
99.1116
 30
0.000000
  70
    32
  0
VERTEX
  8
0
  5
8BD
 10
36.4811
 20
99.0955
 30
0.000000
  70
    32
  0
VERTEX
  8
0
  5
8BE
 10
36.4734
 20
99.0794
 30
0.000000
  70
    32
  0
VERTEX
  8
0
  5
8BF
 10
36.4654
 20
99.0634
 30
0.000000
  70
    32
  0
VERTEX
  8
0
  5
8C0
 10
36.4573
 20
99.0476
 30
0.000000
  70
    32
  0
VERTEX
  8
0
  5
8C1
 10
36.4490
 20
99.0318
 30
0.000000
  70
    32
  0
VERTEX
  8
0
  5
8C2
 10
36.4406
 20
99.0162
 30
0.000000
  70
    32
  0
VERTEX
  8
0
  5
8C3
 10
36.4320
 20
99.0007
 30
0.000000
  70
    32
  0
VERTEX
  8
0
  5
8C4
 10
36.4232
 20
98.9854
 30
0.000000
  70
    32
  0
VERTEX
  8
0
  5
8C5
 10
36.4143
 20
98.9701
 30
0.000000
  70
    32
  0
VERTEX
  8
0
  5
8C6
 10
36.4052
 20
98.9550
 30
0.000000
  70
    32
  0
VERTEX
  8
0
  5
8C7
 10
36.3959
 20
98.9400
 30
0.000000
  70
    32
  0
VERTEX
  8
0
  5
8C8
 10
36.3865
 20
98.9252
 30
0.000000
  70
    32
  0
VERTEX
  8
0
  5
8C9
 10
36.3769
 20
98.9105
 30
0.000000
  70
    32
  0
VERTEX
  8
0
  5
8CA
 10
36.3672
 20
98.8959
 30
0.000000
  70
    32
  0
VERTEX
  8
0
  5
8CB
 10
36.3573
 20
98.8814
 30
0.000000
  70
    32
  0
VERTEX
  8
0
  5
8CC
 10
36.3473
 20
98.8671
 30
0.000000
  70
    32
  0
VERTEX
  8
0
  5
8CD
 10
36.3371
 20
98.8530
 30
0.000000
  70
    32
  0
VERTEX
  8
0
  5
8CE
 10
36.3267
 20
98.8390
 30
0.000000
  70
    32
  0
VERTEX
  8
0
  5
8CF
 10
36.3163
 20
98.8251
 30
0.000000
  70
    32
  0
VERTEX
  8
0
  5
8D0
 10
36.3056
 20
98.8114
 30
0.000000
  70
    32
  0
VERTEX
  8
0
  5
8D1
 10
36.2948
 20
98.7978
 30
0.000000
  70
    32
  0
VERTEX
  8
0
  5
8D2
 10
36.2839
 20
98.7844
 30
0.000000
  70
    32
  0
VERTEX
  8
0
  5
8D3
 10
36.2729
 20
98.7712
 30
0.000000
  70
    32
  0
VERTEX
  8
0
  5
8D4
 10
36.2617
 20
98.7581
 30
0.000000
  70
    32
  0
VERTEX
  8
0
  5
8D5
 10
36.2503
 20
98.7451
 30
0.000000
  70
    32
  0
VERTEX
  8
0
  5
8D6
 10
36.2388
 20
98.7324
 30
0.000000
  70
    32
  0
VERTEX
  8
0
  5
8D7
 10
36.2272
 20
98.7198
 30
0.000000
  70
    32
  0
VERTEX
  8
0
  5
8D8
 10
36.2155
 20
98.7073
 30
0.000000
  70
    32
  0
VERTEX
  8
0
  5
8D9
 10
36.2036
 20
98.6950
 30
0.000000
  70
    32
  0
VERTEX
  8
0
  5
8DA
 10
36.1916
 20
98.6829
 30
0.000000
  70
    32
  0
VERTEX
  8
0
  5
8DB
 10
36.1795
 20
98.6710
 30
0.000000
  70
    32
  0
VERTEX
  8
0
  5
8DC
 10
36.1672
 20
98.6592
 30
0.000000
  70
    32
  0
VERTEX
  8
0
  5
8DD
 10
36.1548
 20
98.6476
 30
0.000000
  70
    32
  0
VERTEX
  8
0
  5
8DE
 10
36.1423
 20
98.6362
 30
0.000000
  70
    32
  0
VERTEX
  8
0
  5
8DF
 10
36.1297
 20
98.6250
 30
0.000000
  70
    32
  0
VERTEX
  8
0
  5
8E0
 10
36.1169
 20
98.6139
 30
0.000000
  70
    32
  0
VERTEX
  8
0
  5
8E1
 10
36.1041
 20
98.6030
 30
0.000000
  70
    32
  0
VERTEX
  8
0
  5
8E2
 10
36.0911
 20
98.5924
 30
0.000000
  70
    32
  0
VERTEX
  8
0
  5
8E3
 10
36.0780
 20
98.5818
 30
0.000000
  70
    32
  0
VERTEX
  8
0
  5
8E4
 10
36.0648
 20
98.5715
 30
0.000000
  70
    32
  0
VERTEX
  8
0
  5
8E5
 10
36.0515
 20
98.5614
 30
0.000000
  70
    32
  0
VERTEX
  8
0
  5
8E6
 10
36.0381
 20
98.5515
 30
0.000000
  70
    32
  0
VERTEX
  8
0
  5
8E7
 10
36.0246
 20
98.5417
 30
0.000000
  70
    32
  0
VERTEX
  8
0
  5
8E8
 10
36.0109
 20
98.5321
 30
0.000000
  70
    32
  0
VERTEX
  8
0
  5
8E9
 10
35.9972
 20
98.5228
 30
0.000000
  70
    32
  0
VERTEX
  8
0
  5
8EA
 10
35.9834
 20
98.5136
 30
0.000000
  70
    32
  0
VERTEX
  8
0
  5
8EB
 10
35.9695
 20
98.5046
 30
0.000000
  70
    32
  0
VERTEX
  8
0
  5
8EC
 10
35.9555
 20
98.4959
 30
0.000000
  70
    32
  0
VERTEX
  8
0
  5
8ED
 10
35.9414
 20
98.4873
 30
0.000000
  70
    32
  0
VERTEX
  8
0
  5
8EE
 10
35.9272
 20
98.4789
 30
0.000000
  70
    32
  0
VERTEX
  8
0
  5
8EF
 10
35.9129
 20
98.4707
 30
0.000000
  70
    32
  0
VERTEX
  8
0
  5
8F0
 10
35.8985
 20
98.4627
 30
0.000000
  70
    32
  0
VERTEX
  8
0
  5
8F1
 10
35.8841
 20
98.4550
 30
0.000000
  70
    32
  0
VERTEX
  8
0
  5
8F2
 10
35.8695
 20
98.4474
 30
0.000000
  70
    32
  0
VERTEX
  8
0
  5
8F3
 10
35.8549
 20
98.4401
 30
0.000000
  70
    32
  0
VERTEX
  8
0
  5
8F4
 10
35.8402
 20
98.4329
 30
0.000000
  70
    32
  0
VERTEX
  8
0
  5
8F5
 10
35.8254
 20
98.4260
 30
0.000000
  70
    32
  0
VERTEX
  8
0
  5
8F6
 10
35.8106
 20
98.4192
 30
0.000000
  70
    32
  0
VERTEX
  8
0
  5
8F7
 10
35.7957
 20
98.4127
 30
0.000000
  70
    32
  0
VERTEX
  8
0
  5
8F8
 10
35.7807
 20
98.4064
 30
0.000000
  70
    32
  0
VERTEX
  8
0
  5
8F9
 10
35.7657
 20
98.4003
 30
0.000000
  70
    32
  0
VERTEX
  8
0
  5
8FA
 10
35.7506
 20
98.3944
 30
0.000000
  70
    32
  0
VERTEX
  8
0
  5
8FB
 10
35.7354
 20
98.3888
 30
0.000000
  70
    32
  0
VERTEX
  8
0
  5
8FC
 10
35.7202
 20
98.3833
 30
0.000000
  70
    32
  0
VERTEX
  8
0
  5
8FD
 10
35.7049
 20
98.3781
 30
0.000000
  70
    32
  0
VERTEX
  8
0
  5
8FE
 10
35.6896
 20
98.3731
 30
0.000000
  70
    32
  0
VERTEX
  8
0
  5
8FF
 10
35.6742
 20
98.3683
 30
0.000000
  70
    32
  0
VERTEX
  8
0
  5
900
 10
35.6587
 20
98.3637
 30
0.000000
  70
    32
  0
VERTEX
  8
0
  5
901
 10
35.6432
 20
98.3593
 30
0.000000
  70
    32
  0
VERTEX
  8
0
  5
902
 10
35.6277
 20
98.3552
 30
0.000000
  70
    32
  0
VERTEX
  8
0
  5
903
 10
35.6121
 20
98.3513
 30
0.000000
  70
    32
  0
VERTEX
  8
0
  5
904
 10
35.5965
 20
98.3476
 30
0.000000
  70
    32
  0
VERTEX
  8
0
  5
905
 10
35.5809
 20
98.3441
 30
0.000000
  70
    32
  0
VERTEX
  8
0
  5
906
 10
35.5652
 20
98.3408
 30
0.000000
  70
    32
  0
VERTEX
  8
0
  5
907
 10
35.5495
 20
98.3378
 30
0.000000
  70
    32
  0
VERTEX
  8
0
  5
908
 10
35.5337
 20
98.3350
 30
0.000000
  70
    32
  0
VERTEX
  8
0
  5
909
 10
35.5179
 20
98.3324
 30
0.000000
  70
    32
  0
VERTEX
  8
0
  5
90A
 10
35.5021
 20
98.3300
 30
0.000000
  70
    32
  0
VERTEX
  8
0
  5
90B
 10
35.4863
 20
98.3279
 30
0.000000
  70
    32
  0
VERTEX
  8
0
  5
90C
 10
35.4704
 20
98.3260
 30
0.000000
  70
    32
  0
VERTEX
  8
0
  5
90D
 10
35.4545
 20
98.3243
 30
0.000000
  70
    32
  0
VERTEX
  8
0
  5
90E
 10
35.4387
 20
98.3228
 30
0.000000
  70
    32
  0
VERTEX
  8
0
  5
90F
 10
35.4228
 20
98.3216
 30
0.000000
  70
    32
  0
VERTEX
  8
0
  5
910
 10
35.4068
 20
98.3205
 30
0.000000
  70
    32
  0
VERTEX
  8
0
  5
911
 10
35.3909
 20
98.3197
 30
0.000000
  70
    32
  0
VERTEX
  8
0
  5
912
 10
35.3750
 20
98.3192
 30
0.000000
  70
    32
  0
VERTEX
  8
0
  5
913
 10
35.3590
 20
98.3188
 30
0.000000
  70
    32
  0
VERTEX
  8
0
  5
914
 10
35.3431
 20
98.3187
 30
0.000000
  70
    32
  0
SEQEND
  8
0
  5
915
  0
LINE
  5
365
  8
0
 10
58.883802067377069
 20
99.818731921423364
 30
0.0
 11
58.883802067377069
 21
120.81873192142341
 31
0.0
  0
LINE
  5
366
  8
0
 10
59.383802067377083
 20
99.818731921423606
 30
0.0
 11
59.383802067377083
 21
120.81873192142361
 31
0.0
  0
LINE
  5
369
  8
0
 10
37.142132316574759
 20
120.81873192142341
 30
0.0
 11
37.142132316574759
 21
99.818731921423364
 31
0.0
  0
LINE
  5
36C
  8
0
 10
36.642132316574759
 20
120.81873192142361
 30
0.0
 11
36.642132316574759
 21
99.818731921423606
 31
0.0
  0
LINE
  5
36E
  8
0
 10
65.012967191975918
 20
98.318731921422355
 30
0.0
 11
65.012967191975918
 21
122.3187319214223
 31
0.0
  0
LINE
  5
371
  8
0
 10
31.012967191975921
 20
122.3187319214223
 30
0.0
 11
31.012967191975921
 21
98.318731921422355
 31
0.0
  0
LINE
  5
373
  8
0
 10
64.012967191975918
 20
98.318731921422355
 30
0.0
 11
64.012967191975918
 21
122.3187319214223
 31
0.0
  0
LINE
  5
374
  8
0
 10
32.012967191975918
 20
122.3187319214223
 30
0.0
 11
32.012967191975918
 21
98.318731921422355
 31
0.0
  0
CIRCLE
  5
375
  8
0
 10
48.01296719197591
 20
110.3187319214191
 30
0.0
 40
4.5
  0
LINE
  5
376
  8
0
 10
31.012967191975921
 20
122.3187319214191
 30
0.0
 11
65.012967191975918
 21
122.3187319214191
 31
0.0
  0
LINE
  5
377
  8
0
 10
65.012967191975918
 20
98.318731921419158
 30
0.0
 11
31.012967191975921
 21
98.3187319214192
 31
0.0
  0
LINE
  5
3AC
  8
1
 10
70.012967191975918
 20
110.3187319214191
 30
0.0
 11
26.012967191975921
 21
110.3187319214191
 31
0.0
  0
LINE
  5
3AD
  8
1
 10
48.01296719197591
 20
127.3187319214192
 30
0.0
 11
48.01296719197591
 21
93.318731921419186
 31
0.0
  0
LINE
  5
3B5
  8
1
 10
48.01296719197591
 20
64.923731921419105
 30
0.0
 11
48.01296719197591
 21
53.923731921419098
 31
0.0
  0
ENDSEC
  0
EOF
