  0
SECTION
  2
HEADER
  9
$ACADVER
  1
AC1009
  9
$INSBASE
 10
0.0
 20
0.0
 30
0.0
  9
$EXTMIN
 10
0.0
 20
-2.960436562073669
 30
0.0
  9
$EXTMAX
 10
135.4143772085103024
 20
121.5072510308224025
 30
0.0
  9
$LIMMIN
 10
0.0
 20
0.0
  9
$LIMMAX
 10
192.5
 20
135.0
  9
$ORTHOMODE
 70
     1
  9
$REGENMODE
 70
     1
  9
$FILLMODE
 70
     1
  9
$QTEXTMODE
 70
     0
  9
$MIRRTEXT
 70
     0
  9
$DRAGMODE
 70
     2
  9
$LTSCALE
 40
5.0
  9
$OSMODE
 70
    37
  9
$ATTMODE
 70
     1
  9
$TEXTSIZE
 40
0.2
  9
$TRACEWID
 40
0.05
  9
$TEXTSTYLE
  7
STANDARD
  9
$CLAYER
  8
0
  9
$CELTYPE
  6
BYLAYER
  9
$CECOLOR
 62
   256
  9
$DIMSCALE
 40
0.5
  9
$DIMASZ
 40
3.0
  9
$DIMEXO
 40
1.0
  9
$DIMDLI
 40
6.0
  9
$DIMRND
 40
0.0
  9
$DIMDLE
 40
0.0
  9
$DIMEXE
 40
1.0
  9
$DIMTP
 40
495.0
  9
$DIMTM
 40
0.0
  9
$DIMTXT
 40
3.0
  9
$DIMCEN
 40
0.0
  9
$DIMTSZ
 40
0.0
  9
$DIMTOL
 70
     0
  9
$DIMLIM
 70
     0
  9
$DIMTIH
 70
     0
  9
$DIMTOH
 70
     0
  9
$DIMSE1
 70
     0
  9
$DIMSE2
 70
     0
  9
$DIMTAD
 70
     1
  9
$DIMZIN
 70
     0
  9
$DIMBLK
  1

  9
$DIMASO
 70
     0
  9
$DIMSHO
 70
     0
  9
$DIMPOST
  1

  9
$DIMAPOST
  1

  9
$DIMALT
 70
     0
  9
$DIMALTD
 70
     2
  9
$DIMALTF
 40
25.3999999999999986
  9
$DIMLFAC
 40
1.0
  9
$DIMTOFL
 70
     1
  9
$DIMTVP
 40
0.0
  9
$DIMTIX
 70
     1
  9
$DIMSOXD
 70
     0
  9
$DIMSAH
 70
     0
  9
$DIMBLK1
  1

  9
$DIMBLK2
  1

  9
$DIMSTYLE
  2
STANDARD
  9
$DIMCLRD
 70
     0
  9
$DIMCLRE
 70
     0
  9
$DIMCLRT
 70
     4
  9
$DIMTFAC
 40
1.0
  9
$DIMGAP
 40
1.0
  9
$LUNITS
 70
     2
  9
$LUPREC
 70
     1
  9
$SKETCHINC
 40
0.1
  9
$FILLETRAD
 40
0.0
  9
$AUNITS
 70
     0
  9
$AUPREC
 70
     0
  9
$MENU
  1
E:\r13\win\SUPPORT\ACAD
  9
$ELEVATION
 40
0.0
  9
$PELEVATION
 40
0.0
  9
$THICKNESS
 40
0.0
  9
$LIMCHECK
 70
     0
  9
$BLIPMODE
 70
     0
  9
$CHAMFERA
 40
0.0
  9
$CHAMFERB
 40
0.0
  9
$SKPOLY
 70
     0
  9
$TDCREATE
 40
2450647.4584953710436821
  9
$TDUPDATE
 40
2460571.6583680561743677
  9
$TDINDWG
 40
0.1289173611
  9
$TDUSRTIMER
 40
0.1289173611
  9
$USRTIMER
 70
     1
  9
$ANGBASE
 50
0.0
  9
$ANGDIR
 70
     0
  9
$PDMODE
 70
     0
  9
$PDSIZE
 40
0.0
  9
$PLINEWID
 40
0.0
  9
$COORDS
 70
     1
  9
$SPLFRAME
 70
     0
  9
$SPLINETYPE
 70
     6
  9
$SPLINESEGS
 70
     8
  9
$ATTDIA
 70
     1
  9
$ATTREQ
 70
     1
  9
$HANDLING
 70
     1
  9
$HANDSEED
  5
18A1
  9
$SURFTAB1
 70
     6
  9
$SURFTAB2
 70
     6
  9
$SURFTYPE
 70
     6
  9
$SURFU
 70
     6
  9
$SURFV
 70
     6
  9
$UCSNAME
  2

  9
$UCSORG
 10
0.0
 20
0.0
 30
0.0
  9
$UCSXDIR
 10
1.0
 20
0.0
 30
0.0
  9
$UCSYDIR
 10
0.0
 20
1.0
 30
0.0
  9
$PUCSNAME
  2

  9
$PUCSORG
 10
0.0
 20
0.0
 30
0.0
  9
$PUCSXDIR
 10
1.0
 20
0.0
 30
0.0
  9
$PUCSYDIR
 10
0.0
 20
1.0
 30
0.0
  9
$USERI1
 70
     3
  9
$USERI2
 70
     1
  9
$USERI3
 70
     0
  9
$USERI4
 70
     0
  9
$USERI5
 70
     0
  9
$USERR1
 40
0.5
  9
$USERR2
 40
3.0
  9
$USERR3
 40
3.0
  9
$USERR4
 40
3.0
  9
$USERR5
 40
10.0
  9
$WORLDVIEW
 70
     1
  9
$SHADEDGE
 70
     3
  9
$SHADEDIF
 70
    70
  9
$TILEMODE
 70
     1
  9
$MAXACTVP
 70
    16
  9
$PLIMCHECK
 70
     0
  9
$PEXTMIN
 10
1.0000000000000000E+20
 20
1.0000000000000000E+20
 30
1.0000000000000000E+20
  9
$PEXTMAX
 10
-1.0000000000000000E+20
 20
-1.0000000000000000E+20
 30
-1.0000000000000000E+20
  9
$PLIMMIN
 10
0.0
 20
0.0
  9
$PLIMMAX
 10
12.0
 20
9.0
  9
$UNITMODE
 70
     0
  9
$VISRETAIN
 70
     0
  9
$PLINEGEN
 70
     0
  9
$PSLTSCALE
 70
     0
  0
ENDSEC
  0
SECTION
  2
TABLES
  0
TABLE
  2
VPORT
 70
     1
  0
VPORT
  2
*ACTIVE
 70
     0
 10
0.0
 20
0.0
 11
1.0
 21
1.0
 12
234.8522167487685124
 22
100.0
 13
0.0
 23
0.0
 14
2.5
 24
2.5
 15
10.0
 25
10.0
 16
0.0
 26
0.0
 36
1.0
 17
0.0
 27
0.0
 37
0.0
 40
200.0
 41
2.3485221674876842
 42
50.0
 43
0.0
 44
0.0
 50
0.0
 51
0.0
 71
     0
 72
   100
 73
     1
 74
     0
 75
     0
 76
     0
 77
     0
 78
     0
  0
ENDTAB
  0
TABLE
  2
LTYPE
 70
     3
  0
LTYPE
  2
CONTINUOUS
 70
     0
  3
Solid Line
 72
    65
 73
     0
 40
0.0
  0
LTYPE
  2
CENTER
 70
     0
  3
____ _ ____ _ ____ _ ____ _ ____ _ ____ _ ____
 72
    65
 73
     4
 40
2.0
 49
1.25
 49
-0.25
 49
0.25
 49
-0.25
  0
LTYPE
  2
PHANTOM
 70
     0
  3
_____ _ _ _____ _ _ _____ _ _ _____ _ _ ____
 72
    65
 73
     6
 40
2.5
 49
1.25
 49
-0.25
 49
0.25
 49
-0.25
 49
0.25
 49
-0.25
  0
ENDTAB
  0
TABLE
  2
LAYER
 70
     5
  0
LAYER
  2
0
 70
     0
 62
     7
  6
CONTINUOUS
  0
LAYER
  2
1
 70
     0
 62
     1
  6
CENTER
  0
LAYER
  2
5
 70
     0
 62
     3
  6
PHANTOM
  0
LAYER
  2
3
 70
     0
 62
     3
  6
CONTINUOUS
  0
LAYER
  2
DEFPOINTS
 70
     0
 62
     7
  6
CONTINUOUS
  0
ENDTAB
  0
TABLE
  2
STYLE
 70
     2
  0
STYLE
  2
STANDARD
 70
     0
 40
0.0
 41
1.0
 50
0.0
 71
     0
 42
0.2
  3
SIMPLEX
  4
BIGFONT
  0
STYLE
  2
STANDARD1
 70
     0
 40
0.0
 41
1.0
 50
0.0
 71
     0
 42
3.0
  3
txt
  4

  0
ENDTAB
  0
TABLE
  2
VIEW
 70
     0
  0
ENDTAB
  0
TABLE
  2
UCS
 70
     0
  0
ENDTAB
  0
TABLE
  2
APPID
 70
    11
  0
APPID
  2
ACAD
 70
     0
  0
APPID
  2
ACAD_MLEADERVER
 70
     0
  0
APPID
  2
ACAD_NAV_VCDISPLAY
 70
     0
  0
APPID
  2
ACAD_TC
 70
     0
  0
APPID
  2
ACAD_EXEMPT_FROM_CAD_STANDARDS
 70
     0
  0
APPID
  2
ACAD_DSTYLE_DIMRADIAL_EXTENSION
 70
     0
  0
APPID
  2
GRADIENTCOLOR1ACI
 70
     0
  0
APPID
  2
GRADIENTCOLOR2ACI
 70
     0
  0
APPID
  2
ACAD_PSEXT
 70
     0
  0
APPID
  2
ACAD_DSTYLE_DIMJAG
 70
     0
  0
APPID
  2
ACAD_DSTYLE_DIMTALN
 70
     0
  0
ENDTAB
  0
TABLE
  2
DIMSTYLE
 70
     1
  0
DIMSTYLE
  2
STANDARD
 70
     0
  3

  4

  5

  6

  7

 40
1.0
 41
0.18
 42
0.0625
 43
0.38
 44
0.18
 45
0.0
 46
0.0
 47
0.0
 48
0.0
140
0.18
141
0.09
142
0.0
143
25.3999999999999986
144
1.0
145
0.0
146
1.0
147
0.09
 71
     0
 72
     0
 73
     1
 74
     1
 75
     0
 76
     0
 77
     0
 78
     0
170
     0
171
     2
172
     0
173
     0
174
     0
175
     0
176
     0
177
     0
178
     0
  0
ENDTAB
  0
ENDSEC
  0
SECTION
  2
BLOCKS
  0
BLOCK
  8
0
  2
$MODEL_SPACE
 70
     0
 10
0.0
 20
0.0
 30
0.0
  3
$MODEL_SPACE
  1

  0
ENDBLK
  5
87C
  8
0
  0
BLOCK
 67
     1
  8
0
  2
$PAPER_SPACE
 70
     0
 10
0.0
 20
0.0
 30
0.0
  3
$PAPER_SPACE
  1

  0
ENDBLK
  5
87A
 67
     1
  8
0
  0
BLOCK
  8
0
  2
STDGX5
 70
     0
 10
0.0
 20
0.0
 30
0.0
  3
STDGX5
  1

  0
ENDBLK
  5
4F
  8
0
  0
BLOCK
  8
0
  2
*X1
 70
     1
 10
0.0
 20
0.0
 30
0.0
  3
*X1
  1

  0
LINE
  5
17EC
  8
0
 62
     0
 10
23.7752854464864996
 20
56.1277808275933694
 30
0.0
 11
22.1626618531613317
 21
57.7404044209185372
 31
0.0
  0
LINE
  5
17ED
  8
0
 62
     0
 10
24.1105395101078592
 20
55.0854199827854529
 30
0.0
 11
21.1203010083534117
 21
58.0756584845399004
 31
0.0
  0
LINE
  5
17EE
  8
0
 62
     0
 10
23.9734087362964203
 20
54.5154439754103635
 30
0.0
 11
20.5503250009782903
 21
57.9385277107284935
 31
0.0
  0
LINE
  5
17EF
  8
0
 62
     0
 10
20.5503250009782903
 20
57.9385277107284935
 30
0.0
 11
20.3722572700032813
 21
58.1165954417035024
 31
0.0
  0
LINE
  5
17F0
  8
0
 62
     0
 10
24.1514764672714612
 20
54.337376244435319
 30
0.0
 11
23.9734087362964203
 21
54.5154439754103635
 31
0.0
  0
LINE
  5
17F1
  8
0
 62
     0
 10
23.2663019551098706
 20
54.5154439754103635
 30
0.0
 11
20.5503250009782903
 21
57.2314209295419403
 31
0.0
  0
LINE
  5
17F2
  8
0
 62
     0
 10
20.5503250009782903
 20
57.2314209295419403
 30
0.0
 11
19.7505675949159283
 21
58.0311783356042881
 31
0.0
  0
LINE
  5
17F3
  8
0
 62
     0
 10
24.0660593611722504
 20
53.7156865693479801
 30
0.0
 11
23.2663019551098706
 21
54.5154439754103635
 31
0.0
  0
LINE
  5
17F4
  8
0
 62
     0
 10
22.559195173923321
 20
54.5154439754103635
 30
0.0
 11
20.5503250009783009
 21
56.5243141483554012
 31
0.0
  0
LINE
  5
17F5
  8
0
 62
     0
 10
20.5503250009783009
 20
56.5243141483554012
 30
0.0
 11
19.2114482949095589
 21
57.8631908544241185
 31
0.0
  0
LINE
  5
17F6
  8
0
 62
     0
 10
23.8980718799920808
 20
53.1765672693415965
 30
0.0
 11
22.559195173923321
 21
54.5154439754103635
 31
0.0
  0
LINE
  5
17F7
  8
0
 62
     0
 10
21.8520883927367713
 20
54.5154439754103635
 30
0.0
 11
20.5503250009782903
 21
55.817207367168848
 31
0.0
  0
LINE
  5
17F8
  8
0
 62
     0
 10
20.5503250009782903
 20
55.817207367168848
 30
0.0
 11
18.7361807298605711
 21
57.63135163828656
 31
0.0
  0
LINE
  5
17F9
  8
0
 62
     0
 10
23.6662326638545188
 20
52.701299704292623
 30
0.0
 11
21.8520883927367713
 21
54.5154439754103635
 31
0.0
  0
LINE
  5
17FA
  8
0
 62
     0
 10
21.1449816115502216
 20
54.5154439754103635
 30
0.0
 11
20.5503250009782903
 21
55.1101005859823019
 31
0.0
  0
LINE
  5
17FB
  8
0
 62
     0
 10
20.5503250009782903
 20
55.1101005859823019
 30
0.0
 11
18.3155403785148394
 21
57.3448852084457528
 31
0.0
  0
LINE
  5
17FC
  8
0
 62
     0
 10
23.3797662340137009
 20
52.280659352946877
 30
0.0
 11
21.1449816115502216
 21
54.5154439754103635
 31
0.0
  0
LINE
  5
17FD
  8
0
 62
     0
 10
20.5503250009782903
 20
54.4029938047957629
 30
0.0
 11
20.437874830363679
 21
54.5154439754103635
 31
0.0
  0
LINE
  5
17FE
  8
0
 62
     0
 10
20.437874830363679
 20
54.5154439754103635
 30
0.0
 11
17.9452102084097689
 21
57.0081085973642701
 31
0.0
  0
LINE
  5
17FF
  8
0
 62
     0
 10
23.0429896229322289
 20
51.9103291828418207
 30
0.0
 11
20.5503250009782903
 21
54.4029938047957629
 31
0.0
  0
LINE
  5
1800
  8
0
 62
     0
 10
20.5503250009782903
 20
53.6958870236092025
 30
0.0
 11
19.7307680491771293
 21
54.5154439754103493
 31
0.0
  0
LINE
  5
1801
  8
0
 62
     0
 10
19.7307680491771293
 20
54.5154439754103635
 30
0.0
 11
17.6241837530020007
 21
56.6220282715854921
 31
0.0
  0
LINE
  5
1802
  8
0
 62
     0
 10
22.6569092971534509
 20
51.5893027274340383
 30
0.0
 11
20.5503250009782903
 21
53.6958870236092025
 31
0.0
  0
LINE
  5
1803
  8
0
 62
     0
 10
20.5503250009782903
 20
52.9887802424226635
 30
0.0
 11
19.0236612679905903
 21
54.5154439754103635
 31
0.0
  0
LINE
  5
1804
  8
0
 62
     0
 10
19.0236612679905903
 20
54.5154439754103635
 30
0.0
 11
17.3544380042571689
 21
56.1846672391437707
 31
0.0
  0
LINE
  5
1805
  8
0
 62
     0
 10
22.2195482647117295
 20
51.3195569786892207
 30
0.0
 11
20.5503250009782903
 21
52.9887802424226635
 31
0.0
  0
LINE
  5
1806
  8
0
 62
     0
 10
20.5503250009782903
 20
52.2816734612361103
 30
0.0
 11
18.3165544868040406
 21
54.5154439754103635
 31
0.0
  0
LINE
  5
1807
  8
0
 62
     0
 10
18.3165544868040406
 20
54.5154439754103635
 30
0.0
 11
17.1415917291874287
 21
55.6904067330269612
 31
0.0
  0
LINE
  5
1808
  8
0
 62
     0
 10
21.72528775859492
 20
51.106710703619477
 30
0.0
 11
20.5503250009782903
 21
52.2816734612361103
 31
0.0
  0
LINE
  5
1809
  8
0
 62
     0
 10
20.5503250009782903
 20
51.574566680049557
 30
0.0
 11
17.6094477056174803
 21
54.5154439754103635
 31
0.0
  0
LINE
  5
180A
  8
0
 62
     0
 10
17.6094477056174803
 20
54.5154439754103635
 30
0.0
 11
16.9971453268119106
 21
55.1277463542159225
 31
0.0
  0
LINE
  5
180B
  8
0
 62
     0
 10
21.1626273797838813
 20
50.9622643012439624
 30
0.0
 11
20.5503250009782903
 21
51.574566680049557
 31
0.0
  0
LINE
  5
180C
  8
0
 62
     0
 10
20.5076395181055595
 20
50.9101453817357381
 30
0.0
 11
16.9450264073037005
 21
54.4727584925376007
 31
0.0
  0
LINE
  5
180D
  8
0
 62
     0
 10
19.6987870778294614
 20
51.0118910408252901
 30
0.0
 11
17.0467720663932489
 21
53.6639060522615026
 31
0.0
  0
LINE
  5
180E
  8
0
 62
     0
 10
18.3250672613735617
 20
51.6785040760946401
 30
0.0
 11
17.7133851016625989
 21
52.2901862358056135
 31
0.0
  0
LINE
  5
180F
  8
0
 62
     0
 10
22.4755236381341597
 20
51.4669016667826114
 30
0.0
 11
23.5988673096060211
 21
52.5902453382544692
 31
0.0
  0
LINE
  5
1810
  8
0
 62
     0
 10
21.2875911435280685
 20
50.9860759533630699
 30
0.0
 11
24.079693023025559
 21
53.7781778328605569
 31
0.0
  0
LINE
  5
1811
  8
0
 62
     0
 10
20.5503250009783009
 20
50.955916591999852
 30
0.0
 11
24.1098523843888302
 21
54.5154439754103706
 31
0.0
  0
LINE
  5
1812
  8
0
 62
     0
 10
24.1098523843888302
 20
54.5154439754103706
 30
0.0
 11
24.1555862143711906
 21
54.561177805392731
 31
0.0
  0
LINE
  5
1813
  8
0
 62
     0
 10
20.5045911709959015
 20
50.9101827620174419
 30
0.0
 11
20.5503250009783009
 21
50.955916591999852
 31
0.0
  0
LINE
  5
1814
  8
0
 62
     0
 10
20.5503250009782903
 20
51.663023373186391
 30
0.0
 11
23.4027456032022805
 21
54.5154439754103777
 31
0.0
  0
LINE
  5
1815
  8
0
 62
     0
 10
23.4027456032022805
 20
54.5154439754103777
 30
0.0
 11
24.0898086343883193
 21
55.2025070065964201
 31
0.0
  0
LINE
  5
1816
  8
0
 62
     0
 10
19.8632619697922088
 20
50.9759603420003131
 30
0.0
 11
20.5503250009782903
 21
51.663023373186391
 31
0.0
  0
LINE
  5
1817
  8
0
 62
     0
 10
20.5503250009783009
 20
52.3701301543729514
 30
0.0
 11
22.6956388220157308
 21
54.5154439754103777
 31
0.0
  0
LINE
  5
1818
  8
0
 62
     0
 10
22.6956388220157308
 20
54.5154439754103777
 30
0.0
 11
23.9358604539882585
 21
55.7556656073829089
 31
0.0
  0
LINE
  5
1819
  8
0
 62
     0
 10
19.3101033690057307
 20
51.1299085224003775
 30
0.0
 11
20.5503250009783009
 21
52.3701301543729514
 31
0.0
  0
LINE
  5
181A
  8
0
 62
     0
 10
20.5503250009783009
 20
53.0772369355594904
 30
0.0
 11
21.9885320408291811
 21
54.5154439754103706
 31
0.0
  0
LINE
  5
181B
  8
0
 62
     0
 10
21.9885320408291811
 20
54.5154439754103706
 30
0.0
 11
23.7154232321880407
 21
56.2423351667692302
 31
0.0
  0
LINE
  5
181C
  8
0
 62
     0
 10
18.8234338096193916
 20
51.3503457442005882
 30
0.0
 11
20.5503250009783009
 21
53.0772369355594904
 31
0.0
  0
LINE
  5
181D
  8
0
 62
     0
 10
20.5503250009783009
 20
53.7843437167460365
 30
0.0
 11
21.2814252596426314
 21
54.5154439754103635
 31
0.0
  0
LINE
  5
181E
  8
0
 62
     0
 10
21.2814252596426314
 20
54.5154439754103635
 30
0.0
 11
23.4390424063635585
 21
56.6730611221313012
 31
0.0
  0
LINE
  5
181F
  8
0
 62
     0
 10
18.3927078542573312
 20
51.6267265700250704
 30
0.0
 11
20.5503250009783009
 21
53.7843437167460365
 31
0.0
  0
LINE
  5
1820
  8
0
 62
     0
 10
20.5503250009783009
 20
54.4914504979325827
 30
0.0
 11
20.5743184784560889
 21
54.5154439754103706
 31
0.0
  0
LINE
  5
1821
  8
0
 62
     0
 10
20.5743184784560889
 20
54.5154439754103706
 30
0.0
 11
23.1118032709818486
 21
57.0529287679361303
 31
0.0
  0
LINE
  5
1822
  8
0
 62
     0
 10
18.0128402084524986
 20
51.9539657054067874
 30
0.0
 11
20.5503250009783009
 21
54.4914504979325827
 31
0.0
  0
LINE
  5
1823
  8
0
 62
     0
 10
19.8672116972695285
 20
54.5154439754103706
 30
0.0
 11
20.5503250009782903
 21
55.1985572791191288
 31
0.0
  0
LINE
  5
1824
  8
0
 62
     0
 10
20.5503250009782903
 20
55.1985572791191288
 30
0.0
 11
22.7352954227120811
 21
57.3835277008529232
 31
0.0
  0
LINE
  5
1825
  8
0
 62
     0
 10
17.6822412755357092
 20
52.3304735536765619
 30
0.0
 11
19.8672116972695285
 21
54.5154439754103706
 31
0.0
  0
LINE
  5
1826
  8
0
 62
     0
 10
19.1601049160829788
 20
54.5154439754103635
 30
0.0
 11
20.5503250009783009
 21
55.905664060305682
 31
0.0
  0
LINE
  5
1827
  8
0
 62
     0
 10
20.5503250009783009
 20
55.905664060305682
 30
0.0
 11
22.3081360801504012
 21
57.6634751394777822
 31
0.0
  0
LINE
  5
1828
  8
0
 62
     0
 10
17.4022938369108395
 20
52.7576328962382419
 30
0.0
 11
19.1601049160829788
 21
54.5154439754103635
 31
0.0
  0
LINE
  5
1829
  8
0
 62
     0
 10
18.4529981348964398
 20
54.5154439754103706
 30
0.0
 11
20.5503250009783009
 21
56.6127708414922211
 31
0.0
  0
LINE
  5
182A
  8
0
 62
     0
 10
20.5503250009783009
 20
56.6127708414922211
 30
0.0
 11
21.8255172011905891
 21
57.8879630417045092
 31
0.0
  0
LINE
  5
182B
  8
0
 62
     0
 10
17.177805934684109
 20
53.2402517751980398
 30
0.0
 11
18.4529981348964398
 21
54.5154439754103706
 31
0.0
  0
LINE
  5
182C
  8
0
 62
     0
 10
17.7458913537098901
 20
54.5154439754103635
 30
0.0
 11
20.5503250009783009
 21
57.3198776226787672
 31
0.0
  0
LINE
  5
182D
  8
0
 62
     0
 10
20.5503250009783009
 20
57.3198776226787672
 30
0.0
 11
21.2773775307883888
 21
58.0469301524888621
 31
0.0
  0
LINE
  5
182E
  8
0
 62
     0
 10
17.0188388238997597
 20
53.7883914456002401
 30
0.0
 11
17.7458913537098901
 21
54.5154439754103635
 31
0.0
  0
LINE
  5
182F
  8
0
 62
     0
 10
17.0387845725233404
 20
54.5154439754103635
 30
0.0
 11
20.5503250009783009
 21
58.0269844038653204
 31
0.0
  0
LINE
  5
1830
  8
0
 62
     0
 10
20.5503250009783009
 20
58.0269844038653204
 30
0.0
 11
20.6431409910787416
 21
58.1198003939657681
 31
0.0
  0
LINE
  5
1831
  8
0
 62
     0
 10
16.9459685824228607
 20
54.4226279853099015
 30
0.0
 11
17.0387845725233404
 21
54.5154439754103635
 31
0.0
  0
LINE
  5
1832
  8
0
 62
     0
 10
17.0089560302050486
 20
55.192722214278632
 30
0.0
 11
19.8730467621100004
 21
58.0568129461835767
 31
0.0
  0
LINE
  5
1833
  8
0
 62
     0
 10
17.4284814620582011
 20
56.3193544273183093
 30
0.0
 11
18.7464145490703196
 21
57.6372875143304384
 31
0.0
  0
ENDBLK
  5
1835
  8
0
  0
BLOCK
  8
0
  2
*X2
 70
     1
 10
0.0
 20
0.0
 30
0.0
  3
*X2
  1

  0
LINE
  5
1837
  8
0
 62
     0
 10
124.1393376540185045
 20
56.1277808275933694
 30
0.0
 11
122.5267140606932941
 21
57.7404044209185372
 31
0.0
  0
LINE
  5
1838
  8
0
 62
     0
 10
124.4745917176398962
 20
55.0854199827854529
 30
0.0
 11
121.484353215885406
 21
58.0756584845399004
 31
0.0
  0
LINE
  5
1839
  8
0
 62
     0
 10
124.337460943828404
 20
54.5154439754103421
 30
0.0
 11
120.9143772085103024
 21
57.9385277107284935
 31
0.0
  0
LINE
  5
183A
  8
0
 62
     0
 10
120.9143772085103024
 20
57.9385277107284935
 30
0.0
 11
120.7363094775353005
 21
58.1165954417035024
 31
0.0
  0
LINE
  5
183B
  8
0
 62
     0
 10
124.5155286748035053
 20
54.337376244435319
 30
0.0
 11
124.337460943828404
 21
54.5154439754103421
 31
0.0
  0
LINE
  5
183C
  8
0
 62
     0
 10
123.6303541626418934
 20
54.5154439754103421
 30
0.0
 11
120.9143772085103024
 21
57.2314209295419403
 31
0.0
  0
LINE
  5
183D
  8
0
 62
     0
 10
120.9143772085103024
 20
57.2314209295419403
 30
0.0
 11
120.1146198024479048
 21
58.0311783356042881
 31
0.0
  0
LINE
  5
183E
  8
0
 62
     0
 10
124.4301115687042056
 20
53.7156865693479801
 30
0.0
 11
123.6303541626418934
 21
54.5154439754103421
 31
0.0
  0
LINE
  5
183F
  8
0
 62
     0
 10
122.9232473814552975
 20
54.5154439754103421
 30
0.0
 11
120.9143772085103024
 21
56.5243141483554012
 31
0.0
  0
LINE
  5
1840
  8
0
 62
     0
 10
120.9143772085103024
 20
56.5243141483554012
 30
0.0
 11
119.5755005024414999
 21
57.8631908544241185
 31
0.0
  0
LINE
  5
1841
  8
0
 62
     0
 10
124.2621240875241
 20
53.1765672693415965
 30
0.0
 11
122.9232473814552975
 21
54.5154439754103421
 31
0.0
  0
LINE
  5
1842
  8
0
 62
     0
 10
122.2161406002688011
 20
54.5154439754103421
 30
0.0
 11
120.9143772085103024
 21
55.817207367168848
 31
0.0
  0
LINE
  5
1843
  8
0
 62
     0
 10
120.9143772085103024
 20
55.817207367168848
 30
0.0
 11
119.1002329373926045
 21
57.63135163828656
 31
0.0
  0
LINE
  5
1844
  8
0
 62
     0
 10
124.0302848713864989
 20
52.701299704292623
 30
0.0
 11
122.2161406002688011
 21
54.5154439754103421
 31
0.0
  0
LINE
  5
1845
  8
0
 62
     0
 10
121.5090338190822052
 20
54.5154439754103421
 30
0.0
 11
120.9143772085103024
 21
55.1101005859823019
 31
0.0
  0
LINE
  5
1846
  8
0
 62
     0
 10
120.9143772085103024
 20
55.1101005859823019
 30
0.0
 11
118.6795925860467946
 21
57.3448852084457528
 31
0.0
  0
LINE
  5
1847
  8
0
 62
     0
 10
123.7438184415456988
 20
52.280659352946877
 30
0.0
 11
121.5090338190822052
 21
54.5154439754103421
 31
0.0
  0
LINE
  5
1848
  8
0
 62
     0
 10
120.9143772085103024
 20
54.4029938047957629
 30
0.0
 11
120.8019270378956946
 21
54.5154439754103421
 31
0.0
  0
LINE
  5
1849
  8
0
 62
     0
 10
120.8019270378956946
 20
54.5154439754103421
 30
0.0
 11
118.3092624159417028
 21
57.0081085973642701
 31
0.0
  0
LINE
  5
184A
  8
0
 62
     0
 10
123.4070418304641947
 20
51.9103291828418207
 30
0.0
 11
120.9143772085103024
 21
54.4029938047957629
 31
0.0
  0
LINE
  5
184B
  8
0
 62
     0
 10
120.9143772085103024
 20
53.6958870236092096
 30
0.0
 11
120.0948202567090988
 21
54.5154439754103421
 31
0.0
  0
LINE
  5
184C
  8
0
 62
     0
 10
120.0948202567090988
 20
54.5154439754103421
 30
0.0
 11
117.9882359605339985
 21
56.6220282715854921
 31
0.0
  0
LINE
  5
184D
  8
0
 62
     0
 10
123.0209615046854026
 20
51.5893027274340383
 30
0.0
 11
120.9143772085103024
 21
53.6958870236092096
 31
0.0
  0
LINE
  5
184E
  8
0
 62
     0
 10
120.9143772085103024
 20
52.9887802424226706
 30
0.0
 11
119.3877134755226024
 21
54.5154439754103421
 31
0.0
  0
LINE
  5
184F
  8
0
 62
     0
 10
119.3877134755226024
 20
54.5154439754103421
 30
0.0
 11
117.7184902117892022
 21
56.1846672391437707
 31
0.0
  0
LINE
  5
1850
  8
0
 62
     0
 10
122.5836004722437025
 20
51.3195569786892207
 30
0.0
 11
120.9143772085103024
 21
52.9887802424226706
 31
0.0
  0
LINE
  5
1851
  8
0
 62
     0
 10
120.9143772085103024
 20
52.2816734612361174
 30
0.0
 11
118.6806066943360065
 21
54.5154439754103421
 31
0.0
  0
LINE
  5
1852
  8
0
 62
     0
 10
118.6806066943360065
 20
54.5154439754103421
 30
0.0
 11
117.5056439367193946
 21
55.6904067330269612
 31
0.0
  0
LINE
  5
1853
  8
0
 62
     0
 10
122.0893399661269001
 20
51.106710703619477
 30
0.0
 11
120.9143772085103024
 21
52.2816734612361174
 31
0.0
  0
LINE
  5
1854
  8
0
 62
     0
 10
120.9143772085103024
 20
51.5745666800495712
 30
0.0
 11
117.9734999131494959
 21
54.5154439754103421
 31
0.0
  0
LINE
  5
1855
  8
0
 62
     0
 10
117.9734999131494959
 20
54.5154439754103421
 30
0.0
 11
117.3611975343439013
 21
55.1277463542159225
 31
0.0
  0
LINE
  5
1856
  8
0
 62
     0
 10
121.5266795873158969
 20
50.9622643012439624
 30
0.0
 11
120.9143772085103024
 21
51.5745666800495712
 31
0.0
  0
LINE
  5
1857
  8
0
 62
     0
 10
120.8716917256376036
 20
50.9101453817357381
 30
0.0
 11
117.3090786148356983
 21
54.4727584925376007
 31
0.0
  0
LINE
  5
1858
  8
0
 62
     0
 10
120.0628392853614059
 20
51.0118910408252901
 30
0.0
 11
117.4108242739253001
 21
53.6639060522615026
 31
0.0
  0
LINE
  5
1859
  8
0
 62
     0
 10
118.6891194689055027
 20
51.6785040760946401
 30
0.0
 11
118.0774373091945932
 21
52.2901862358056135
 31
0.0
  0
LINE
  5
185A
  8
0
 62
     0
 10
122.8395758456662037
 20
51.4669016667826114
 30
0.0
 11
123.9629195171380047
 21
52.5902453382544692
 31
0.0
  0
LINE
  5
185B
  8
0
 62
     0
 10
121.6516433510600024
 20
50.9860759533630699
 30
0.0
 11
124.4437452305574965
 21
53.7781778328605569
 31
0.0
  0
LINE
  5
185C
  8
0
 62
     0
 10
120.9143772085103024
 20
50.955916591999852
 30
0.0
 11
124.4739045919207996
 21
54.5154439754103706
 31
0.0
  0
LINE
  5
185D
  8
0
 62
     0
 10
124.4739045919207996
 20
54.5154439754103706
 30
0.0
 11
124.5196384219031955
 21
54.561177805392731
 31
0.0
  0
LINE
  5
185E
  8
0
 62
     0
 10
120.8686433785279064
 20
50.9101827620174419
 30
0.0
 11
120.9143772085103024
 21
50.955916591999852
 31
0.0
  0
LINE
  5
185F
  8
0
 62
     0
 10
120.9143772085103024
 20
51.6630233731863981
 30
0.0
 11
123.7667978107343032
 21
54.5154439754103706
 31
0.0
  0
LINE
  5
1860
  8
0
 62
     0
 10
123.7667978107343032
 20
54.5154439754103706
 30
0.0
 11
124.453860841920303
 21
55.2025070065964201
 31
0.0
  0
LINE
  5
1861
  8
0
 62
     0
 10
120.2273141773242031
 20
50.9759603420003131
 30
0.0
 11
120.9143772085103024
 21
51.6630233731863981
 31
0.0
  0
LINE
  5
1862
  8
0
 62
     0
 10
120.9143772085103024
 20
52.3701301543729514
 30
0.0
 11
123.0596910295476931
 21
54.5154439754103777
 31
0.0
  0
LINE
  5
1863
  8
0
 62
     0
 10
123.0596910295476931
 20
54.5154439754103777
 30
0.0
 11
124.2999126615201959
 21
55.7556656073829089
 31
0.0
  0
LINE
  5
1864
  8
0
 62
     0
 10
119.6741555765377001
 20
51.1299085224003775
 30
0.0
 11
120.9143772085103024
 21
52.3701301543729514
 31
0.0
  0
LINE
  5
1865
  8
0
 62
     0
 10
120.9143772085103024
 20
53.0772369355594904
 30
0.0
 11
122.3525842483611967
 21
54.5154439754103706
 31
0.0
  0
LINE
  5
1866
  8
0
 62
     0
 10
122.3525842483611967
 20
54.5154439754103706
 30
0.0
 11
124.0794754397199995
 21
56.2423351667692302
 31
0.0
  0
LINE
  5
1867
  8
0
 62
     0
 10
119.1874860171514001
 20
51.3503457442005882
 30
0.0
 11
120.9143772085103024
 21
53.0772369355594904
 31
0.0
  0
LINE
  5
1868
  8
0
 62
     0
 10
120.9143772085103024
 20
53.7843437167460365
 30
0.0
 11
121.6454774671746009
 21
54.5154439754103635
 31
0.0
  0
LINE
  5
1869
  8
0
 62
     0
 10
121.6454774671746009
 20
54.5154439754103635
 30
0.0
 11
123.803094613895496
 21
56.6730611221313012
 31
0.0
  0
LINE
  5
186A
  8
0
 62
     0
 10
118.7567600617892936
 20
51.6267265700250704
 30
0.0
 11
120.9143772085103024
 21
53.7843437167460365
 31
0.0
  0
LINE
  5
186B
  8
0
 62
     0
 10
120.9143772085103024
 20
54.4914504979325827
 30
0.0
 11
120.9383706859881045
 21
54.5154439754103635
 31
0.0
  0
LINE
  5
186C
  8
0
 62
     0
 10
120.9383706859881045
 20
54.5154439754103635
 30
0.0
 11
123.4758554785137932
 21
57.0529287679361303
 31
0.0
  0
LINE
  5
186D
  8
0
 62
     0
 10
118.3768924159845
 20
51.9539657054067874
 30
0.0
 11
120.9143772085103024
 21
54.4914504979325827
 31
0.0
  0
LINE
  5
186E
  8
0
 62
     0
 10
120.2312639048014944
 20
54.5154439754103635
 30
0.0
 11
120.9143772085103024
 21
55.1985572791191288
 31
0.0
  0
LINE
  5
186F
  8
0
 62
     0
 10
120.9143772085103024
 20
55.1985572791191288
 30
0.0
 11
123.0993476302440968
 21
57.3835277008529232
 31
0.0
  0
LINE
  5
1870
  8
0
 62
     0
 10
118.0462934830677
 20
52.3304735536765619
 30
0.0
 11
120.2312639048014944
 21
54.5154439754103635
 31
0.0
  0
LINE
  5
1871
  8
0
 62
     0
 10
119.524157123614998
 20
54.5154439754103635
 30
0.0
 11
120.9143772085103024
 21
55.905664060305682
 31
0.0
  0
LINE
  5
1872
  8
0
 62
     0
 10
120.9143772085103024
 20
55.905664060305682
 30
0.0
 11
122.6721882876824026
 21
57.6634751394777822
 31
0.0
  0
LINE
  5
1873
  8
0
 62
     0
 10
117.7663460444427983
 20
52.7576328962382419
 30
0.0
 11
119.524157123614998
 21
54.5154439754103635
 31
0.0
  0
LINE
  5
1874
  8
0
 62
     0
 10
118.8170503424284021
 20
54.5154439754103635
 30
0.0
 11
120.9143772085103024
 21
56.6127708414922282
 31
0.0
  0
LINE
  5
1875
  8
0
 62
     0
 10
120.9143772085103024
 20
56.6127708414922282
 30
0.0
 11
122.1895694087226047
 21
57.8879630417045092
 31
0.0
  0
LINE
  5
1876
  8
0
 62
     0
 10
117.5418581422160997
 20
53.2402517751980398
 30
0.0
 11
118.8170503424284021
 21
54.5154439754103635
 31
0.0
  0
LINE
  5
1877
  8
0
 62
     0
 10
118.1099435612419057
 20
54.5154439754103635
 30
0.0
 11
120.9143772085103024
 21
57.3198776226787672
 31
0.0
  0
LINE
  5
1878
  8
0
 62
     0
 10
120.9143772085103024
 20
57.3198776226787672
 30
0.0
 11
121.6414297383203973
 21
58.0469301524888621
 31
0.0
  0
LINE
  5
1879
  8
0
 62
     0
 10
117.3828910314317966
 20
53.7883914456002401
 30
0.0
 11
118.1099435612419057
 21
54.5154439754103635
 31
0.0
  0
LINE
  5
187A
  8
0
 62
     0
 10
117.4028367800552957
 20
54.5154439754103635
 30
0.0
 11
120.9143772085103024
 21
58.0269844038653204
 31
0.0
  0
LINE
  5
187B
  8
0
 62
     0
 10
120.9143772085103024
 20
58.0269844038653204
 30
0.0
 11
121.0071931986106932
 21
58.1198003939657681
 31
0.0
  0
LINE
  5
187C
  8
0
 62
     0
 10
117.3100207899548053
 20
54.4226279853099015
 30
0.0
 11
117.4028367800552957
 21
54.5154439754103635
 31
0.0
  0
LINE
  5
187D
  8
0
 62
     0
 10
117.3730082377369968
 20
55.192722214278632
 30
0.0
 11
120.2370989696420054
 21
58.0568129461835767
 31
0.0
  0
LINE
  5
187E
  8
0
 62
     0
 10
117.792533669590199
 20
56.3193544273183093
 30
0.0
 11
119.1104667566023068
 21
57.6372875143304384
 31
0.0
  0
ENDBLK
  5
1880
  8
0
  0
ENDSEC
  0
SECTION
  2
ENTITIES
  0
INSERT
  5
DE
  8
0
  2
STDGX5
 10
0.0
 20
0.0
 30
0.0
  0
INSERT
  5
DF
  8
0
  2
STDGX5
 10
0.0
 20
0.0
 30
0.0
  0
INSERT
  5
15C
  8
0
  2
STDGX5
 10
275.0
 20
0.0
 30
0.0
  0
INSERT
  5
15D
  8
0
  2
STDGX5
 10
275.0
 20
0.0
 30
0.0
  0
LINE
  5
50F
  8
0
 10
77.1422771047443092
 20
91.9888950308224054
 30
0.0
 11
82.7323511047442963
 21
101.6711880308224067
 31
0.0
  0
LINE
  5
511
  8
0
 10
77.1422771047443092
 20
112.9888950308224054
 30
0.0
 11
82.7323511047442963
 21
103.306602030822404
 31
0.0
  0
LINE
  5
512
  8
0
 10
82.7323511047442963
 20
103.306602030822404
 30
0.0
 11
82.7323511047442963
 21
101.6711880308224067
 31
0.0
  0
LINE
  5
513
  8
0
 10
64.3224261047443093
 20
112.9888950308224054
 30
0.0
 11
58.7323511047442892
 21
103.306602030822404
 31
0.0
  0
LINE
  5
514
  8
0
 10
58.7323511047442892
 20
103.306602030822404
 30
0.0
 11
58.7323511047442892
 21
101.6711880308224067
 31
0.0
  0
LINE
  5
516
  8
0
 10
64.3224261047443093
 20
91.9888950308224054
 30
0.0
 11
58.7323511047442892
 21
101.6711880308224067
 31
0.0
  0
LINE
  5
624
  8
0
 10
64.5323511047442935
 20
115.9888950308224054
 30
0.0
 11
76.9323511047442992
 21
115.9888950308224054
 31
0.0
  0
ARC
  5
625
  8
0
 10
61.7411861047443011
 20
114.7570340308223962
 30
0.0
 40
2.0055089999999991
 50
119.2254989999999992
 51
241.8409389999999917
  0
ARC
  5
626
  8
0
 10
62.5824311047443018
 20
114.7570340308223962
 30
0.0
 40
2.0055089999999991
 50
119.2254989999999992
 51
241.8409389999999917
  0
ARC
  5
627
  8
0
 10
63.4236771047443
 20
114.7570340308223962
 30
0.0
 40
2.0055089999999991
 50
119.2254989999999992
 51
241.8409389999999917
  0
ARC
  5
628
  8
0
 10
64.2649221047443007
 20
114.7570340308223962
 30
0.0
 40
2.0055089999999991
 50
119.2254989999999992
 51
241.8409389999999917
  0
ARC
  5
629
  8
0
 10
65.1061681047442988
 20
114.7570340308223962
 30
0.0
 40
2.0055089999999991
 50
119.2254989999999992
 51
241.8409389999999917
  0
ARC
  5
62A
  8
0
 10
66.1565071047442927
 20
114.7570340308223962
 30
0.0
 40
2.214602999999999
 50
143.071202999999997
 51
222.8291010000000085
  0
LINE
  5
62B
  8
0
 10
64.5323511047442935
 20
112.9888950308224054
 30
0.0
 11
64.5323511047442935
 21
115.9888950308224054
 31
0.0
  0
LINE
  5
62C
  8
0
 10
59.4461701047442972
 20
116.5072510308224025
 30
0.0
 11
64.5323511047442935
 21
116.5072510308224025
 31
0.0
  0
ARC
  5
62D
  8
0
 10
62.5824311047443018
 20
114.7570340308223962
 30
0.0
 40
2.0055089999999991
 50
119.2254989999999992
 51
241.8409389999999917
  0
ARC
  5
62E
  8
0
 10
63.4236771047443
 20
114.7570340308223962
 30
0.0
 40
2.0055089999999991
 50
119.2254989999999992
 51
241.8409389999999917
  0
ARC
  5
62F
  8
0
 10
60.9585821047442877
 20
114.7570340308223962
 30
0.0
 40
2.0055089999999991
 50
119.2254989999999992
 51
241.8409389999999917
  0
ARC
  5
630
  8
0
 10
80.5061201047442836
 20
114.7570340308223962
 30
0.0
 40
2.0055089999999991
 50
298.1590610000000083
 51
60.7745010000000008
  0
ARC
  5
631
  8
0
 10
78.0410251047443069
 20
114.7570340308223962
 30
0.0
 40
2.0055089999999991
 50
298.1590610000000083
 51
60.7745010000000008
  0
ARC
  5
632
  8
0
 10
78.8822711047442908
 20
114.7570340308223962
 30
0.0
 40
2.0055089999999991
 50
298.1590610000000083
 51
60.7745010000000008
  0
LINE
  5
633
  8
0
 10
82.0185321047442955
 20
116.5072510308224025
 30
0.0
 11
76.9323511047442992
 21
116.5072510308224025
 31
0.0
  0
LINE
  5
634
  8
0
 10
76.9323511047442992
 20
112.9888950308224054
 30
0.0
 11
76.9323511047442992
 21
115.9888950308224054
 31
0.0
  0
ARC
  5
635
  8
0
 10
74.1691311047442952
 20
114.7570340308223962
 30
0.0
 40
2.933044999999999
 50
340.4072100000000205
 51
19.5927900000000008
  0
ARC
  5
636
  8
0
 10
75.3081961047442974
 20
114.7570340308223962
 30
0.0
 40
2.214602999999999
 50
317.1708990000000199
 51
52.117646999999991
  0
ARC
  5
637
  8
0
 10
76.3585351047443055
 20
114.7570340308223962
 30
0.0
 40
2.0055089999999991
 50
298.1590610000000083
 51
60.7745010000000008
  0
ARC
  5
638
  8
0
 10
77.199780104744292
 20
114.7570340308223962
 30
0.0
 40
2.0055089999999991
 50
298.1590610000000083
 51
60.7745010000000008
  0
ARC
  5
639
  8
0
 10
78.0410251047443069
 20
114.7570340308223962
 30
0.0
 40
2.0055089999999991
 50
298.1590610000000083
 51
60.7745010000000008
  0
ARC
  5
63A
  8
0
 10
78.8822711047442908
 20
114.7570340308223962
 30
0.0
 40
2.0055089999999991
 50
298.1590610000000083
 51
60.7745010000000008
  0
ARC
  5
63B
  8
0
 10
79.7235161047443057
 20
114.7570340308223962
 30
0.0
 40
2.0055089999999991
 50
298.1590610000000083
 51
60.7745010000000008
  0
ARC
  5
63C
  8
0
 10
65.8867311047442996
 20
114.7570340308223962
 30
0.0
 40
2.0055089999999991
 50
119.2254989999999992
 51
138.4354390000000024
  0
ARC
  5
63D
  8
0
 10
68.3518251047443073
 20
114.7570340308223962
 30
0.0
 40
2.0055089999999991
 50
119.2254989999999992
 51
142.1033749999999998
  0
ARC
  5
63E
  8
0
 10
67.5105801047442924
 20
114.7570340308223962
 30
0.0
 40
2.0055089999999991
 50
119.2254989999999992
 51
142.1033749999999998
  0
LINE
  5
63F
  8
0
 10
64.8922911047443023
 20
116.5072510308224025
 30
0.0
 11
70.7323511047442963
 21
116.5072510308224025
 31
0.0
  0
ARC
  5
640
  8
0
 10
68.3518251047443073
 20
114.7570340308223962
 30
0.0
 40
2.0055089999999991
 50
119.2254989999999992
 51
142.1033749999999998
  0
ARC
  5
641
  8
0
 10
67.5105801047442924
 20
114.7570340308223962
 30
0.0
 40
2.0055089999999991
 50
119.2254989999999992
 51
142.1033749999999998
  0
ARC
  5
642
  8
0
 10
66.6693341047442942
 20
114.7570340308223962
 30
0.0
 40
2.0055089999999991
 50
119.2254989999999992
 51
142.1033749999999998
  0
LINE
  5
643
  8
0
 10
64.5323511047442935
 20
116.5072510308224025
 30
0.0
 11
64.9075451047443011
 21
116.5072510308224025
 31
0.0
  0
LINE
  5
644
  8
0
 10
70.7323511047442963
 20
116.5072510308224025
 30
0.0
 11
70.7323511047442963
 21
115.9888950308224054
 31
0.0
  0
ARC
  5
645
  8
0
 10
92.6159811047442787
 20
114.7480730308223968
 30
0.0
 40
21.954224
 50
175.4039980000000014
 51
176.7599969999999985
  0
ARC
  5
646
  8
0
 10
92.0024431047442874
 20
114.7480730308223968
 30
0.0
 40
21.954224
 50
175.4039980000000014
 51
176.7599969999999985
  0
ARC
  5
647
  8
0
 10
73.4025691047443019
 20
114.7480730308223968
 30
0.0
 40
4.3264969999999989
 50
156.0082140000000095
 51
163.3337669999999946
  0
ARC
  5
648
  8
0
 10
72.6993961047442951
 20
114.7480730308223968
 30
0.0
 40
4.3264969999999989
 50
156.0082140000000095
 51
163.3337669999999946
  0
ARC
  5
649
  8
0
 10
71.9371061047443021
 20
114.7480730308223968
 30
0.0
 40
4.3264969999999989
 50
156.0082140000000095
 51
163.3337669999999946
  0
ARC
  5
64A
  8
0
 10
74.7953681047442984
 20
114.7570340308223962
 30
0.0
 40
2.0055089999999991
 50
37.8966250000000002
 51
60.7745010000000008
  0
ARC
  5
64B
  8
0
 10
69.5275961047443047
 20
114.7480730308223968
 30
0.0
 40
4.3264969999999989
 50
16.6662329999999983
 51
23.9917860000000012
  0
ARC
  5
64C
  8
0
 10
68.765307104744295
 20
114.7480730308223968
 30
0.0
 40
4.3264969999999989
 50
16.6662329999999983
 51
23.9917860000000012
  0
ARC
  5
64D
  8
0
 10
68.0621331047442908
 20
114.7480730308223968
 30
0.0
 40
4.3264969999999989
 50
16.6662329999999983
 51
23.9917860000000012
  0
ARC
  5
64E
  8
0
 10
49.4622591047442981
 20
114.7480730308223968
 30
0.0
 40
21.954224
 50
3.2400029999999989
 51
4.5960019999999986
  0
ARC
  5
64F
  8
0
 10
48.8487211047442997
 20
114.7480730308223968
 30
0.0
 40
21.954224
 50
3.2400029999999989
 51
4.5960019999999986
  0
LINE
  5
650
  8
0
 10
70.7323511047442963
 20
116.5072510308224025
 30
0.0
 11
70.7323511047442963
 21
115.9888950308224054
 31
0.0
  0
ARC
  5
651
  8
0
 10
73.9541231047442977
 20
114.7570340308223962
 30
0.0
 40
2.0055089999999991
 50
37.8966250000000002
 51
60.7745010000000008
  0
ARC
  5
652
  8
0
 10
73.1128771047442996
 20
114.7570340308223962
 30
0.0
 40
2.0055089999999991
 50
37.8966250000000002
 51
60.7745010000000008
  0
ARC
  5
653
  8
0
 10
73.9541231047442977
 20
114.7570340308223962
 30
0.0
 40
2.0055089999999991
 50
37.8966250000000002
 51
60.7745010000000008
  0
ARC
  5
654
  8
0
 10
73.1128771047442996
 20
114.7570340308223962
 30
0.0
 40
2.0055089999999991
 50
37.8966250000000002
 51
60.7745010000000008
  0
LINE
  5
655
  8
0
 10
76.5724111047443046
 20
116.5072510308224025
 30
0.0
 11
70.7323511047442963
 21
116.5072510308224025
 31
0.0
  0
LINE
  5
656
  8
0
 10
76.5724111047443046
 20
116.5072510308224025
 30
0.0
 11
76.9323511047442992
 21
116.5072510308224025
 31
0.0
  0
LINE
  5
657
  8
0
 10
54.7323515107648717
 20
91.9888950308224054
 30
0.0
 11
86.7323515107648859
 21
91.9888950308224054
 31
0.0
  0
LINE
  5
658
  8
0
 10
54.7323515107648717
 20
112.9888950308224054
 30
0.0
 11
86.7323515107648859
 21
112.9888950308224054
 31
0.0
  0
TEXT
  5
663
  8
0
 10
63.9590461047443029
 20
109.6496880308224036
 30
0.0
 40
2.0791059999999999
  1
OK-VISE
  0
TEXT
  5
664
  8
0
 10
64.7281571047442981
 20
92.6455680308224316
 30
0.0
 40
2.0791059999999999
  1
BK2-VT
  0
LINE
  5
66B
  8
0
 10
82.0185321047442955
 20
88.4705390308224224
 30
0.0
 11
70.7323511047442963
 21
88.4705390308224224
 31
0.0
  0
ARC
  5
66C
  8
0
 10
73.1128771047442996
 20
90.2207570308224263
 30
0.0
 40
2.0055089999999991
 50
299.2254990000000134
 51
322.1033750000000282
  0
ARC
  5
66D
  8
0
 10
73.9541231047442977
 20
90.2207570308224263
 30
0.0
 40
2.0055089999999991
 50
299.2254990000000134
 51
322.1033750000000282
  0
ARC
  5
66E
  8
0
 10
73.1128771047442996
 20
90.2207570308224263
 30
0.0
 40
2.0055089999999991
 50
299.2254990000000134
 51
322.1033750000000282
  0
ARC
  5
66F
  8
0
 10
73.9541231047442977
 20
90.2207570308224263
 30
0.0
 40
2.0055089999999991
 50
299.2254990000000134
 51
322.1033750000000282
  0
LINE
  5
670
  8
0
 10
70.7323511047442963
 20
88.4705390308224224
 30
0.0
 11
70.7323511047442963
 21
88.9888950308224338
 31
0.0
  0
ARC
  5
671
  8
0
 10
48.8487211047442997
 20
90.2297170308224281
 30
0.0
 40
21.954224
 50
355.4039980000000014
 51
356.7599969999999985
  0
ARC
  5
672
  8
0
 10
49.4622591047442981
 20
90.2297170308224281
 30
0.0
 40
21.954224
 50
355.4039980000000014
 51
356.7599969999999985
  0
ARC
  5
673
  8
0
 10
68.0621331047442908
 20
90.2297170308224281
 30
0.0
 40
4.3264969999999989
 50
336.0082140000000095
 51
343.333767000000023
  0
ARC
  5
674
  8
0
 10
68.765307104744295
 20
90.2297170308224281
 30
0.0
 40
4.3264969999999989
 50
336.0082140000000095
 51
343.333767000000023
  0
ARC
  5
675
  8
0
 10
69.5275961047443047
 20
90.2297170308224281
 30
0.0
 40
4.3264969999999989
 50
336.0082140000000095
 51
343.333767000000023
  0
ARC
  5
676
  8
0
 10
74.7953681047442984
 20
90.2207570308224263
 30
0.0
 40
2.0055089999999991
 50
299.2254990000000134
 51
322.1033750000000282
  0
ARC
  5
677
  8
0
 10
71.9371061047443021
 20
90.2297170308224281
 30
0.0
 40
4.3264969999999989
 50
196.6662330000000054
 51
203.9917859999999905
  0
ARC
  5
678
  8
0
 10
72.6993961047442951
 20
90.2297170308224281
 30
0.0
 40
4.3264969999999989
 50
196.6662330000000054
 51
203.9917859999999905
  0
ARC
  5
679
  8
0
 10
73.4025691047443019
 20
90.2297170308224281
 30
0.0
 40
4.3264969999999989
 50
196.6662330000000054
 51
203.9917859999999905
  0
ARC
  5
67A
  8
0
 10
92.0024431047442874
 20
90.2297170308224281
 30
0.0
 40
21.954224
 50
183.2400030000000015
 51
184.5960019999999986
  0
ARC
  5
67B
  8
0
 10
92.6159811047442787
 20
90.2297170308224281
 30
0.0
 40
21.954224
 50
183.2400030000000015
 51
184.5960019999999986
  0
LINE
  5
67C
  8
0
 10
70.7323511047442963
 20
88.4705390308224224
 30
0.0
 11
70.7323511047442963
 21
88.9888950308224338
 31
0.0
  0
LINE
  5
67D
  8
0
 10
64.5323511047442935
 20
88.4705390308224224
 30
0.0
 11
64.9075451047443011
 21
88.4705390308224224
 31
0.0
  0
ARC
  5
67E
  8
0
 10
66.6693341047442942
 20
90.2207570308224263
 30
0.0
 40
2.0055089999999991
 50
217.8966250000000002
 51
240.7745009999999866
  0
ARC
  5
67F
  8
0
 10
67.5105801047442924
 20
90.2207570308224263
 30
0.0
 40
2.0055089999999991
 50
217.8966250000000002
 51
240.7745009999999866
  0
ARC
  5
680
  8
0
 10
68.3518251047443073
 20
90.2207570308224263
 30
0.0
 40
2.0055089999999991
 50
217.8966250000000002
 51
240.7745009999999866
  0
LINE
  5
681
  8
0
 10
64.8922911047443023
 20
88.4705390308224224
 30
0.0
 11
70.7323511047442963
 21
88.4705390308224224
 31
0.0
  0
ARC
  5
682
  8
0
 10
67.5105801047442924
 20
90.2207570308224263
 30
0.0
 40
2.0055089999999991
 50
217.8966250000000002
 51
240.7745009999999866
  0
ARC
  5
683
  8
0
 10
68.3518251047443073
 20
90.2207570308224263
 30
0.0
 40
2.0055089999999991
 50
217.8966250000000002
 51
240.7745009999999866
  0
ARC
  5
684
  8
0
 10
65.8867311047442996
 20
90.2207570308224263
 30
0.0
 40
2.0055089999999991
 50
221.5645609999999976
 51
240.7745009999999866
  0
ARC
  5
685
  8
0
 10
79.7235161047443057
 20
90.2207570308224263
 30
0.0
 40
2.0055089999999991
 50
299.2254990000000134
 51
61.8409389999999917
  0
ARC
  5
686
  8
0
 10
78.8822711047442908
 20
90.2207570308224263
 30
0.0
 40
2.0055089999999991
 50
299.2254990000000134
 51
61.8409389999999917
  0
ARC
  5
687
  8
0
 10
78.0410251047443069
 20
90.2207570308224263
 30
0.0
 40
2.0055089999999991
 50
299.2254990000000134
 51
61.8409389999999917
  0
ARC
  5
688
  8
0
 10
77.199780104744292
 20
90.2207570308224263
 30
0.0
 40
2.0055089999999991
 50
299.2254990000000134
 51
61.8409389999999917
  0
ARC
  5
689
  8
0
 10
76.3585351047443055
 20
90.2207570308224263
 30
0.0
 40
2.0055089999999991
 50
299.2254990000000134
 51
61.8409389999999917
  0
ARC
  5
68A
  8
0
 10
75.3081961047442974
 20
90.2207570308224263
 30
0.0
 40
2.214602999999999
 50
307.7857158580947043
 51
42.8291010000000014
  0
ARC
  5
68B
  8
0
 10
74.1691311047442952
 20
90.2207570308224263
 30
0.0
 40
2.933044999999999
 50
340.4072100000000205
 51
19.5927900000000008
  0
LINE
  5
68C
  8
0
 10
76.9323511047442992
 20
91.9888950308224054
 30
0.0
 11
76.9323511047442992
 21
88.9888950308224338
 31
0.0
  0
ARC
  5
68D
  8
0
 10
78.8822711047442908
 20
90.2207570308224263
 30
0.0
 40
2.0055089999999991
 50
299.2254990000000134
 51
61.8409389999999917
  0
ARC
  5
68E
  8
0
 10
78.0410251047443069
 20
90.2207570308224263
 30
0.0
 40
2.0055089999999991
 50
299.2254990000000134
 51
61.8409389999999917
  0
ARC
  5
68F
  8
0
 10
80.5061201047442836
 20
90.2207570308224263
 30
0.0
 40
2.0055089999999991
 50
299.2254990000000134
 51
61.8409389999999917
  0
ARC
  5
690
  8
0
 10
60.9585821047442877
 20
90.2207570308224263
 30
0.0
 40
2.0055089999999991
 50
118.1590609999999941
 51
240.7745009999999866
  0
ARC
  5
691
  8
0
 10
63.4236771047443
 20
90.2207570308224263
 30
0.0
 40
2.0055089999999991
 50
118.1590609999999941
 51
240.7745009999999866
  0
ARC
  5
692
  8
0
 10
62.5824311047443018
 20
90.2207570308224263
 30
0.0
 40
2.0055089999999991
 50
118.1590609999999941
 51
240.7745009999999866
  0
LINE
  5
693
  8
0
 10
59.4461701047442972
 20
88.4705390308224224
 30
0.0
 11
64.5323511047442935
 21
88.4705390308224224
 31
0.0
  0
LINE
  5
694
  8
0
 10
64.5323511047442935
 20
91.9888950308224054
 30
0.0
 11
64.5323511047442935
 21
88.9888950308224338
 31
0.0
  0
ARC
  5
695
  8
0
 10
66.1565071047442927
 20
90.2207570308224263
 30
0.0
 40
2.214602999999999
 50
137.1708989999999915
 51
216.928797000000003
  0
ARC
  5
696
  8
0
 10
65.1061681047442988
 20
90.2207570308224263
 30
0.0
 40
2.0055089999999991
 50
118.1590609999999941
 51
240.7745009999999866
  0
ARC
  5
697
  8
0
 10
64.2649221047443007
 20
90.2207570308224263
 30
0.0
 40
2.0055089999999991
 50
118.1590609999999941
 51
240.7745009999999866
  0
ARC
  5
698
  8
0
 10
63.4236771047443
 20
90.2207570308224263
 30
0.0
 40
2.0055089999999991
 50
118.1590609999999941
 51
240.7745009999999866
  0
ARC
  5
699
  8
0
 10
62.5824311047443018
 20
90.2207570308224263
 30
0.0
 40
2.0055089999999991
 50
118.1590609999999941
 51
240.7745009999999866
  0
ARC
  5
69A
  8
0
 10
61.7411861047443011
 20
90.2207570308224263
 30
0.0
 40
2.0055089999999991
 50
118.1590609999999941
 51
240.7745009999999866
  0
LINE
  5
69B
  8
0
 10
64.5323511047442935
 20
88.9888950308224338
 30
0.0
 11
76.9323511047442992
 21
88.9888950308224338
 31
0.0
  0
ARC
  5
6DB
  8
0
 10
71.2323511047442963
 20
102.4888950308224054
 30
0.0
 40
6.75
 50
270.0
 51
90.0
  0
ARC
  5
6DC
  8
0
 10
71.2323511047442963
 20
102.4888950308224054
 30
0.0
 40
4.25
 50
270.0
 51
90.0
  0
ARC
  5
6DD
  8
0
 10
70.2323511047442963
 20
102.4888950308224054
 30
0.0
 40
4.25
 50
90.0
 51
270.0
  0
ARC
  5
6DE
  8
0
 10
70.2323511047442963
 20
102.4888950308224054
 30
0.0
 40
6.75
 50
90.0
 51
270.0
  0
LINE
  5
6DF
  8
0
 10
70.2323511047442963
 20
98.2388950308224054
 30
0.0
 11
71.2323511047442963
 21
98.2388950308224054
 31
0.0
  0
LINE
  5
6E0
  8
0
 10
70.2323511047442963
 20
106.7388950308224054
 30
0.0
 11
71.2323511047442963
 21
106.7388950308224054
 31
0.0
  0
LINE
  5
6E1
  8
0
 10
70.2323511047442963
 20
109.2388950308224054
 30
0.0
 11
71.2323511047442963
 21
109.2388950308224054
 31
0.0
  0
LINE
  5
6E2
  8
0
 10
71.2323511047442963
 20
95.7388950308224054
 30
0.0
 11
70.2323511047442963
 21
95.7388950308224054
 31
0.0
  0
LINE
  5
6F0
  8
0
 10
60.2326351047442969
 20
87.9888950308224054
 30
0.0
 11
64.232635104744304
 21
87.9888950308224054
 31
0.0
  0
LINE
  5
6F1
  8
0
 10
64.232635104744304
 20
87.9888950308224054
 30
0.0
 11
64.232635104744304
 21
88.4705390308224224
 31
0.0
  0
ARC
  5
6F8
  8
0
 10
60.4253565627967717
 20
90.2207567535571542
 30
0.0
 40
2.0055094606129491
 50
118.1590687991175059
 51
240.7744918451570868
  0
ARC
  5
6F9
  8
0
 10
60.2326351047442969
 20
88.4888950308224196
 30
0.0
 40
0.5
 50
182.1039399999999091
 51
270.0
  0
ARC
  5
6FA
  8
0
 10
81.0393456466918281
 20
90.2207567535571542
 30
0.0
 40
2.0055094606129602
 50
299.2255081548427142
 51
61.8409312008827072
  0
ARC
  5
6FB
  8
0
 10
81.2320681047443003
 20
88.4888950308224196
 30
0.0
 40
0.5
 50
270.0
 51
357.8960599999999772
  0
LINE
  5
6FC
  8
0
 10
77.2320681047443003
 20
87.9888950308224054
 30
0.0
 11
77.2320681047443003
 21
88.4705390308224224
 31
0.0
  0
LINE
  5
6FD
  8
0
 10
81.2320681047443003
 20
87.9888950308224054
 30
0.0
 11
77.2320681047443003
 21
87.9888950308224054
 31
0.0
  0
ARC
  5
6FE
  8
0
 10
60.4253557281530504
 20
114.757033802866701
 30
0.0
 40
2.0055086213036648
 50
119.2254942467102978
 51
241.840945412104702
  0
ARC
  5
6FF
  8
0
 10
81.0393464813355564
 20
114.757033802866701
 30
0.0
 40
2.0055086213036479
 50
298.1590545878946727
 51
60.7745057532898727
  0
ARC
  5
700
  8
0
 10
60.2326351047442969
 20
116.4888950308224054
 30
0.0
 40
0.5
 50
90.0
 51
177.8960600000000056
  0
LINE
  5
701
  8
0
 10
64.232635104744304
 20
116.9888950308224054
 30
0.0
 11
64.232635104744304
 21
116.5072510308224025
 31
0.0
  0
LINE
  5
702
  8
0
 10
60.2326351047442969
 20
116.9888950308224054
 30
0.0
 11
64.232635104744304
 21
116.9888950308224054
 31
0.0
  0
LINE
  5
703
  8
0
 10
81.2320681047443003
 20
116.9888950308224054
 30
0.0
 11
77.2320681047443003
 21
116.9888950308224054
 31
0.0
  0
LINE
  5
704
  8
0
 10
77.2320681047443003
 20
116.9888950308224054
 30
0.0
 11
77.2320681047443003
 21
116.5072510308224025
 31
0.0
  0
ARC
  5
705
  8
0
 10
81.2320681047443003
 20
116.4888950308224054
 30
0.0
 40
0.5
 50
2.1039400000000001
 51
90.0
  0
LINE
  5
71A
  8
1
 10
94.7326784599983824
 20
102.4888950308224054
 30
0.0
 11
46.732024561531361
 21
102.4888950308224054
 31
0.0
  0
TEXT
  5
933
  8
0
 62
     3
 10
0.0
 20
0.0
 30
0.0
 40
10.0
  1
BK2-VT-P
  7
STANDARD1
  0
LINE
  5
D52
  8
0
 10
31.0503250009782903
 20
64.5154439754101219
 30
0.0
 11
31.0503250009782903
 21
47.3654439754101091
 31
0.0
  0
LINE
  5
D53
  8
0
 10
10.0503250009782903
 20
64.5154439754101219
 30
0.0
 11
10.0503250009782903
 21
47.3654439754101091
 31
0.0
  0
LINE
  5
D54
  8
0
 10
30.7003250009782995
 20
47.0154439754101219
 30
0.0
 11
10.4003250009782793
 21
47.0154439754101219
 31
0.0
  0
LINE
  5
D55
  8
0
 10
31.0503250009782903
 20
64.5154439754101219
 30
0.0
 11
10.0503250009782903
 21
64.5154439754101219
 31
0.0
  0
LINE
  5
D56
  8
0
 10
35.0503250009782903
 20
56.8347499754101122
 30
0.0
 11
35.0503250009782903
 21
52.8347499754101193
 31
0.0
  0
LINE
  5
D57
  8
0
 10
34.5686810009783017
 20
59.0063609754101179
 30
0.0
 11
34.5686810009783017
 21
50.6631389754101207
 31
0.0
  0
ARC
  5
D59
  8
0
 10
31.4003250009782917
 20
60.065443975410119
 30
0.0
 40
0.35
 50
90.0
 51
180.0
  0
LINE
  5
D5A
  8
0
 10
34.0503250009782903
 20
59.3592349754101107
 30
0.0
 11
31.4003250009782917
 21
60.4154439754101134
 31
0.0
  0
LINE
  5
D5B
  8
0
 10
33.5117470009782892
 20
59.2154439754101176
 30
0.0
 11
31.8599110009783217
 21
59.8738149754101201
 31
0.0
  0
LINE
  5
D5C
  8
0
 10
33.5117470009782892
 20
59.2154439754101176
 30
0.0
 11
34.0503250009782903
 21
59.3592349754101107
 31
0.0
  0
LINE
  5
D5D
  8
0
 10
31.3803250009783099
 20
59.5486879754101182
 30
0.0
 11
31.3803250009783099
 21
50.1208119754101205
 31
0.0
  0
ARC
  5
D5E
  8
0
 10
31.7303251597090501
 20
59.5486878912505588
 30
0.0
 40
0.3500001587307727
 50
68.2692664150552559
 51
179.9999862228989116
  0
ARC
  5
D5F
  8
0
 10
31.7303251597090394
 20
50.1208120595696727
 30
0.0
 40
0.3500001587307503
 50
180.0000137770998947
 51
291.7307335849482115
  0
LINE
  5
D60
  8
0
 10
33.5117470009782892
 20
50.4540569754101327
 30
0.0
 11
34.0503250009782903
 21
50.3102659754101325
 31
0.0
  0
LINE
  5
D61
  8
0
 10
33.5117470009782892
 20
50.4540569754101327
 30
0.0
 11
31.8599110009783217
 21
49.7956849754101327
 31
0.0
  0
LINE
  5
D62
  8
0
 10
34.0503250009782903
 20
50.3102659754101325
 30
0.0
 11
31.4003250009782917
 21
49.2540569754101227
 31
0.0
  0
ARC
  5
D63
  8
0
 10
31.4003250009782917
 20
49.604056975410117
 30
0.0
 40
0.35
 50
180.0
 51
270.0
  0
ARC
  5
D64
  8
0
 10
32.9745030009783093
 20
47.4152449754101184
 30
0.0
 40
7.588838
 50
77.8736159999999273
 51
102.1263840000001011
  0
ARC
  5
D65
  8
0
 10
32.9745030009783093
 20
47.9288799754101191
 30
0.0
 40
7.588838
 50
77.8736159999999273
 51
102.1263840000001011
  0
ARC
  5
D66
  8
0
 10
32.9745030009783093
 20
48.3033189754101215
 30
0.0
 40
7.588838
 50
77.8736159999999273
 51
102.1263840000001011
  0
ARC
  5
D67
  8
0
 10
32.9745030009783093
 20
49.1578059754101204
 30
0.0
 40
7.588838
 50
77.8736159999999273
 51
102.1263840000001011
  0
ARC
  5
D68
  8
0
 10
32.9745030009783093
 20
49.9786909754101316
 30
0.0
 40
7.588838
 50
77.8736159999999273
 51
102.1263840000001011
  0
ARC
  5
D69
  8
0
 10
32.9745030009783093
 20
50.8523799754101304
 30
0.0
 40
7.588838
 50
77.8736159999999273
 51
102.1263840000001011
  0
ARC
  5
D6A
  8
0
 10
32.9745023345640789
 20
51.5868622493474831
 30
0.0
 40
7.5888317260626668
 50
77.8736012572451699
 51
102.1263890314362044
  0
ARC
  5
D6B
  8
0
 10
32.9745023345640789
 20
58.0826377014727697
 30
0.0
 40
7.5888317260626783
 50
257.8736109685638098
 51
282.1263987427548159
  0
ARC
  5
D6C
  8
0
 10
32.9745030009783093
 20
58.8171199754101224
 30
0.0
 40
7.588838
 50
257.8736159999999131
 51
282.1263840000000869
  0
ARC
  5
D6D
  8
0
 10
32.9745030009783093
 20
59.6908099754101187
 30
0.0
 40
7.588838
 50
257.8736159999999131
 51
282.1263840000000869
  0
ARC
  5
D6E
  8
0
 10
32.9745030009783093
 20
60.5116939754101324
 30
0.0
 40
7.588838
 50
257.8736159999999131
 51
282.1263840000000869
  0
ARC
  5
D6F
  8
0
 10
32.9745030009783093
 20
61.3661819754101074
 30
0.0
 40
7.588838
 50
257.8736159999999131
 51
282.1263840000000869
  0
ARC
  5
D70
  8
0
 10
32.9745030009783093
 20
62.2542559754101106
 30
0.0
 40
7.588838
 50
257.8736159999999131
 51
282.1263840000000869
  0
LINE
  5
D71
  8
0
 10
19.0503250009782903
 20
64.5154439754101219
 30
0.0
 11
19.0503250009782903
 21
62.0154439754101219
 31
0.0
  0
LINE
  5
D72
  8
0
 10
22.0503250009782903
 20
62.0154439754101219
 30
0.0
 11
22.0503250009782903
 21
64.5154439754101219
 31
0.0
  0
ARC
  5
D73
  8
0
 10
32.9745030009783093
 20
61.7406199754101124
 30
0.0
 40
7.588838
 50
257.8736159999999131
 51
282.1263840000000869
  0
ARC
  5
D74
  8
0
 10
8.1261470009783068
 20
61.7406199754101124
 30
0.0
 40
7.588838
 50
257.8736159999999131
 51
282.1263840000000869
  0
ARC
  5
D75
  8
0
 10
8.1261470009783068
 20
62.2542559754101106
 30
0.0
 40
7.588838
 50
257.8736159999999131
 51
282.1263840000000869
  0
ARC
  5
D76
  8
0
 10
8.1261470009783068
 20
61.3661819754101074
 30
0.0
 40
7.588838
 50
257.8736159999999131
 51
282.1263840000000869
  0
ARC
  5
D77
  8
0
 10
8.1261470009783068
 20
60.5116939754101324
 30
0.0
 40
7.588838
 50
257.8736159999999131
 51
282.1263840000000869
  0
ARC
  5
D78
  8
0
 10
8.1261470009783068
 20
59.6908099754101187
 30
0.0
 40
7.588838
 50
257.8736159999999131
 51
282.1263840000000869
  0
ARC
  5
D79
  8
0
 10
8.1261470009783068
 20
58.8171199754101224
 30
0.0
 40
7.588838
 50
257.8736159999999131
 51
282.1263840000000869
  0
ARC
  5
D7A
  8
0
 10
8.1261476673925053
 20
58.0826377014728905
 30
0.0
 40
7.5888317260628
 50
257.8736012572452978
 51
282.1263890314360765
  0
ARC
  5
D7B
  8
0
 10
8.126147667392507
 20
51.5868622493473268
 30
0.0
 40
7.5888317260628222
 50
77.8736109685638667
 51
102.1263987427546027
  0
ARC
  5
D7C
  8
0
 10
8.1261470009783068
 20
50.8523799754101304
 30
0.0
 40
7.588838
 50
77.8736159999999273
 51
102.1263840000001011
  0
ARC
  5
D7D
  8
0
 10
8.1261470009783068
 20
49.9786909754101316
 30
0.0
 40
7.588838
 50
77.8736159999999273
 51
102.1263840000001011
  0
ARC
  5
D7E
  8
0
 10
8.1261470009783068
 20
49.1578059754101204
 30
0.0
 40
7.588838
 50
77.8736159999999273
 51
102.1263840000001011
  0
ARC
  5
D7F
  8
0
 10
8.1261470009783068
 20
48.3033189754101215
 30
0.0
 40
7.588838
 50
77.8736159999999273
 51
102.1263840000001011
  0
ARC
  5
D80
  8
0
 10
8.1261470009783068
 20
47.9288799754101191
 30
0.0
 40
7.588838
 50
77.8736159999999273
 51
102.1263840000001011
  0
ARC
  5
D81
  8
0
 10
8.1261470009783068
 20
47.4152449754101184
 30
0.0
 40
7.588838
 50
77.8736159999999273
 51
102.1263840000001011
  0
ARC
  5
D82
  8
0
 10
9.7003250009782942
 20
49.604056975410117
 30
0.0
 40
0.35
 50
270.0
 51
0.000000000000007
  0
LINE
  5
D83
  8
0
 10
7.0503250009782903
 20
50.3102659754101325
 30
0.0
 11
9.7003250009782942
 21
49.2540569754101227
 31
0.0
  0
LINE
  5
D84
  8
0
 10
7.5889030009782914
 20
50.4540569754101327
 30
0.0
 11
9.2407400009783203
 21
49.7956849754101327
 31
0.0
  0
LINE
  5
D85
  8
0
 10
7.5889030009782914
 20
50.4540569754101327
 30
0.0
 11
7.0503250009782903
 21
50.3102659754101325
 31
0.0
  0
ARC
  5
D86
  8
0
 10
9.3703252640726156
 20
50.120811835916669
 30
0.0
 40
0.3499997369056997
 50
248.2693407817610023
 51
0.0000228354058458
  0
ARC
  5
D87
  8
0
 10
9.3703252640725996
 20
59.5486881149035625
 30
0.0
 40
0.3499997369057113
 50
359.999977164596487
 51
111.730659218234905
  0
LINE
  5
D88
  8
0
 10
9.7203250009783062
 20
59.5486879754101182
 30
0.0
 11
9.7203250009783062
 21
50.1208119754101205
 31
0.0
  0
LINE
  5
D89
  8
0
 10
7.5889030009782914
 20
59.2154439754101176
 30
0.0
 11
7.0503250009782903
 21
59.3592349754101107
 31
0.0
  0
LINE
  5
D8A
  8
0
 10
7.5889030009782914
 20
59.2154439754101176
 30
0.0
 11
9.2407400009783203
 21
59.8738149754101201
 31
0.0
  0
LINE
  5
D8B
  8
0
 10
7.0503250009782903
 20
59.3592349754101107
 30
0.0
 11
9.7003250009782942
 21
60.4154439754101134
 31
0.0
  0
ARC
  5
D8C
  8
0
 10
9.7003250009782942
 20
60.065443975410119
 30
0.0
 40
0.35
 50
0.000000000000007
 51
90.0
  0
LINE
  5
D8E
  8
0
 10
6.531969000978278
 20
59.0063609754101179
 30
0.0
 11
6.531969000978278
 21
50.6631389754101207
 31
0.0
  0
LINE
  5
D8F
  8
0
 10
6.0503250009782903
 20
56.8347499754101122
 30
0.0
 11
6.0503250009782903
 21
52.8347499754101193
 31
0.0
  0
ARC
  5
D90
  8
0
 10
10.4003250009782793
 20
47.3654439754101091
 30
0.0
 40
0.35
 50
180.0
 51
270.0
  0
ARC
  5
D91
  8
0
 10
30.7003250009782995
 20
47.3654439754101091
 30
0.0
 40
0.35
 50
270.0
 51
0.000000000000007
  0
ARC
  5
D92
  8
0
 10
10.4003250009782793
 20
61.6654439754101134
 30
0.0
 40
0.35
 50
90.0
 51
180.0
  0
ARC
  5
D93
  8
0
 10
30.7003250009782995
 20
61.6654439754101134
 30
0.0
 40
0.35
 50
0.000000000000007
 51
90.0
  0
LINE
  5
D94
  8
0
 10
30.7003250009782995
 20
62.0154439754101219
 30
0.0
 11
10.4003250009782793
 21
62.0154439754101219
 31
0.0
  0
ARC
  5
D95
  8
0
 10
34.5503250009782903
 20
56.8347499754101122
 30
0.0
 40
0.5
 50
0.000000000000007
 51
87.8960845625693281
  0
ARC
  5
D96
  8
0
 10
34.5503250009782903
 20
52.8347499754101193
 30
0.0
 40
0.5
 50
272.1039154374307145
 51
0.000000000000007
  0
ARC
  5
D97
  8
0
 10
6.5503250009782903
 20
56.8347499754101122
 30
0.0
 40
0.5
 50
92.1039154374306861
 51
180.0
  0
ARC
  5
D98
  8
0
 10
6.5503250009782903
 20
52.8347499754101193
 30
0.0
 40
0.5
 50
180.0
 51
267.8960845625692855
  0
LINE
  5
D99
  8
1
 10
20.5503250009782903
 20
69.5154439754101219
 30
0.0
 11
20.5503250009782903
 21
42.0154439754101219
 31
0.0
1001
ACAD
1000
ASC_BOUNDS
1002
{
1070
    19
1005
E6C
1005
E6C
1005
E6B
1005
E6B
1002
}
  0
CIRCLE
  5
D9B
  8
0
 10
20.5503250009782903
 20
54.5154439754103421
 30
0.0
 40
3.6055512754639949
1001
ACAD
1000
ASC_BOUNDS
1002
{
1070
    19
1005
E6C
1005
E6C
1005
E6C
1005
E6C
1005
E6B
1005
E6B
1005
E6B
1005
E6B
1002
}
  0
CIRCLE
  5
D9C
  8
0
 10
20.5503250009782583
 20
54.5154439754103421
 30
0.0
 40
4.9999999999999982
  0
CIRCLE
  5
D9D
  8
0
 10
20.5503250009782583
 20
54.5154439754103421
 30
0.0
 40
4.249999999999984
  0
CIRCLE
  5
D9E
  8
0
 10
20.5503250009782086
 20
54.5154439754103635
 30
0.0
 40
5.9999999995170663
  0
LINE
  5
DA1
  8
1
 10
13.0503250014611396
 20
54.5154439754103635
 30
0.0
 11
28.0503250004952704
 21
54.5154439754103635
 31
0.0
1001
ACAD
1000
ASC_BOUNDS
1002
{
1070
    19
1005
E6C
1005
E6C
1005
E6B
1005
E6B
1002
}
  0
LINE
  5
DB1
  8
0
 10
110.4143772085103024
 20
64.5154439754101219
 30
0.0
 11
110.4143772085103024
 21
47.3654439754101091
 31
0.0
  0
LINE
  5
DB2
  8
0
 10
131.4143772085103024
 20
64.5154439754101219
 30
0.0
 11
131.4143772085103024
 21
47.3654439754101091
 31
0.0
  0
LINE
  5
DB3
  8
0
 10
110.7643772085102967
 20
47.0154439754101219
 30
0.0
 11
131.064377208510308
 21
47.0154439754101219
 31
0.0
  0
LINE
  5
DB4
  8
0
 10
110.4143772085103024
 20
64.5154439754101219
 30
0.0
 11
131.4143772085103024
 21
64.5154439754101219
 31
0.0
  0
LINE
  5
DB5
  8
0
 10
106.4143772085103024
 20
56.8347499754101122
 30
0.0
 11
106.4143772085103024
 21
52.8347499754101193
 31
0.0
  0
LINE
  5
DB6
  8
0
 10
106.8960212085103052
 20
59.0063609754101179
 30
0.0
 11
106.8960212085103052
 21
50.6631389754101207
 31
0.0
  0
ARC
  5
DB8
  8
0
 10
110.0643772085102938
 20
60.065443975410119
 30
0.0
 40
0.35
 50
0.000000000000007
 51
90.0
  0
LINE
  5
DB9
  8
0
 10
107.4143772085103024
 20
59.3592349754101107
 30
0.0
 11
110.0643772085102938
 21
60.4154439754101134
 31
0.0
  0
LINE
  5
DBA
  8
0
 10
107.9529552085103035
 20
59.2154439754101176
 30
0.0
 11
109.604791208510207
 21
59.8738149754101201
 31
0.0
  0
LINE
  5
DBB
  8
0
 10
107.9529552085103035
 20
59.2154439754101176
 30
0.0
 11
107.4143772085103024
 21
59.3592349754101107
 31
0.0
  0
LINE
  5
DBC
  8
0
 10
110.0843772085103041
 20
59.5486879754101182
 30
0.0
 11
110.0843772085103041
 21
50.1208119754101205
 31
0.0
  0
ARC
  5
DBD
  8
0
 10
109.7343770497794964
 20
59.548687891250573
 30
0.0
 40
0.350000158730761
 50
0.0000137770998881
 51
111.7307335849446019
  0
ARC
  5
DBE
  8
0
 10
109.7343770497794964
 20
50.1208120595696727
 30
0.0
 40
0.3500001587307568
 50
248.2692664150523001
 51
359.9999862229000769
  0
LINE
  5
DBF
  8
0
 10
107.9529552085103035
 20
50.4540569754101327
 30
0.0
 11
107.4143772085103024
 21
50.3102659754101325
 31
0.0
  0
LINE
  5
DC0
  8
0
 10
107.9529552085103035
 20
50.4540569754101327
 30
0.0
 11
109.604791208510207
 21
49.7956849754101327
 31
0.0
  0
LINE
  5
DC1
  8
0
 10
107.4143772085103024
 20
50.3102659754101325
 30
0.0
 11
110.0643772085102938
 21
49.2540569754101227
 31
0.0
  0
ARC
  5
DC2
  8
0
 10
110.0643772085102938
 20
49.604056975410117
 30
0.0
 40
0.35
 50
270.0
 51
0.000000000000007
  0
ARC
  5
DC3
  8
0
 10
108.4901992085103046
 20
47.4152449754101184
 30
0.0
 40
7.588838
 50
77.8736159999999273
 51
102.1263840000001011
  0
ARC
  5
DC4
  8
0
 10
108.4901992085103046
 20
47.9288799754101191
 30
0.0
 40
7.588838
 50
77.8736159999999273
 51
102.1263840000001011
  0
ARC
  5
DC5
  8
0
 10
108.4901992085103046
 20
48.3033189754101215
 30
0.0
 40
7.588838
 50
77.8736159999999273
 51
102.1263840000001011
  0
ARC
  5
DC6
  8
0
 10
108.4901992085103046
 20
49.1578059754101204
 30
0.0
 40
7.588838
 50
77.8736159999999273
 51
102.1263840000001011
  0
ARC
  5
DC7
  8
0
 10
108.4901992085103046
 20
49.9786909754101316
 30
0.0
 40
7.588838
 50
77.8736159999999273
 51
102.1263840000001011
  0
ARC
  5
DC8
  8
0
 10
108.4901992085103046
 20
50.8523799754101304
 30
0.0
 40
7.588838
 50
77.8736159999999273
 51
102.1263840000001011
  0
ARC
  5
DC9
  8
0
 10
108.4901998749244996
 20
51.5868622493474405
 30
0.0
 40
7.5888317260627192
 50
77.8736109685636535
 51
102.1263987427545032
  0
ARC
  5
DCA
  8
0
 10
108.4901998749244996
 20
58.0826377014727484
 30
0.0
 40
7.5888317260626552
 50
257.8736012572452978
 51
282.1263890314364744
  0
ARC
  5
DCB
  8
0
 10
108.4901992085103046
 20
58.8171199754101224
 30
0.0
 40
7.588838
 50
257.8736159999999131
 51
282.1263840000000869
  0
ARC
  5
DCC
  8
0
 10
108.4901992085103046
 20
59.6908099754101187
 30
0.0
 40
7.588838
 50
257.8736159999999131
 51
282.1263840000000869
  0
ARC
  5
DCD
  8
0
 10
108.4901992085103046
 20
60.5116939754101324
 30
0.0
 40
7.588838
 50
257.8736159999999131
 51
282.1263840000000869
  0
ARC
  5
DCE
  8
0
 10
108.4901992085103046
 20
61.3661819754101074
 30
0.0
 40
7.588838
 50
257.8736159999999131
 51
282.1263840000000869
  0
ARC
  5
DCF
  8
0
 10
108.4901992085103046
 20
62.2542559754101106
 30
0.0
 40
7.588838
 50
257.8736159999999131
 51
282.1263840000000869
  0
LINE
  5
DD0
  8
0
 10
122.4143772085103024
 20
64.5154439754101219
 30
0.0
 11
122.4143772085103024
 21
62.0154439754101219
 31
0.0
  0
LINE
  5
DD1
  8
0
 10
119.4143772085103024
 20
62.0154439754101219
 30
0.0
 11
119.4143772085103024
 21
64.5154439754101219
 31
0.0
  0
ARC
  5
DD2
  8
0
 10
108.4901992085103046
 20
61.7406199754101124
 30
0.0
 40
7.588838
 50
257.8736159999999131
 51
282.1263840000000869
  0
ARC
  5
DD3
  8
0
 10
133.3385552085102859
 20
61.7406199754101124
 30
0.0
 40
7.588838
 50
257.8736159999999131
 51
282.1263840000000869
  0
ARC
  5
DD4
  8
0
 10
133.3385552085102859
 20
62.2542559754101106
 30
0.0
 40
7.588838
 50
257.8736159999999131
 51
282.1263840000000869
  0
ARC
  5
DD5
  8
0
 10
133.3385552085102859
 20
61.3661819754101074
 30
0.0
 40
7.588838
 50
257.8736159999999131
 51
282.1263840000000869
  0
ARC
  5
DD6
  8
0
 10
133.3385552085102859
 20
60.5116939754101324
 30
0.0
 40
7.588838
 50
257.8736159999999131
 51
282.1263840000000869
  0
ARC
  5
DD7
  8
0
 10
133.3385552085102859
 20
59.6908099754101187
 30
0.0
 40
7.588838
 50
257.8736159999999131
 51
282.1263840000000869
  0
ARC
  5
DD8
  8
0
 10
133.3385552085102859
 20
58.8171199754101224
 30
0.0
 40
7.588838
 50
257.8736159999999131
 51
282.1263840000000869
  0
ARC
  5
DD9
  8
0
 10
133.3385545420960909
 20
58.0826377014728266
 30
0.0
 40
7.5888317260627423
 50
257.8736109685635824
 51
282.1263987427544748
  0
ARC
  5
DDA
  8
0
 10
133.3385545420960909
 20
51.5868622493471705
 30
0.0
 40
7.5888317260629732
 50
77.8736012572456673
 51
102.1263890314360054
  0
ARC
  5
DDB
  8
0
 10
133.3385552085102859
 20
50.8523799754101304
 30
0.0
 40
7.588838
 50
77.8736159999999273
 51
102.1263840000001011
  0
ARC
  5
DDC
  8
0
 10
133.3385552085102859
 20
49.9786909754101316
 30
0.0
 40
7.588838
 50
77.8736159999999273
 51
102.1263840000001011
  0
ARC
  5
DDD
  8
0
 10
133.3385552085102859
 20
49.1578059754101204
 30
0.0
 40
7.588838
 50
77.8736159999999273
 51
102.1263840000001011
  0
ARC
  5
DDE
  8
0
 10
133.3385552085102859
 20
48.3033189754101215
 30
0.0
 40
7.588838
 50
77.8736159999999273
 51
102.1263840000001011
  0
ARC
  5
DDF
  8
0
 10
133.3385552085102859
 20
47.9288799754101191
 30
0.0
 40
7.588838
 50
77.8736159999999273
 51
102.1263840000001011
  0
ARC
  5
DE0
  8
0
 10
133.3385552085102859
 20
47.4152449754101184
 30
0.0
 40
7.588838
 50
77.8736159999999273
 51
102.1263840000001011
  0
ARC
  5
DE1
  8
0
 10
131.7643772085102967
 20
49.604056975410117
 30
0.0
 40
0.35
 50
180.0
 51
270.0
  0
LINE
  5
DE2
  8
0
 10
134.4143772085103024
 20
50.3102659754101325
 30
0.0
 11
131.7643772085102967
 21
49.2540569754101227
 31
0.0
  0
LINE
  5
DE3
  8
0
 10
133.8757992085103012
 20
50.4540569754101327
 30
0.0
 11
132.2239622085101871
 21
49.7956849754101327
 31
0.0
  0
LINE
  5
DE4
  8
0
 10
133.8757992085103012
 20
50.4540569754101327
 30
0.0
 11
134.4143772085103024
 21
50.3102659754101325
 31
0.0
  0
ARC
  5
DE5
  8
0
 10
132.0943769454158883
 20
50.1208118359166619
 30
0.0
 40
0.3499997369056865
 50
179.9999771645929911
 51
291.7306592182400209
  0
ARC
  5
DE6
  8
0
 10
132.0943769454160019
 20
59.5486881149035625
 30
0.0
 40
0.3499997369057037
 50
68.2693407817656208
 51
180.0000228354057867
  0
LINE
  5
DE7
  8
0
 10
131.7443772085102864
 20
59.5486879754101182
 30
0.0
 11
131.7443772085102864
 21
50.1208119754101205
 31
0.0
  0
LINE
  5
DE8
  8
0
 10
133.8757992085103012
 20
59.2154439754101176
 30
0.0
 11
134.4143772085103024
 21
59.3592349754101107
 31
0.0
  0
LINE
  5
DE9
  8
0
 10
133.8757992085103012
 20
59.2154439754101176
 30
0.0
 11
132.2239622085101871
 21
59.8738149754101201
 31
0.0
  0
LINE
  5
DEA
  8
0
 10
134.4143772085103024
 20
59.3592349754101107
 30
0.0
 11
131.7643772085102967
 21
60.4154439754101134
 31
0.0
  0
ARC
  5
DEB
  8
0
 10
131.7643772085102967
 20
60.065443975410119
 30
0.0
 40
0.35
 50
90.0
 51
180.0
  0
LINE
  5
DED
  8
0
 10
134.9327332085103137
 20
59.0063609754101179
 30
0.0
 11
134.9327332085103137
 21
50.6631389754101207
 31
0.0
  0
ARC
  5
DEF
  8
0
 10
131.064377208510308
 20
47.3654439754101091
 30
0.0
 40
0.35
 50
270.0
 51
0.000000000000007
  0
ARC
  5
DF0
  8
0
 10
110.7643772085102967
 20
47.3654439754101091
 30
0.0
 40
0.35
 50
180.0
 51
270.0
  0
ARC
  5
DF1
  8
0
 10
131.064377208510308
 20
61.6654439754101134
 30
0.0
 40
0.35
 50
0.000000000000007
 51
90.0
  0
ARC
  5
DF2
  8
0
 10
110.7643772085102967
 20
61.6654439754101134
 30
0.0
 40
0.35
 50
90.0
 51
180.0
  0
LINE
  5
DF3
  8
0
 10
110.7643772085102967
 20
62.0154439754101219
 30
0.0
 11
131.064377208510308
 21
62.0154439754101219
 31
0.0
  0
ARC
  5
DF4
  8
0
 10
106.9143772085103024
 20
56.8347499754101122
 30
0.0
 40
0.5
 50
92.1039154374306861
 51
180.0
  0
ARC
  5
DF5
  8
0
 10
106.9143772085103024
 20
52.8347499754101193
 30
0.0
 40
0.5
 50
180.0
 51
267.8960845625692855
  0
ARC
  5
DF6
  8
0
 10
134.9143772085103024
 20
56.8347499754101122
 30
0.0
 40
0.5
 50
0.000000000000007
 51
87.8960845625693281
  0
ARC
  5
DF7
  8
0
 10
134.9143772085103024
 20
52.8347499754101193
 30
0.0
 40
0.5
 50
272.1039154374307145
 51
0.000000000000007
  0
LINE
  5
DF8
  8
1
 10
120.9143772085103024
 20
69.5154439754101219
 30
0.0
 11
120.9143772085103024
 21
42.0154439754101219
 31
0.0
  0
CIRCLE
  5
DF9
  8
0
 10
120.9143772085103024
 20
54.5154439754103421
 30
0.0
 40
3.6055512754639949
  0
CIRCLE
  5
DFA
  8
0
 10
120.9143772085103024
 20
54.5154439754103421
 30
0.0
 40
4.9999999999999982
  0
CIRCLE
  5
DFB
  8
0
 10
120.9143772085103024
 20
54.5154439754103421
 30
0.0
 40
4.249999999999984
  0
CIRCLE
  5
DFC
  8
0
 10
120.9143772085104018
 20
54.5154439754103635
 30
0.0
 40
5.9999999995170663
  0
LINE
  5
DFD
  8
1
 10
128.4143772080273891
 20
54.5154439754103635
 30
0.0
 11
113.4143772089933009
 21
54.5154439754103635
 31
0.0
  0
INSERT
  5
E6B
  8
3
  6
CONTINUOUS
  2
*X1
 10
0.0
 20
0.0
 30
0.0
1001
GRADIENTCOLOR1ACI
1070
     5
1001
GRADIENTCOLOR2ACI
1070
     2
1001
ACAD
1000
HATCH
1002
{
1070
    19
1000
_USER
1040
0.5
1040
0.7853981633974483
1000
ASC_BOUNDS
1070
     4
1070
     1
1070
     1
1005
D9B
1070
     1
1070
     2
1005
D9B
1005
DA1
1070
     1
1070
     2
1005
D9B
1005
D99
1070
     1
1070
     3
1005
D9B
1005
DA1
1005
D99
1000
ASC_SEEDPOINT
1011
22.4449505788917385
1021
0.0
1031
0.0
1021
57.4408987508375617
1031
0.0
1000
R14_HATCH_DATA
1000
E6B
1011
1.0
1021
0.0
1031
0.0
1021
0.0
1031
0.0
1011
0.0
1021
0.0
1031
0.0
1021
1.0
1031
0.0
1011
0.0
1021
0.0
1031
0.0
1021
0.0
1031
1.0
1040
0.0
1010
0.0
1020
0.0
1030
1.0
1000
_USER
1070
     0
1070
     1
1071
        4
1071
        7
1070
     1
1070
     1
1071
        3
1040
20.5503250009782903
1040
58.1209952508743228
1040
0.0
1040
20.5503250009782903
1040
54.5154439754103635
1040
0.0
1040
24.1558762764422816
1040
54.5154439754103635
1040
0.4142135623730928
1071
        3
1005
D99
1005
DA1
1005
D9B
1071
        7
1070
     1
1070
     1
1071
        3
1040
24.1558762764422816
1040
54.5154439754103635
1040
0.0
1040
20.5503250009782903
1040
54.5154439754103635
1040
0.0
1040
20.5503250009782903
1040
50.9098926999463401
1040
0.4142135623730974
1071
        2
1005
D99
1005
D9B
1071
        7
1070
     1
1070
     1
1071
        3
1040
20.5503250009782903
1040
54.5154439754103635
1040
0.0
1040
16.9447737255142883
1040
54.5154439754103635
1040
0.4142135623730973
1040
20.5503250009782903
1040
50.9098926999463401
1040
0.0
1071
        2
1005
DA1
1005
D9B
1071
        7
1070
     1
1070
     1
1071
        3
1040
20.5503250009782903
1040
58.1209952508743228
1040
0.4142135623730927
1040
16.9447737255142883
1040
54.5154439754103635
1040
0.0
1040
20.5503250009782903
1040
54.5154439754103635
1040
0.0
1071
        1
1005
D9B
1070
     1
1070
     0
1040
0.7853981633974483
1040
0.5
1070
     1
1070
     2
1040
0.7853981633974483
1040
0.0
1040
0.0
1040
-0.3535533905932738
1040
0.3535533905932738
1070
     0
1040
2.3561944901923439
1040
0.0
1040
0.0
1040
-0.3535533905932738
1040
-0.3535533905932737
1070
     0
1040
0.028850362154969
1071
        4
1040
22.4449505788917385
1040
57.4408987508375617
1040
0.0
1040
22.7914011236345004
1040
51.8727786820448884
1040
0.0
1040
18.7783537384784687
1040
52.4786363715471111
1040
0.0
1040
19.2114162396762786
1040
56.2003332369718507
1040
0.0
1002
}
  0
INSERT
  5
E6C
  8
3
  6
CONTINUOUS
  2
*X2
 10
0.0
 20
0.0
 30
0.0
1001
GRADIENTCOLOR1ACI
1070
     5
1001
GRADIENTCOLOR2ACI
1070
     2
1001
ACAD
1000
HATCH
1002
{
1070
    19
1000
_USER
1040
0.5
1040
0.7853981633974483
1000
ASC_BOUNDS
1070
     4
1070
     1
1070
     1
1005
D9B
1070
     1
1070
     2
1005
D9B
1005
DA1
1070
     1
1070
     2
1005
D9B
1005
D99
1070
     1
1070
     3
1005
D9B
1005
DA1
1005
D99
1000
ASC_SEEDPOINT
1011
122.8090027864237044
1021
0.0
1031
0.0
1021
57.4408987508375617
1031
0.0
1000
R14_HATCH_DATA
1000
E6C
1011
1.0
1021
0.0
1031
0.0
1021
0.0
1031
0.0
1011
0.0
1021
0.0
1031
0.0
1021
1.0
1031
0.0
1011
0.0
1021
0.0
1031
0.0
1021
0.0
1031
1.0
1040
0.0
1010
0.0
1020
0.0
1030
1.0
1000
_USER
1070
     0
1070
     1
1071
        4
1071
        7
1070
     1
1070
     1
1071
        3
1040
120.9143772085103024
1040
58.1209952508743228
1040
0.0
1040
120.9143772085103024
1040
54.5154439754103635
1040
0.0
1040
124.5199284839742973
1040
54.5154439754103635
1040
0.4142135623730928
1071
        3
1005
D99
1005
DA1
1005
D9B
1071
        7
1070
     1
1070
     1
1071
        3
1040
124.5199284839742973
1040
54.5154439754103635
1040
0.0
1040
120.9143772085103024
1040
54.5154439754103635
1040
0.0
1040
120.9143772085103024
1040
50.9098926999463401
1040
0.4142135623730974
1071
        2
1005
D99
1005
D9B
1071
        7
1070
     1
1070
     1
1071
        3
1040
120.9143772085103024
1040
54.5154439754103635
1040
0.0
1040
117.3088259330462932
1040
54.5154439754103635
1040
0.4142135623730973
1040
120.9143772085103024
1040
50.9098926999463401
1040
0.0
1071
        2
1005
DA1
1005
D9B
1071
        7
1070
     1
1070
     1
1071
        3
1040
120.9143772085103024
1040
58.1209952508743228
1040
0.4142135623730927
1040
117.3088259330462932
1040
54.5154439754103635
1040
0.0
1040
120.9143772085103024
1040
54.5154439754103635
1040
0.0
1071
        1
1005
D9B
1070
     1
1070
     0
1040
0.7853981633974483
1040
0.5
1070
     1
1070
     2
1040
0.7853981633974483
1040
100.3640522075319979
1040
0.0
1040
-0.3535533905932738
1040
0.3535533905932738
1070
     0
1040
2.3561944901923439
1040
100.3640522075319979
1040
0.0
1040
-0.3535533905932738
1040
-0.3535533905932737
1070
     0
1040
0.028850362154969
1071
        4
1040
122.8090027864237044
1040
57.4408987508375617
1040
0.0
1040
123.1554533311664983
1040
51.8727786820448884
1040
0.0
1040
119.1424059460104985
1040
52.4786363715471111
1040
0.0
1040
119.5754684472082943
1040
56.2003332369718507
1040
0.0
1002
}
  0
LINE
  5
EC5
  8
0
 10
54.2323515107648717
 20
92.4888950308224054
 30
0.0
 11
54.2323515107648717
 21
112.4888950308224054
 31
0.0
  0
ARC
  5
EC6
  8
0
 10
54.7323515107648717
 20
92.4888950308224054
 30
0.0
 40
0.5
 50
180.0
 51
270.0
  0
ARC
  5
EC7
  8
0
 10
54.7323515107648717
 20
112.4888950308224054
 30
0.0
 40
0.5
 50
90.0
 51
180.0
  0
LINE
  5
EC8
  8
0
 10
54.232351511224401
 20
108.4888950303387958
 30
0.0
 11
53.2323515107651417
 21
107.4888950316417038
 31
0.0
  0
LINE
  5
EC9
  8
0
 10
53.2323515107653407
 20
97.4888950300018564
 30
0.0
 11
54.2323515112246568
 21
96.4888950313047218
 31
0.0
  0
LINE
  5
ECA
  8
0
 10
52.6323515107653392
 20
97.4888950308217517
 30
0.0
 11
53.2323515107653407
 21
97.4888950308217659
 31
0.0
  0
LINE
  5
ECB
  8
0
 10
53.2323515107651488
 20
107.4888950308216948
 30
0.0
 11
52.6323515107651403
 21
107.4888950308216948
 31
0.0
  0
LINE
  5
ECC
  8
0
 10
53.2323515107653407
 20
97.4888950308217801
 30
0.0
 11
53.2323515107651417
 21
107.4888950308216948
 31
0.0
  0
LINE
  5
ECD
  8
0
 10
52.6323515107651403
 20
107.4888950308216948
 30
0.0
 11
52.6323515107653392
 21
97.4888950308217517
 31
0.0
  0
LINE
  5
ECE
  8
5
 10
52.2323515107648717
 20
92.4888950308224054
 30
0.0
 11
52.2323515107648788
 21
96.4888950317645282
 31
0.0
  0
LINE
  5
ECF
  8
5
 10
52.2323515107648717
 20
108.488895029879302
 30
0.0
 11
52.2323515107648717
 21
112.4888950308224054
 31
0.0
  0
ARC
  5
ED0
  8
5
 10
52.7323515107648717
 20
92.4888950308224054
 30
0.0
 40
0.5
 50
180.0
 51
270.0
  0
ARC
  5
ED1
  8
5
 10
52.7323515107648717
 20
112.4888950308224054
 30
0.0
 40
0.5
 50
90.0
 51
180.0
  0
LINE
  5
ED2
  8
5
 10
52.2323515112244081
 20
108.4888950303387958
 30
0.0
 11
51.2323515107651417
 21
107.4888950316417038
 31
0.0
  0
LINE
  5
ED3
  8
5
 10
51.2323515107653407
 20
97.4888950300018564
 30
0.0
 11
52.2323515112246568
 21
96.4888950313047218
 31
0.0
  0
LINE
  5
ED4
  8
5
 10
50.6323515107653392
 20
97.4888950308217517
 30
0.0
 11
51.2323515107653407
 21
97.4888950308217659
 31
0.0
  0
LINE
  5
ED5
  8
5
 10
51.2323515107651488
 20
107.4888950308216948
 30
0.0
 11
50.6323515107651403
 21
107.4888950308216948
 31
0.0
  0
POLYLINE
  5
ED6
  8
5
 66
     1
 10
0.0
 20
0.0
 30
0.0
 70
   128
  0
VERTEX
  5
1881
  8
5
 10
49.2323515107648717
 20
99.1718367857549055
 30
0.0
  0
VERTEX
  5
1882
  8
5
 10
49.9893530594773594
 20
98.735342866852605
 30
0.0
  0
VERTEX
  5
1883
  8
5
 10
50.6323515107653179
 20
98.4197068491052818
 30
0.0
  0
SEQEND
  5
1884
  8
5
  0
POLYLINE
  5
ED7
  8
5
 66
     1
 10
0.0
 20
0.0
 30
0.0
 70
   128
  0
VERTEX
  5
1885
  8
5
 10
50.6323515107651616
 20
106.5580832125381932
 30
0.0
  0
VERTEX
  5
1886
  8
5
 10
49.9893530594772173
 20
106.2424471947908984
 30
0.0
  0
VERTEX
  5
1887
  8
5
 10
49.2323515107648717
 20
105.8059532758885979
 30
0.0
  0
SEQEND
  5
1888
  8
5
  0
LINE
  5
ED8
  8
5
 10
50.6323515107651403
 20
107.4888950308216948
 30
0.0
 11
50.6323515107651616
 21
106.5580832125381932
 31
0.0
  0
LINE
  5
ED9
  8
5
 10
50.6323515107653179
 20
98.4197068491052818
 30
0.0
 11
50.6323515107653392
 21
97.4888950308217517
 31
0.0
  0
LINE
  5
EDA
  8
5
 10
49.2323515107648717
 20
99.1718367857549055
 30
0.0
 11
49.2323515107648717
 21
105.8059532758885979
 31
0.0
  0
LINE
  5
EDB
  8
0
 10
51.2323515107648575
 20
99.248524681618818
 30
0.0
 11
51.2323515107648788
 21
105.7292653800260069
 31
0.0
  0
ARC
  5
EDC
  8
0
 10
53.9823515107652412
 20
102.4888950308224054
 30
0.0
 40
4.25
 50
108.520688505411897
 51
130.3202150699771948
  0
ARC
  5
EDD
  8
0
 10
53.9823515107652412
 20
102.4888950308224054
 30
0.0
 40
4.25
 50
229.6797849300228052
 51
251.4793114945902062
  0
LINE
  5
EDE
  8
5
 10
52.7323515107648717
 20
112.9888950308224054
 30
0.0
 11
54.2323515107648717
 21
112.9888950308224054
 31
0.0
  0
LINE
  5
EDF
  8
5
 10
52.7323515107648717
 20
91.9888950308224054
 30
0.0
 11
54.2323515107648717
 21
91.9888950308224054
 31
0.0
  0
LINE
  5
EE6
  8
0
 10
87.2323515107648717
 20
92.4888950308224054
 30
0.0
 11
87.2323515107648717
 21
112.4888950308224054
 31
0.0
  0
ARC
  5
EE7
  8
0
 10
86.7323515107648859
 20
92.4888950308224054
 30
0.0
 40
0.5
 50
270.0
 51
0.000000000000007
  0
ARC
  5
EE8
  8
0
 10
86.7323515107648859
 20
112.4888950308224054
 30
0.0
 40
0.5
 50
0.000000000000007
 51
90.0
  0
LINE
  5
EE9
  8
0
 10
87.2323515103053353
 20
108.4888950303387958
 30
0.0
 11
88.2323515107646017
 21
107.4888950316417038
 31
0.0
  0
LINE
  5
EEA
  8
0
 10
88.2323515107644027
 20
97.4888950300018564
 30
0.0
 11
87.2323515103050653
 21
96.4888950313047218
 31
0.0
  0
LINE
  5
EEB
  8
0
 10
88.8323515107643971
 20
97.4888950308217517
 30
0.0
 11
88.2323515107644027
 21
97.4888950308217659
 31
0.0
  0
LINE
  5
EEC
  8
0
 10
88.2323515107646017
 20
107.4888950308216948
 30
0.0
 11
88.832351510764596
 21
107.4888950308216948
 31
0.0
  0
LINE
  5
EED
  8
0
 10
88.2323515107644027
 20
97.4888950308217801
 30
0.0
 11
88.2323515107646017
 21
107.4888950308216948
 31
0.0
  0
LINE
  5
EEE
  8
0
 10
88.832351510764596
 20
107.4888950308216948
 30
0.0
 11
88.8323515107643971
 21
97.4888950308217517
 31
0.0
  0
LINE
  5
EEF
  8
5
 10
89.2323515107648859
 20
92.4888950308224054
 30
0.0
 11
89.2323515107648575
 21
96.4888950317645282
 31
0.0
  0
LINE
  5
EF0
  8
5
 10
89.2323515107648859
 20
108.488895029879302
 30
0.0
 11
89.2323515107648859
 21
112.4888950308224054
 31
0.0
  0
ARC
  5
EF1
  8
5
 10
88.7323515107648717
 20
92.4888950308224054
 30
0.0
 40
0.5
 50
270.0
 51
0.000000000000007
  0
ARC
  5
EF2
  8
5
 10
88.7323515107648717
 20
112.4888950308224054
 30
0.0
 40
0.5
 50
0.000000000000007
 51
90.0
  0
LINE
  5
EF3
  8
5
 10
89.2323515103053353
 20
108.4888950303387958
 30
0.0
 11
90.2323515107646159
 21
107.4888950316417038
 31
0.0
  0
LINE
  5
EF4
  8
5
 10
90.2323515107643885
 20
97.4888950300018564
 30
0.0
 11
89.2323515103050937
 21
96.4888950313047218
 31
0.0
  0
LINE
  5
EF5
  8
5
 10
90.8323515107643971
 20
97.4888950308217517
 30
0.0
 11
90.2323515107643885
 21
97.4888950308217659
 31
0.0
  0
LINE
  5
EF6
  8
5
 10
90.2323515107646159
 20
107.4888950308216948
 30
0.0
 11
90.832351510764596
 21
107.4888950308216948
 31
0.0
  0
POLYLINE
  5
EF7
  8
5
 66
     1
 10
0.0
 20
0.0
 30
0.0
 70
   128
  0
VERTEX
  5
1889
  8
5
 10
92.2323515107648717
 20
99.1718367857549055
 30
0.0
  0
VERTEX
  5
188A
  8
5
 10
91.4753499620523769
 20
98.735342866852605
 30
0.0
  0
VERTEX
  5
188B
  8
5
 10
90.8323515107644255
 20
98.4197068491052818
 30
0.0
  0
SEQEND
  5
188C
  8
5
  0
POLYLINE
  5
EF8
  8
5
 66
     1
 10
0.0
 20
0.0
 30
0.0
 70
   128
  0
VERTEX
  5
188D
  8
5
 10
90.8323515107645818
 20
106.5580832125381932
 30
0.0
  0
VERTEX
  5
188E
  8
5
 10
91.4753499620525048
 20
106.2424471947908984
 30
0.0
  0
VERTEX
  5
188F
  8
5
 10
92.2323515107648717
 20
105.8059532758885979
 30
0.0
  0
SEQEND
  5
1890
  8
5
  0
LINE
  5
EF9
  8
5
 10
90.832351510764596
 20
107.4888950308216948
 30
0.0
 11
90.8323515107645818
 21
106.5580832125381932
 31
0.0
  0
LINE
  5
EFA
  8
5
 10
90.8323515107644255
 20
98.4197068491052818
 30
0.0
 11
90.8323515107643971
 21
97.4888950308217517
 31
0.0
  0
LINE
  5
EFB
  8
5
 10
92.2323515107648717
 20
99.1718367857549055
 30
0.0
 11
92.2323515107648717
 21
105.8059532758885979
 31
0.0
  0
LINE
  5
EFC
  8
0
 10
90.2323515107648859
 20
99.248524681618818
 30
0.0
 11
90.2323515107648575
 21
105.7292653800260069
 31
0.0
  0
ARC
  5
EFD
  8
0
 10
87.4823515107645022
 20
102.4888950308224054
 30
0.0
 40
4.25
 50
49.6797849300225067
 51
71.4793114945880319
  0
ARC
  5
EFE
  8
0
 10
87.4823515107645022
 20
102.4888950308224054
 30
0.0
 40
4.25
 50
288.5206885054103054
 51
310.3202150699775075
  0
LINE
  5
EFF
  8
5
 10
88.7323515107648717
 20
112.9888950308224054
 30
0.0
 11
87.2323515107648717
 21
112.9888950308224054
 31
0.0
  0
LINE
  5
F00
  8
5
 10
88.7323515107648717
 20
91.9888950308224054
 30
0.0
 11
87.2323515107648717
 21
91.9888950308224054
 31
0.0
  0
LINE
  5
F8D
  8
0
 10
135.4143772085103024
 20
56.8347499754101122
 30
0.0
 11
135.4143772085103024
 21
52.8347499754101193
 31
0.0
  0
LINE
  5
152D
  8
0
 10
54.4323515107656775
 20
47.0154439754100935
 30
0.0
 11
70.0323515107654231
 21
47.0154439754100935
 31
0.0
  0
LINE
  5
152E
  8
0
 10
87.0323506987234055
 20
62.0154439754101006
 30
0.0
 11
76.2323511047442963
 21
62.0154439754101219
 31
0.0
  0
LINE
  5
152F
  8
0
 10
54.2323515107654117
 20
61.8154439754103535
 30
0.0
 11
54.2323515107654117
 21
47.2154439754103592
 31
0.0
  0
LINE
  5
1530
  8
0
 10
70.0323515107654231
 20
49.0154439754101219
 30
0.0
 11
70.0323515107654231
 21
47.0154439754100935
 31
0.0
  0
LINE
  5
1531
  8
0
 10
54.2323515107654117
 20
47.2154439754103592
 30
0.0
 11
54.4323515107654075
 21
47.0154439754103493
 31
0.0
  0
LINE
  5
1532
  8
0
 10
54.2323515107654117
 20
61.8154439754103535
 30
0.0
 11
54.4323515107654075
 21
62.0154439754103493
 31
0.0
  0
ARC
  5
1533
  8
0
 10
79.2320681047443003
 20
54.8347499754101193
 30
0.0
 40
2.5
 50
270.0
 51
90.0
  0
LINE
  5
1534
  8
0
 10
64.432351104744285
 20
49.0154439754101219
 30
0.0
 11
77.0323511047442935
 21
49.0154439754101219
 31
0.0
  0
LINE
  5
1535
  8
0
 10
77.0323511047442935
 20
49.0154439754101219
 30
0.0
 11
77.0323511047442935
 21
51.0447983198455475
 31
0.0
  0
LINE
  5
1536
  8
0
 10
64.432351104744285
 20
49.0154439754101219
 30
0.0
 11
64.432351104744285
 21
51.2681139848959972
 31
0.0
  0
LINE
  5
1537
  8
0
 10
77.0323511047442935
 20
60.4154439754101134
 30
0.0
 11
64.432351104744285
 21
60.4154439754101134
 31
0.0
  0
LINE
  5
1538
  8
0
 10
65.2323511047442963
 20
62.0154439754101219
 30
0.0
 11
54.4323515107654075
 21
62.0154439754103493
 31
0.0
  0
LINE
  5
153D
  8
0
 10
81.7320671047442744
 20
54.8358119754101168
 30
0.0
 11
82.8963001047442987
 21
54.8358119754101168
 31
0.0
  0
LINE
  5
155A
  8
0
 10
80.6620276293090939
 20
56.8844805045404414
 30
0.0
 11
81.4140686293091136
 21
57.0318445045404516
 31
0.0
  0
LINE
  5
1561
  8
0
 10
81.7211527163982936
 20
55.0681119175242628
 30
0.0
 11
82.2212987944609779
 21
54.8358119754101168
 31
0.0
  0
LINE
  5
1562
  8
0
 10
81.6615272000331629
 20
55.4244350645197699
 30
0.0
 11
82.9546748283912052
 21
54.8238123564694888
 31
0.0
  0
LINE
  5
1563
  8
0
 10
82.7323511047442963
 20
64.5154439754101219
 30
0.0
 11
58.7323511047442892
 21
64.5154439754101219
 31
0.0
  0
LINE
  5
1564
  8
0
 10
75.6499991047442819
 20
60.4154439754101134
 30
0.0
 11
77.1422771047443092
 21
64.5154439754101219
 31
0.0
  0
LINE
  5
1565
  8
0
 10
59.6422771047443092
 20
62.0154439754101219
 30
0.0
 11
58.7323511047442892
 21
64.5154439754101219
 31
0.0
  0
LINE
  5
1566
  8
0
 10
81.8224261047442951
 20
62.0154439754101219
 30
0.0
 11
82.7323511047442963
 21
64.5154439754101219
 31
0.0
  0
LINE
  5
1567
  8
0
 10
65.8147031047443107
 20
60.4154439754101134
 30
0.0
 11
64.3224261047443093
 21
64.5154439754101219
 31
0.0
  0
LINE
  5
1568
  8
0
 10
64.432351104744285
 20
59.2154439754101176
 30
0.0
 11
77.0323511047442935
 21
59.2154439754101176
 31
0.0
  0
LINE
  5
15C1
  8
0
 10
77.0163598404570138
 20
51.5894622587582603
 30
0.0
 11
77.4887982031787033
 21
50.9107704819170195
 31
0.0
  0
LINE
  5
15C2
  8
0
 10
76.9758137565305702
 20
51.1260183804278512
 30
0.0
 11
77.554460944202205
 21
50.2947491199598034
 31
0.0
  0
ARC
  5
15C3
  8
0
 10
76.7595900135804357
 20
50.3644312405284182
 30
0.0
 40
0.149024256163722
 50
175.0001109367231891
 51
354.9996351366501131
  0
ARC
  5
15C4
  8
0
 10
76.9080085603307708
 20
52.060866467747438
 30
0.0
 40
0.1490245531800441
 50
355.0003293164488127
 51
174.9999374611471978
  0
LINE
  5
15C5
  8
0
 10
76.9080471047443126
 20
50.3514419754101183
 30
0.0
 11
77.0564661047443025
 21
52.0478789754101285
 31
0.0
  0
LINE
  5
15C6
  8
0
 10
76.6111328145552335
 20
50.3774192728173418
 30
0.0
 11
76.7595511047442898
 21
52.0738549754101285
 31
0.0
  0
LINE
  5
15C7
  8
0
 10
76.6699458688317037
 20
51.0496582867961877
 30
0.0
 11
76.1444538384848357
 21
50.2947499506737472
 31
0.0
  0
LINE
  5
15C8
  8
0
 10
76.7221488245763652
 20
51.6463432222803078
 30
0.0
 11
76.2101160064536742
 21
50.9107704835603769
 31
0.0
  0
ARC
  5
15C9
  8
0
 10
76.0127240135804669
 20
50.3644312405284396
 30
0.0
 40
0.1490242561637349
 50
175.0001109367294134
 51
354.9996351366414729
  0
ARC
  5
15CA
  8
0
 10
76.1611425603307595
 20
52.0608664677474522
 30
0.0
 40
0.1490245531800306
 50
355.0003293164455727
 51
174.9999374611508927
  0
LINE
  5
15CB
  8
0
 10
76.1611811047443013
 20
50.3514419754101183
 30
0.0
 11
76.3096001047442911
 21
52.0478789754101285
 31
0.0
  0
LINE
  5
15CC
  8
0
 10
75.8642668145552221
 20
50.3774192728173489
 30
0.0
 11
76.0126851047442784
 21
52.0738549754101285
 31
0.0
  0
ARC
  5
15CD
  8
0
 10
75.1286710999437304
 20
52.06086692053794
 30
0.0
 40
0.149024055081727
 50
355.0001378121879725
 51
175.0000954572385865
  0
ARC
  5
15CE
  8
0
 10
74.9802520204093952
 20
50.3644312323899825
 30
0.0
 40
0.1490242486514388
 50
175.0001075430816968
 51
354.9996380249043
  0
LINE
  5
15CF
  8
0
 10
75.9641358556586539
 20
51.5189322675821018
 30
0.0
 11
75.1119818434393238
 21
50.2947499550579309
 31
0.0
  0
LINE
  5
15D0
  8
0
 10
76.0294129918222552
 20
52.1305488775154302
 30
0.0
 11
75.1772585330578238
 21
50.9063645023097706
 31
0.0
  0
LINE
  5
15D1
  8
0
 10
75.128709104744317
 20
50.3514419754101183
 30
0.0
 11
75.2771281047443068
 21
52.0478789754101285
 31
0.0
  0
LINE
  5
15D2
  8
0
 10
74.8317948296371611
 20
50.3774192728173205
 30
0.0
 11
74.9802141047442916
 21
52.0738549754101285
 31
0.0
  0
ARC
  5
15D3
  8
0
 10
74.0961990999437177
 20
52.0608669205379613
 30
0.0
 40
0.1490240550817282
 50
355.000137812182686
 51
175.0000954572439014
  0
ARC
  5
15D4
  8
0
 10
73.9477805600241282
 20
50.3644316851811524
 30
0.0
 40
0.1490247467512201
 50
175.0002990475022102
 51
354.9994800302346221
  0
LINE
  5
15D5
  8
0
 10
74.9316646309192294
 20
51.5189333813013022
 30
0.0
 11
74.0795134398519082
 21
50.2947551215708017
 31
0.0
  0
LINE
  5
15D6
  8
0
 10
74.9969414615882357
 20
52.1305481330110894
 30
0.0
 11
74.1447873028580631
 21
50.9063656100133173
 31
0.0
  0
LINE
  5
15D7
  8
0
 10
74.0962381047443017
 20
50.3514419754101183
 30
0.0
 11
74.2446561047442941
 21
52.0478789754101285
 31
0.0
  0
LINE
  5
15D8
  8
0
 10
73.7993228296371342
 20
50.3774192728173418
 30
0.0
 11
73.9477421047442931
 21
52.0738549754101285
 31
0.0
  0
ARC
  5
15D9
  8
0
 10
73.0637275527348748
 20
52.0608663809234784
 30
0.0
 40
0.1490245531803458
 50
355.000362825340801
 51
174.9999039522554938
  0
ARC
  5
15DA
  8
0
 10
72.9153085600242008
 20
50.3644316851811666
 30
0.0
 40
0.1490247467512602
 50
175.000299047514801
 51
354.9994800302224007
  0
LINE
  5
15DB
  8
0
 10
73.8991924871676389
 20
51.5189317382174679
 30
0.0
 11
73.0470382752863117
 21
50.2947491388640486
 31
0.0
  0
LINE
  5
15DC
  8
0
 10
73.9644694615881377
 20
52.1305481330109473
 30
0.0
 11
73.1123156769919689
 21
50.906366147484313
 31
0.0
  0
LINE
  5
15DD
  8
0
 10
73.063766104744289
 20
50.3514419754101183
 30
0.0
 11
73.2121851047442789
 21
52.0478789754101285
 31
0.0
  0
LINE
  5
15DE
  8
0
 10
72.7668508296371357
 20
50.3774192728173418
 30
0.0
 11
72.9152701047442946
 21
52.0738549754101285
 31
0.0
  0
ARC
  5
15DF
  8
0
 10
72.0312555603307629
 20
52.0608664677474522
 30
0.0
 40
0.1490245531800447
 50
355.0003293164464253
 51
174.9999374611504948
  0
ARC
  5
15E0
  8
0
 10
71.8828370135804704
 20
50.3644312405284182
 30
0.0
 40
0.1490242561637226
 50
175.0001109367208016
 51
354.9996351366526142
  0
LINE
  5
15E1
  8
0
 10
72.8667204871676546
 20
51.5189317382174465
 30
0.0
 11
72.0145668324628332
 21
50.2947499392893675
 31
0.0
  0
LINE
  5
15E2
  8
0
 10
72.9319981894217335
 20
52.1305491785978532
 30
0.0
 11
72.0798436769919277
 21
50.9063661474843272
 31
0.0
  0
LINE
  5
15E3
  8
0
 10
72.0312941047443047
 20
50.3514419754101183
 30
0.0
 11
72.1797131047442946
 21
52.0478789754101285
 31
0.0
  0
LINE
  5
15E4
  8
0
 10
71.7343798145552256
 20
50.3774192728173418
 30
0.0
 11
71.8827981047442819
 21
52.0738549754101285
 31
0.0
  0
ARC
  5
15E5
  8
0
 10
70.9987835603307502
 20
52.0608664677474309
 30
0.0
 40
0.1490245531800564
 50
355.0003293164572824
 51
174.9999374611390124
  0
ARC
  5
15E6
  8
0
 10
70.8503650135804293
 20
50.3644312405284325
 30
0.0
 40
0.1490242561636937
 50
175.0001109367223933
 51
354.999635136647214
  0
LINE
  5
15E7
  8
0
 10
71.8342488556586858
 20
51.5189322675821089
 30
0.0
 11
70.9820948324625647
 21
50.2947499392890194
 31
0.0
  0
LINE
  5
15E8
  8
0
 10
71.8995260297554353
 20
52.1305489492253713
 30
0.0
 11
71.0473716769919434
 21
50.906366147484313
 31
0.0
  0
LINE
  5
15E9
  8
0
 10
70.998822104744292
 20
50.3514419754101183
 30
0.0
 11
71.1472411047443103
 21
52.0478789754101285
 31
0.0
  0
LINE
  5
15EA
  8
0
 10
70.7019078145552413
 20
50.3774192728173489
 30
0.0
 11
70.8503261047442976
 21
52.0738549754101285
 31
0.0
  0
ARC
  5
15EB
  8
0
 10
69.9663120999437211
 20
52.0608669205379684
 30
0.0
 40
0.1490240550817288
 50
355.0001378121799007
 51
175.0000954572468004
  0
ARC
  5
15EC
  8
0
 10
69.8178930204093859
 20
50.3644312323899683
 30
0.0
 40
0.1490242486514412
 50
175.0001075430706976
 51
354.9996380249078811
  0
LINE
  5
15ED
  8
0
 10
70.8017768556586731
 20
51.5189322675821018
 30
0.0
 11
69.949622843439343
 21
50.2947499550579167
 31
0.0
  0
LINE
  5
15EE
  8
0
 10
70.8670508651832733
 20
52.1305429665092035
 30
0.0
 11
70.0148995332408077
 21
50.9063645044011466
 31
0.0
  0
LINE
  5
15EF
  8
0
 10
69.9663501047443077
 20
50.3514419754101183
 30
0.0
 11
70.1147691047442976
 21
52.0478789754101285
 31
0.0
  0
LINE
  5
15F0
  8
0
 10
69.6694358296371519
 20
50.3774192728173489
 30
0.0
 11
69.8178551047443108
 21
52.0738549754101285
 31
0.0
  0
ARC
  5
15F1
  8
0
 10
68.9338405527348499
 20
52.0608663809234713
 30
0.0
 40
0.1490245531803593
 50
355.0003628253440979
 51
174.9999039522521969
  0
ARC
  5
15F2
  8
0
 10
68.7854215600241758
 20
50.3644316851811524
 30
0.0
 40
0.1490247467512349
 50
175.000299047500107
 51
354.9994800302338263
  0
LINE
  5
15F3
  8
0
 10
69.7693056309192201
 20
51.5189333813012809
 30
0.0
 11
68.9171544398521547
 21
50.2947551215711286
 31
0.0
  0
LINE
  5
15F4
  8
0
 10
69.8345824615880844
 20
52.130548133010862
 30
0.0
 11
68.9824286769919723
 21
50.906366147484313
 31
0.0
  0
LINE
  5
15F5
  8
0
 10
68.9338791047442925
 20
50.3514419754101183
 30
0.0
 11
69.0822981047442823
 21
52.0478789754101285
 31
0.0
  0
LINE
  5
15F6
  8
0
 10
68.6369638296371534
 20
50.3774192728173489
 30
0.0
 11
68.7853831047442839
 21
52.0738549754101285
 31
0.0
  0
ARC
  5
15F7
  8
0
 10
67.9013685527348372
 20
52.0608663809234926
 30
0.0
 40
0.1490245531803747
 50
355.0003628253392094
 51
174.9999039522571138
  0
ARC
  5
15F8
  8
0
 10
67.7529495600241631
 20
50.3644316851811524
 30
0.0
 40
0.1490247467512485
 50
175.0002990475034039
 51
354.9994800302284261
  0
LINE
  5
15F9
  8
0
 10
68.7368334871676581
 20
51.5189317382174607
 30
0.0
 11
67.884679275286274
 21
50.2947491388639918
 31
0.0
  0
LINE
  5
15FA
  8
0
 10
68.8021111894216659
 20
52.1305491785976969
 30
0.0
 11
67.9499566769919312
 21
50.9063661474843201
 31
0.0
  0
LINE
  5
15FB
  8
0
 10
67.9014071047443082
 20
50.3514419754101183
 30
0.0
 11
68.0498261047442838
 21
52.0478789754101285
 31
0.0
  0
LINE
  5
15FC
  8
0
 10
67.6044918296371549
 20
50.3774192728173489
 30
0.0
 11
67.7529111047442854
 21
52.0738549754101285
 31
0.0
  0
ARC
  5
15FD
  8
0
 10
66.8688965603308674
 20
52.0608664677486672
 30
0.0
 40
0.1490245531800374
 50
355.0003293159771829
 51
174.9999374616191972
  0
ARC
  5
15FE
  8
0
 10
66.7204780135804327
 20
50.3644312405284182
 30
0.0
 40
0.1490242561637085
 50
175.0001109367204037
 51
354.9996351366530121
  0
LINE
  5
15FF
  8
0
 10
67.7043614871676738
 20
51.5189317382174821
 30
0.0
 11
66.8522078324627529
 21
50.2947499392892183
 31
0.0
  0
LINE
  5
1600
  8
0
 10
67.7696391894214827
 20
52.1305491785974695
 30
0.0
 11
66.9174846769919469
 21
50.9063661474843201
 31
0.0
  0
LINE
  5
1601
  8
0
 10
66.8689351047442955
 20
50.3514419754101183
 30
0.0
 11
67.0173541047443138
 21
52.0478789754101285
 31
0.0
  0
LINE
  5
1602
  8
0
 10
66.5720208145552448
 20
50.3774192728173489
 30
0.0
 11
66.7204391047443011
 21
52.0738549754101285
 31
0.0
  0
ARC
  5
1603
  8
0
 10
65.836424560330741
 20
52.0608664677474167
 30
0.0
 40
0.1490245531800416
 50
355.0003293164598972
 51
174.9999374611369944
  0
ARC
  5
1604
  8
0
 10
65.6880060135804484
 20
50.3644312405284111
 30
0.0
 40
0.1490242561637097
 50
175.000110936714691
 51
354.9996351366553995
  0
LINE
  5
1605
  8
0
 10
66.6718898556586765
 20
51.5189322675821018
 30
0.0
 11
65.8197358324627118
 21
50.294749939289197
 31
0.0
  0
LINE
  5
1606
  8
0
 10
66.7371670297532233
 20
52.1305489492221525
 30
0.0
 11
65.8850126769919342
 21
50.9063661474842917
 31
0.0
  0
LINE
  5
1607
  8
0
 10
65.8364631047442828
 20
50.3514419754101183
 30
0.0
 11
65.984882104744301
 21
52.0478789754101285
 31
0.0
  0
LINE
  5
1608
  8
0
 10
65.5395488145552605
 20
50.3774192728173489
 30
0.0
 11
65.6879671047442883
 21
52.0738549754101285
 31
0.0
  0
ARC
  5
1609
  8
0
 10
64.8039530999436835
 20
52.0608669205379684
 30
0.0
 40
0.1490240550817572
 50
355.0001378121809807
 51
175.000095457245493
  0
ARC
  5
160A
  8
0
 10
64.6555340204093483
 20
50.3644312323899612
 30
0.0
 40
0.1490242486513994
 50
175.0001075430666049
 51
354.9996380249123717
  0
LINE
  5
160B
  8
0
 10
65.6394178556586638
 20
51.5189322675821018
 30
0.0
 11
64.7872638434390637
 21
50.2947499550575472
 31
0.0
  0
LINE
  5
160C
  8
0
 10
65.7046918651833636
 20
52.130542966509303
 30
0.0
 11
64.8525405332407985
 21
50.9063645044011182
 31
0.0
  0
LINE
  5
160D
  8
0
 10
64.8039911047442843
 20
50.3514419754101183
 30
0.0
 11
64.9524101047442883
 21
52.0478789754101285
 31
0.0
  0
LINE
  5
160E
  8
0
 10
64.507076829637171
 20
50.3774192728173489
 30
0.0
 11
64.6554961047443015
 21
52.0738549754101285
 31
0.0
  0
ARC
  5
160F
  8
0
 10
63.7714815527348406
 20
52.0608663809235068
 30
0.0
 40
0.149024553180376
 50
355.000362825333923
 51
174.9999039522624003
  0
ARC
  5
1610
  8
0
 10
63.6230625600241595
 20
50.3644316851811524
 30
0.0
 40
0.1490247467512266
 50
175.0002990475055071
 51
354.9994800302304725
  0
LINE
  5
1611
  8
0
 10
64.6069466309192393
 20
51.518933381301288
 30
0.0
 11
63.7547954398520602
 21
50.2947551215709865
 31
0.0
  0
LINE
  5
1612
  8
0
 10
64.672223461587933
 20
52.1305481330106701
 30
0.0
 11
63.8200696769919631
 21
50.9063661474842917
 31
0.0
  0
LINE
  5
1613
  8
0
 10
63.7715201047443117
 20
50.3514419754101183
 30
0.0
 11
63.9199391047443015
 21
52.0478789754101285
 31
0.0
  0
LINE
  5
1614
  8
0
 10
63.4746048296371583
 20
50.3774192728173489
 30
0.0
 11
63.6230241047442888
 21
52.0738549754101285
 31
0.0
  0
ARC
  5
1615
  8
0
 10
62.7390095527348635
 20
52.060866380923521
 30
0.0
 40
0.1490245531803489
 50
355.0003628253272723
 51
174.9999039522685962
  0
ARC
  5
1616
  8
0
 10
62.5905905600241823
 20
50.3644316851811524
 30
0.0
 40
0.1490247467512414
 50
175.000299047503006
 51
354.9994800302309272
  0
LINE
  5
1617
  8
0
 10
63.5744744871676772
 20
51.5189317382175034
 30
0.0
 11
62.7223202752861795
 21
50.2947491388638568
 31
0.0
  0
LINE
  5
1618
  8
0
 10
63.6397521894214577
 20
52.1305491785973985
 30
0.0
 11
62.7875976769919504
 21
50.9063661474842917
 31
0.0
  0
LINE
  5
1619
  8
0
 10
62.7390481047442989
 20
50.3514419754101183
 30
0.0
 11
62.8874671047442888
 21
52.0478789754101285
 31
0.0
  0
LINE
  5
161A
  8
0
 10
62.4421328296371385
 20
50.3774192728173489
 30
0.0
 11
62.5905521047442974
 21
52.0738549754101285
 31
0.0
  0
LINE
  5
161B
  8
0
 10
81.7146123103132567
 20
54.5398359754101278
 30
0.0
 11
82.8963001047442987
 21
54.5398359754101278
 31
0.0
  0
LINE
  5
161C
  8
0
 10
81.5506198036213164
 20
53.8997002336132169
 30
0.0
 11
82.9546748261716544
 21
54.5518355933980033
 31
0.0
  0
LINE
  5
161D
  8
0
 10
81.6706680970601155
 20
54.2840866685907315
 30
0.0
 11
82.2212988033873131
 21
54.5398359754101421
 31
0.0
  0
LINE
  5
161E
  8
0
 10
81.0609012296075804
 20
52.9650064303981623
 30
0.0
 11
82.6915973330287244
 21
53.1627249309121126
 31
0.0
  0
LINE
  5
161F
  8
0
 10
81.1905718755865138
 20
53.2809600991408701
 30
0.0
 11
81.990395156607633
 21
53.3779369792802214
 31
0.0
  0
LINE
  5
1620
  8
0
 10
80.4001419343813524
 20
52.238766886771792
 30
0.0
 11
82.0121305056559464
 21
51.9228945029400819
 31
0.0
  0
LINE
  5
1621
  8
0
 10
80.2815847203634831
 20
52.5657160678760604
 30
0.0
 11
81.4117447303868147
 21
52.344258819197762
 31
0.0
  0
LINE
  5
1622
  8
0
 10
79.6691092566984338
 20
51.7980496599155629
 30
0.0
 11
80.9821398027747961
 21
50.9540993213385178
 31
0.0
  0
LINE
  5
1623
  8
0
 10
79.5236004838517516
 20
52.2458798701400724
 30
0.0
 11
80.4720308876726591
 21
51.6362771186636067
 31
0.0
  0
LINE
  5
1624
  8
0
 10
78.7579100901096041
 20
51.6256984159264221
 30
0.0
 11
79.8119650877758176
 21
50.4349802617660927
 31
0.0
  0
LINE
  5
1625
  8
0
 10
78.7142553654364434
 20
52.1246741052368066
 30
0.0
 11
79.5634814216510335
 21
51.1653416333479285
 31
0.0
  0
LINE
  5
1626
  8
0
 10
77.7347787223209394
 20
51.5189317382175105
 30
0.0
 11
78.5869330978123486
 21
50.2947489038261395
 31
0.0
  0
LINE
  5
1627
  8
0
 10
77.6609839106497617
 20
52.1446939297398089
 30
0.0
 11
78.5214644655559511
 21
50.9085499223394606
 31
0.0
  0
ARC
  5
1628
  8
0
 10
77.6861906494644501
 20
50.3644316851808611
 30
0.0
 40
0.1490247467512226
 50
185.000519969657006
 51
4.9997009526077383
  0
ARC
  5
1629
  8
0
 10
78.7186626443216966
 20
50.3644317749309067
 30
0.0
 40
0.1490247494511012
 50
185.0005545170128016
 51
4.9996662236614204
  0
ARC
  5
162A
  8
0
 10
79.9255846713268312
 20
50.5298007704918035
 30
0.0
 40
0.1479876300280172
 50
198.0000417046867938
 51
18.000208545392141
  0
LINE
  5
162B
  8
0
 10
79.4903771047442973
 20
52.3481309754101076
 30
0.0
 11
80.066329104744284
 21
50.575531975410108
 31
0.0
  0
LINE
  5
162C
  8
0
 10
79.183517441671782
 20
52.3347499754101193
 30
0.0
 11
79.7848401047443048
 21
50.4840699754101223
 31
0.0
  0
ARC
  5
162D
  8
0
 10
81.0584719800909852
 20
51.0808814587900528
 30
0.0
 40
0.1479876553150878
 50
215.9997712778265111
 51
36.0002657488780997
  0
LINE
  5
162E
  8
0
 10
80.1913641047443235
 20
52.52612497541012
 30
0.0
 11
81.1781961047443161
 21
51.1678669754101278
 31
0.0
  0
LINE
  5
162F
  8
0
 10
79.8987791047442926
 20
52.4252909754101211
 30
0.0
 11
80.9387471047442943
 21
50.9938969754101166
 31
0.0
  0
ARC
  5
1630
  8
0
 10
82.044817621364686
 20
52.0672271000631994
 30
0.0
 40
0.1479876553150941
 50
233.9997342509728071
 51
54.0002287223189228
  0
LINE
  5
1631
  8
0
 10
80.9661021047442944
 20
53.0338819754101181
 30
0.0
 11
82.1318021047442954
 21
52.1869519754101319
 31
0.0
  0
LINE
  5
1632
  8
0
 10
80.734317104744278
 20
52.8364389754101325
 30
0.0
 11
81.9578321047442842
 21
51.9475029754101314
 31
0.0
  0
ARC
  5
1633
  8
0
 10
82.6780895043563788
 20
53.3100945080280297
 30
0.0
 40
0.1479874755190892
 50
252.0000998503927008
 51
72.0000181164016055
  0
LINE
  5
1634
  8
0
 10
81.5256976843968744
 20
53.8401327870694573
 30
0.0
 11
82.7238201047442772
 21
53.4508389754101216
 31
0.0
  0
LINE
  5
1635
  8
0
 10
81.3902649803432752
 20
53.5729313489210313
 30
0.0
 11
82.6323591047443102
 21
53.1693499754101282
 31
0.0
  0
ARC
  5
1636
  8
0
 10
82.8963001047442987
 20
54.6878239754101187
 30
0.0
 40
0.147988
 50
270.0
 51
90.0
  0
LINE
  5
1637
  8
0
 10
78.8671203852704252
 20
50.3774192728173418
 30
0.0
 11
78.6958761047443005
 21
52.3347499754101193
 31
0.0
  0
LINE
  5
1638
  8
0
 10
78.5702051047442893
 20
50.3514419754101183
 30
0.0
 11
78.3966881047442854
 21
52.3347499754101193
 31
0.0
  0
LINE
  5
1639
  8
0
 10
77.8346483798514157
 20
50.3774192728173276
 30
0.0
 11
77.6862291047442994
 21
52.0738549754101285
 31
0.0
  0
LINE
  5
163A
  8
0
 10
77.537733104744305
 20
50.3514419754101183
 30
0.0
 11
77.3893141047443152
 21
52.0478789754101285
 31
0.0
  0
ARC
  5
163B
  8
0
 10
77.5377716567537192
 20
52.0608663809240682
 30
0.0
 40
0.1490245531803514
 50
5.0000960475204899
 51
184.9996371748831052
  0
ARC
  5
163C
  8
0
 10
58.5678351047442973
 20
54.6878239754101187
 30
0.0
 40
0.147988
 50
90.0
 51
270.0
  0
LINE
  5
163D
  8
0
 10
59.7320681047443003
 20
54.5398359754101278
 30
0.0
 11
58.5678351047442973
 21
54.5398359754101278
 31
0.0
  0
LINE
  5
163E
  8
0
 10
60.0743475588326632
 20
53.5730864429409266
 30
0.0
 11
58.8317761047442929
 21
53.1693499754101282
 31
0.0
  0
LINE
  5
163F
  8
0
 10
59.9389353838886194
 20
53.8402945512977311
 30
0.0
 11
58.7403151047443117
 21
53.4508389754101216
 31
0.0
  0
ARC
  5
1640
  8
0
 10
58.7860457051331409
 20
53.3100945080283068
 30
0.0
 40
0.1479874755190884
 50
107.999981883968303
 51
287.999900149241796
  0
LINE
  5
1641
  8
0
 10
60.7301072769558985
 20
52.8366483446812225
 30
0.0
 11
59.5063031047442976
 21
51.9475029754101314
 31
0.0
  0
LINE
  5
1642
  8
0
 10
60.4983567666829885
 20
53.0341171293997817
 30
0.0
 11
59.3323331047443077
 21
52.1869519754101319
 31
0.0
  0
ARC
  5
1643
  8
0
 10
59.4193175881242226
 20
52.0672271000633984
 30
0.0
 40
0.1479876553150951
 50
125.9997712778209973
 51
306.0002657488873865
  0
LINE
  5
1644
  8
0
 10
61.5654507376478506
 20
52.4254212265047101
 30
0.0
 11
60.525388104744323
 21
50.9938969754101166
 31
0.0
  0
LINE
  5
1645
  8
0
 10
61.2729026288190113
 20
52.5263060028055619
 30
0.0
 11
60.285939104744287
 21
51.1678669754101278
 31
0.0
  0
ARC
  5
1646
  8
0
 10
60.4056632293973834
 20
51.0808814587897402
 30
0.0
 40
0.1479876553150925
 50
143.9997342509682881
 51
324.0002287223259145
  0
LINE
  5
1647
  8
0
 10
61.9737591047443104
 20
52.3481309754101076
 30
0.0
 11
61.397806104744312
 21
50.575531975410108
 31
0.0
  0
ARC
  5
1648
  8
0
 10
61.5385505381617719
 20
50.529800770491768
 30
0.0
 40
0.1479876300279689
 50
161.999791454604491
 51
341.9999582953175263
  0
LINE
  5
1649
  8
0
 10
61.9405359166957581
 20
52.2458806356920604
 30
0.0
 11
60.9921043218159369
 21
51.6362771186636067
 31
0.0
  0
LINE
  5
164A
  8
0
 10
61.7950268245194607
 20
51.7980502202195368
 30
0.0
 11
60.4892975027900519
 21
50.9587927433417605
 31
0.0
  0
LINE
  5
164B
  8
0
 10
61.1829494767220083
 20
52.5657942503411135
 30
0.0
 11
60.0523910902612172
 21
52.3442589389557469
 31
0.0
  0
LINE
  5
164C
  8
0
 10
61.0639932751072507
 20
52.238766886771792
 30
0.0
 11
59.4520047038281874
 21
51.9228945029392079
 31
0.0
  0
LINE
  5
164D
  8
0
 10
60.2741917891107306
 20
53.2808839002768408
 30
0.0
 11
59.4737400528808919
 21
53.3779369792802285
 31
0.0
  0
LINE
  5
164E
  8
0
 10
60.4032339798810227
 20
52.9650064303981409
 30
0.0
 11
58.7725423708770407
 21
53.162724385973398
 31
0.0
  0
LINE
  5
164F
  8
0
 10
59.7941015610812272
 20
54.2837924848265772
 30
0.0
 11
59.2428364102472784
 21
54.5398359754101278
 31
0.0
  0
LINE
  5
1650
  8
0
 10
59.9142143557958065
 20
53.899375595364873
 30
0.0
 11
58.5094603833163802
 21
54.5518355933982306
 31
0.0
  0
LINE
  5
1651
  8
0
 10
59.7500908991753619
 20
54.5398359754101278
 30
0.0
 11
58.5678351047442973
 21
54.5398359754101278
 31
0.0
  0
LINE
  5
1652
  8
0
 10
59.7320681047443003
 20
54.8358119754101168
 30
0.0
 11
58.5678351047442973
 21
54.8358119754101168
 31
0.0
  0
LINE
  5
1653
  8
0
 10
59.8032480772759385
 20
55.4247318995132616
 30
0.0
 11
58.5094604202794386
 21
54.8238123732888667
 31
0.0
  0
LINE
  5
1654
  8
0
 10
59.7435763248480924
 20
55.0683872802687588
 30
0.0
 11
59.2428364191735213
 21
54.8358119754101168
 31
0.0
  0
LINE
  5
1667
  8
0
 10
59.7326353303131015
 20
54.8358119754101168
 30
0.0
 11
58.5678351047442973
 21
54.8358119754101168
 31
0.0
  0
LINE
  5
1668
  8
0
 10
62.2807721047443081
 20
52.335224975410128
 30
0.0
 11
61.6792951047442912
 21
50.4840699754101223
 31
0.0
  0
LINE
  5
1669
  8
0
 10
61.9236380614841693
 20
51.23607992106691
 30
0.0
 11
62.5905521047442974
 21
52.0738549754101285
 31
0.0
  0
LINE
  5
166A
  8
0
 10
61.6792951047442912
 20
50.4840699754101223
 30
0.0
 11
62.5500722353798793
 21
51.6111691444995984
 31
0.0
  0
LINE
  5
166D
  8
0
 10
64.432351104744285
 20
50.2154439754101318
 30
0.0
 11
77.0323511047442935
 21
50.2154439754101318
 31
0.0
  0
LINE
  5
166E
  8
0
 10
77.2320681047443003
 20
57.3347499754101193
 30
0.0
 11
77.2320681047443003
 21
52.3347499754101193
 31
0.0
  0
LINE
  5
166F
  8
0
 10
79.2320681047443003
 20
57.3347499754101193
 30
0.0
 11
77.2320681047443003
 21
57.3347499754101193
 31
0.0
  0
LINE
  5
1670
  8
0
 10
79.2320681047443003
 20
52.3347499754101193
 30
0.0
 11
77.2320681047443003
 21
52.3347499754101193
 31
0.0
  0
LINE
  5
1671
  8
0
 10
62.2326351047443111
 20
57.3347499754101193
 30
0.0
 11
64.2326351047443183
 21
57.3347499754101193
 31
0.0
  0
LINE
  5
1672
  8
0
 10
64.2326351047443183
 20
57.3347499754101193
 30
0.0
 11
64.2326351047443183
 21
52.3347499754101193
 31
0.0
  0
ARC
  5
1673
  8
0
 10
62.2326351047443111
 20
54.8347499754101193
 30
0.0
 40
2.5
 50
90.0
 51
270.0
  0
LINE
  5
1674
  8
0
 10
62.2326351047443111
 20
52.3347499754101193
 30
0.0
 11
64.2326351047443183
 21
52.3347499754101193
 31
0.0
  0
LINE
  5
1675
  8
0
 10
64.432351104744285
 20
58.1075339659243113
 30
0.0
 11
64.432351104744285
 21
60.4154439754101134
 31
0.0
  0
LINE
  5
1676
  8
0
 10
64.432351104744285
 20
51.7859537377479171
 30
0.0
 11
64.432351104744285
 21
57.5896942130723417
 31
0.0
  0
LINE
  5
1677
  8
0
 10
77.0323511047443361
 20
58.3308496309747184
 30
0.0
 11
77.0323511047442935
 21
60.4154439754101134
 31
0.0
  0
LINE
  5
1679
  8
0
 10
77.0323511047442935
 20
52.1430081082185026
 30
0.0
 11
77.0323511047442935
 21
57.232639842601742
 31
0.0
  0
LINE
  5
167A
  8
0
 10
77.0323511047442935
 20
51.5664896544368077
 30
0.0
 11
77.0323511047442935
 21
51.7722432531979422
 31
0.0
  0
ARC
  5
167B
  8
0
 10
62.2326351047443111
 20
54.8347499754101193
 30
0.0
 40
2.0
 50
90.0
 51
270.0
  0
LINE
  5
167C
  8
0
 10
62.2326351047443111
 20
56.8347499754101122
 30
0.0
 11
64.2326351047443183
 21
56.8347499754101122
 31
0.0
  0
LINE
  5
167D
  8
0
 10
62.2326351047443111
 20
52.8347499754101193
 30
0.0
 11
64.2326351047443183
 21
52.8347499754101193
 31
0.0
  0
LINE
  5
167E
  8
0
 10
79.2320681047443003
 20
56.8347499754101122
 30
0.0
 11
77.2320681047443003
 21
56.8347499754101122
 31
0.0
  0
ARC
  5
167F
  8
0
 10
79.2320681047443003
 20
54.8347499754101193
 30
0.0
 40
2.0
 50
270.0
 51
90.0
  0
LINE
  5
1680
  8
0
 10
79.2320681047443003
 20
52.8347499754101193
 30
0.0
 11
77.2320681047443003
 21
52.8347499754101193
 31
0.0
  0
LINE
  5
1681
  8
1
 10
70.7323511047442963
 20
69.5154439754101219
 30
0.0
 11
70.7323511047442963
 21
42.0154439754101077
 31
0.0
  0
LINE
  5
1682
  8
1
 10
49.7320245615313326
 20
54.5154439754103066
 30
0.0
 11
54.732024561531361
 21
54.5154439754103635
 31
0.0
  0
LINE
  5
1683
  8
0
 10
54.232351511224941
 20
60.5154439749268107
 30
0.0
 11
53.2323515107656817
 21
59.5154439762296619
 31
0.0
  0
LINE
  5
1684
  8
0
 10
53.2323515107658807
 20
49.5154439745898074
 30
0.0
 11
54.2323515112251968
 21
48.515443975892687
 31
0.0
  0
LINE
  5
1685
  8
0
 10
52.6323515107658721
 20
49.5154439754097169
 30
0.0
 11
53.2323515107658807
 21
49.5154439754097382
 31
0.0
  0
LINE
  5
1686
  8
0
 10
53.232351510765703
 20
59.5154439754097169
 30
0.0
 11
52.6323515107656803
 21
59.5154439754097027
 31
0.0
  0
LINE
  5
1687
  8
0
 10
53.2323515107658807
 20
49.5154439754097524
 30
0.0
 11
53.2323515107656817
 21
59.5154439754097524
 31
0.0
  0
LINE
  5
1688
  8
0
 10
52.6323515107656803
 20
59.5154439754097027
 30
0.0
 11
52.6323515107658721
 21
49.5154439754097169
 31
0.0
  0
LINE
  5
1689
  8
5
 10
52.232351511224941
 20
60.5154439749268107
 30
0.0
 11
51.2323515107656817
 21
59.5154439762296619
 31
0.0
  0
LINE
  5
168A
  8
5
 10
51.2323515107658807
 20
49.5154439745898074
 30
0.0
 11
52.2323515112251968
 21
48.515443975892687
 31
0.0
  0
LINE
  5
168B
  8
5
 10
50.6323515107658721
 20
49.5154439754097169
 30
0.0
 11
51.2323515107658807
 21
49.5154439754097382
 31
0.0
  0
LINE
  5
168C
  8
5
 10
51.232351510765703
 20
59.5154439754097169
 30
0.0
 11
50.6323515107656732
 21
59.5154439754097027
 31
0.0
  0
POLYLINE
  5
168D
  8
5
 66
     1
 10
0.0
 20
0.0
 30
0.0
 70
   128
  0
VERTEX
  5
1891
  8
5
 10
49.2323515107654117
 20
51.1983857303428564
 30
0.0
  0
VERTEX
  5
1892
  8
5
 10
49.9893530594779065
 20
50.7618918114405773
 30
0.0
  0
VERTEX
  5
1893
  8
5
 10
50.6323515107658579
 20
50.4462557936932328
 30
0.0
  0
SEQEND
  5
1894
  8
5
  0
POLYLINE
  5
168E
  8
5
 66
     1
 10
0.0
 20
0.0
 30
0.0
 70
   128
  0
VERTEX
  5
1895
  8
5
 10
50.6323515107657016
 20
58.5846321571262081
 30
0.0
  0
VERTEX
  5
1896
  8
5
 10
49.9893530594777573
 20
58.2689961393788707
 30
0.0
  0
VERTEX
  5
1897
  8
5
 10
49.2323515107654117
 20
57.8325022204765915
 30
0.0
  0
SEQEND
  5
1898
  8
5
  0
LINE
  5
168F
  8
5
 10
50.6323515107656732
 20
59.5154439754097027
 30
0.0
 11
50.6323515107657016
 21
58.5846321571262081
 31
0.0
  0
LINE
  5
1690
  8
5
 10
50.6323515107658579
 20
50.4462557936932328
 30
0.0
 11
50.6323515107658721
 21
49.5154439754097169
 31
0.0
  0
LINE
  5
1691
  8
5
 10
49.2323515107654117
 20
51.1983857303428564
 30
0.0
 11
49.2323515107654117
 21
57.8325022204765915
 31
0.0
  0
LINE
  5
1692
  8
0
 10
51.2323515107654117
 20
51.2750736262067903
 30
0.0
 11
51.2323515107654117
 21
57.7558143246140432
 31
0.0
  0
ARC
  5
1693
  8
0
 10
53.9823515107657812
 20
54.5154439754104132
 30
0.0
 40
4.25
 50
108.520688505411897
 51
130.3202150699775075
  0
ARC
  5
1694
  8
0
 10
53.9823515107657812
 20
54.5154439754104132
 30
0.0
 40
4.25
 50
229.6797849300224073
 51
251.4793114945906041
  0
LINE
  5
1695
  8
5
 10
52.232351511224941
 20
61.8154439758698899
 30
0.0
 11
52.432351511224951
 21
62.0154439758698928
 31
0.0
  0
LINE
  5
1696
  8
5
 10
52.232351511224941
 20
61.8154439758698899
 30
0.0
 11
52.432351511224951
 21
62.0154439758698928
 31
0.0
  0
LINE
  5
1697
  8
5
 10
52.232351511224941
 20
60.5154439749268107
 30
0.0
 11
52.232351511224941
 21
61.8154439758698899
 31
0.0
  0
LINE
  5
1698
  8
5
 10
52.2323515107654117
 20
47.2154439754103592
 30
0.0
 11
52.4323515107654075
 21
47.0154439754103493
 31
0.0
  0
LINE
  5
1699
  8
5
 10
52.2323515112251968
 20
48.515443975892687
 30
0.0
 11
52.2323515107654117
 21
47.2154439754103592
 31
0.0
  0
LINE
  5
169A
  8
5
 10
52.432351511224951
 20
62.0154439758698928
 30
0.0
 11
53.932351511224951
 21
62.0154439758698928
 31
0.0
  0
LINE
  5
169B
  8
5
 10
52.4323515107654075
 20
47.0154439754103493
 30
0.0
 11
53.9323515107654217
 21
47.0154439754103493
 31
0.0
  0
LINE
  5
169C
  8
0
 10
87.0323506987228939
 20
47.0154439754100935
 30
0.0
 11
71.4323506987231696
 21
47.0154439754100935
 31
0.0
  0
LINE
  5
169D
  8
0
 10
87.2323506987231809
 20
61.8154439754103535
 30
0.0
 11
87.2323506987231809
 21
47.2154439754103592
 31
0.0
  0
LINE
  5
169E
  8
0
 10
87.2323506987231809
 20
47.2154439754103592
 30
0.0
 11
87.0323506987231781
 21
47.0154439754103493
 31
0.0
  0
LINE
  5
169F
  8
0
 10
87.2323506987231809
 20
61.8154439754103535
 30
0.0
 11
87.0323506987231781
 21
62.0154439754103493
 31
0.0
  0
LINE
  5
16A0
  8
1
 10
91.7326776479572601
 20
54.5154439754103066
 30
0.0
 11
86.7326776479572601
 21
54.5154439754103635
 31
0.0
  0
LINE
  5
16A1
  8
0
 10
87.2323506982636445
 20
60.5154439749268107
 30
0.0
 11
88.2323506987228967
 21
59.5154439762296619
 31
0.0
  0
LINE
  5
16A2
  8
0
 10
88.2323506987227262
 20
49.5154439745898074
 30
0.0
 11
87.2323506982633745
 21
48.515443975892687
 31
0.0
  0
LINE
  5
16A3
  8
0
 10
88.8323506987226779
 20
49.5154439754097169
 30
0.0
 11
88.2323506987227262
 21
49.5154439754097382
 31
0.0
  0
LINE
  5
16A4
  8
0
 10
88.2323506987228967
 20
59.5154439754097169
 30
0.0
 11
88.8323506987229052
 21
59.5154439754097027
 31
0.0
  0
LINE
  5
16A5
  8
0
 10
88.2323506987227262
 20
49.5154439754097524
 30
0.0
 11
88.2323506987228967
 21
59.5154439754097524
 31
0.0
  0
LINE
  5
16A6
  8
0
 10
88.8323506987229052
 20
59.5154439754097027
 30
0.0
 11
88.8323506987226779
 21
49.5154439754097169
 31
0.0
  0
LINE
  5
16A7
  8
5
 10
89.2323506982636587
 20
60.5154439749268107
 30
0.0
 11
90.2323506987228967
 21
59.5154439762296619
 31
0.0
  0
LINE
  5
16A8
  8
5
 10
90.2323506987227262
 20
49.5154439745898074
 30
0.0
 11
89.2323506982633745
 21
48.515443975892687
 31
0.0
  0
LINE
  5
16A9
  8
5
 10
90.8323506987226921
 20
49.5154439754097169
 30
0.0
 11
90.2323506987227262
 21
49.5154439754097382
 31
0.0
  0
LINE
  5
16AA
  8
5
 10
90.2323506987228967
 20
59.5154439754097169
 30
0.0
 11
90.8323506987229337
 21
59.5154439754097027
 31
0.0
  0
POLYLINE
  5
16AB
  8
5
 66
     1
 10
0.0
 20
0.0
 30
0.0
 70
   128
  0
VERTEX
  5
1899
  8
5
 10
92.2323506987231809
 20
51.1983857303428564
 30
0.0
  0
VERTEX
  5
189A
  8
5
 10
91.4753491500107003
 20
50.7618918114405773
 30
0.0
  0
VERTEX
  5
189B
  8
5
 10
90.8323506987227489
 20
50.4462557936932328
 30
0.0
  0
SEQEND
  5
189C
  8
5
  0
POLYLINE
  5
16AC
  8
5
 66
     1
 10
0.0
 20
0.0
 30
0.0
 70
   128
  0
VERTEX
  5
189D
  8
5
 10
90.832350698722891
 20
58.5846321571262081
 30
0.0
  0
VERTEX
  5
189E
  8
5
 10
91.475349150010814
 20
58.2689961393788707
 30
0.0
  0
VERTEX
  5
189F
  8
5
 10
92.2323506987231809
 20
57.8325022204765915
 30
0.0
  0
SEQEND
  5
18A0
  8
5
  0
LINE
  5
16AD
  8
5
 10
90.8323506987229337
 20
59.5154439754097027
 30
0.0
 11
90.832350698722891
 21
58.5846321571262081
 31
0.0
  0
LINE
  5
16AE
  8
5
 10
90.8323506987227489
 20
50.4462557936932328
 30
0.0
 11
90.8323506987226921
 21
49.5154439754097169
 31
0.0
  0
LINE
  5
16AF
  8
5
 10
92.2323506987231809
 20
51.1983857303428564
 30
0.0
 11
92.2323506987231809
 21
57.8325022204765915
 31
0.0
  0
LINE
  5
16B0
  8
0
 10
90.2323506987231951
 20
51.2750736262067903
 30
0.0
 11
90.2323506987231951
 21
57.7558143246140432
 31
0.0
  0
ARC
  5
16B1
  8
0
 10
87.4823506987228114
 20
54.5154439754104132
 30
0.0
 40
4.25
 50
49.6797849300224286
 51
71.4793114945880461
  0
ARC
  5
16B2
  8
0
 10
87.4823506987228114
 20
54.5154439754104132
 30
0.0
 40
4.25
 50
288.5206885054103054
 51
310.3202150699776212
  0
LINE
  5
16B3
  8
5
 10
89.2323506982636587
 20
61.8154439758698899
 30
0.0
 11
89.0323506982636275
 21
62.0154439758698928
 31
0.0
  0
LINE
  5
16B4
  8
5
 10
89.2323506982636587
 20
61.8154439758698899
 30
0.0
 11
89.0323506982636275
 21
62.0154439758698928
 31
0.0
  0
LINE
  5
16B5
  8
5
 10
89.2323506982636587
 20
60.5154439749268107
 30
0.0
 11
89.2323506982636587
 21
61.8154439758698899
 31
0.0
  0
LINE
  5
16B6
  8
5
 10
89.2323506987231667
 20
47.2154439754103592
 30
0.0
 11
89.0323506987231923
 21
47.0154439754103493
 31
0.0
  0
LINE
  5
16B7
  8
5
 10
89.2323506982633745
 20
48.515443975892687
 30
0.0
 11
89.2323506987231667
 21
47.2154439754103592
 31
0.0
  0
LINE
  5
16B8
  8
5
 10
89.0323506982636275
 20
62.0154439758698928
 30
0.0
 11
87.5323506982636559
 21
62.0154439758698928
 31
0.0
  0
LINE
  5
16B9
  8
5
 10
89.0323506987231923
 20
47.0154439754103493
 30
0.0
 11
87.5323506987231923
 21
47.0154439754103493
 31
0.0
  0
LINE
  5
16BA
  8
0
 10
71.4323506987231696
 20
49.0154439754101219
 30
0.0
 11
71.4323506987231696
 21
47.0154439754100935
 31
0.0
  0
LINE
  5
16BB
  8
0
 10
77.0163598404570138
 20
57.7861856920619772
 30
0.0
 11
77.4887982031787033
 21
58.4648774689032322
 31
0.0
  0
LINE
  5
16BC
  8
0
 10
76.9758137565305702
 20
58.2496295703924005
 30
0.0
 11
77.554460944202205
 21
59.0808988308604484
 31
0.0
  0
ARC
  5
16BD
  8
0
 10
76.7595900135804357
 20
59.0112167102918335
 30
0.0
 40
0.149024256163722
 50
5.0003648633498647
 51
184.9998890632766972
  0
ARC
  5
16BE
  8
0
 10
76.9080085603307708
 20
57.3147814830728066
 30
0.0
 40
0.1490245531800441
 50
185.0000625388526885
 51
4.9996706835512148
  0
LINE
  5
16BF
  8
0
 10
76.9080471047443126
 20
59.0242059754101334
 30
0.0
 11
77.0564661047443025
 21
57.3277689754101232
 31
0.0
  0
LINE
  5
16C0
  8
0
 10
76.6111328145552335
 20
58.9982286780029099
 30
0.0
 11
76.7595511047442898
 21
57.3017929754101232
 31
0.0
  0
LINE
  5
16C1
  8
0
 10
76.6699458688317037
 20
58.3259896640240569
 30
0.0
 11
76.1444538384848357
 21
59.0808980001464974
 31
0.0
  0
LINE
  5
16C2
  8
0
 10
76.7221488245763652
 20
57.7293047285399368
 30
0.0
 11
76.2101160064536742
 21
58.4648774672598677
 31
0.0
  0
ARC
  5
16C3
  8
0
 10
76.0127240135804669
 20
59.0112167102917979
 30
0.0
 40
0.1490242561637349
 50
5.0003648633584517
 51
184.9998890632705013
  0
ARC
  5
16C4
  8
0
 10
76.1611425603307595
 20
57.3147814830727995
 30
0.0
 40
0.1490245531800306
 50
185.0000625388491073
 51
4.9996706835544602
  0
LINE
  5
16C5
  8
0
 10
76.1611811047443013
 20
59.0242059754101334
 30
0.0
 11
76.3096001047442911
 21
57.3277689754101232
 31
0.0
  0
LINE
  5
16C6
  8
0
 10
75.8642668145552221
 20
58.9982286780029028
 30
0.0
 11
76.0126851047442784
 21
57.3017929754101232
 31
0.0
  0
ARC
  5
16C7
  8
0
 10
75.1286710999437304
 20
57.3147810302822975
 30
0.0
 40
0.149024055081727
 50
184.9999045427614135
 51
4.9998621878120417
  0
ARC
  5
16C8
  8
0
 10
74.9802520204093952
 20
59.0112167184302692
 30
0.0
 40
0.1490242486514388
 50
5.0003619750957293
 51
184.9998924569181895
  0
LINE
  5
16C9
  8
0
 10
75.9641358556586539
 20
57.8567156832381499
 30
0.0
 11
75.1119818434393238
 21
59.0808979957623066
 31
0.0
  0
LINE
  5
16CA
  8
0
 10
76.0294129918222552
 20
57.2450990733048286
 30
0.0
 11
75.1772585330578238
 21
58.4692834485104811
 31
0.0
  0
LINE
  5
16CB
  8
0
 10
75.128709104744317
 20
59.0242059754101334
 30
0.0
 11
75.2771281047443068
 21
57.3277689754101232
 31
0.0
  0
LINE
  5
16CC
  8
0
 10
74.8317948296371611
 20
58.998228678002917
 30
0.0
 11
74.9802141047442916
 21
57.3017929754101232
 31
0.0
  0
ARC
  5
16CD
  8
0
 10
74.0961990999437177
 20
57.3147810302822904
 30
0.0
 40
0.1490240550817282
 50
184.9999045427560134
 51
4.999862187817314
  0
ARC
  5
16CE
  8
0
 10
73.9477805600241282
 20
59.0112162656390993
 30
0.0
 40
0.1490247467512201
 50
5.0005199697654072
 51
184.9997009524977898
  0
LINE
  5
16CF
  8
0
 10
74.9316646309192294
 20
57.8567145695189495
 30
0.0
 11
74.0795134398519082
 21
59.0808928292494429
 31
0.0
  0
LINE
  5
16D0
  8
0
 10
74.9969414615882357
 20
57.2450998178091481
 30
0.0
 11
74.1447873028580631
 21
58.4692823408069273
 31
0.0
  0
LINE
  5
16D1
  8
0
 10
74.0962381047443017
 20
59.0242059754101334
 30
0.0
 11
74.2446561047442941
 21
57.3277689754101232
 31
0.0
  0
LINE
  5
16D2
  8
0
 10
73.7993228296371342
 20
58.9982286780029099
 30
0.0
 11
73.9477421047442931
 21
57.3017929754101232
 31
0.0
  0
ARC
  5
16D3
  8
0
 10
73.0637275527348748
 20
57.3147815698967733
 30
0.0
 40
0.1490245531803458
 50
185.0000960477443925
 51
4.999637174659199
  0
ARC
  5
16D4
  8
0
 10
72.9153085600242008
 20
59.011216265639078
 30
0.0
 40
0.1490247467512602
 50
5.0005199697776437
 51
184.9997009524851137
  0
LINE
  5
16D5
  8
0
 10
73.8991924871676389
 20
57.8567162126027767
 30
0.0
 11
73.0470382752863117
 21
59.0808988119562031
 31
0.0
  0
LINE
  5
16D6
  8
0
 10
73.9644694615881377
 20
57.2450998178092902
 30
0.0
 11
73.1123156769919689
 21
58.4692818033359387
 31
0.0
  0
LINE
  5
16D7
  8
0
 10
73.063766104744289
 20
59.0242059754101334
 30
0.0
 11
73.2121851047442789
 21
57.3277689754101232
 31
0.0
  0
LINE
  5
16D8
  8
0
 10
72.7668508296371357
 20
58.9982286780029099
 30
0.0
 11
72.9152701047442946
 21
57.3017929754101232
 31
0.0
  0
ARC
  5
16D9
  8
0
 10
72.0312555603307629
 20
57.3147814830727995
 30
0.0
 40
0.1490245531800447
 50
185.0000625388495052
 51
4.9996706835536493
  0
ARC
  5
16DA
  8
0
 10
71.8828370135804704
 20
59.0112167102918406
 30
0.0
 40
0.1490242561637226
 50
5.000364863347432
 51
184.9998890632791131
  0
LINE
  5
16DB
  8
0
 10
72.8667204871676546
 20
57.8567162126027981
 30
0.0
 11
72.0145668324628332
 21
59.0808980115308771
 31
0.0
  0
LINE
  5
16DC
  8
0
 10
72.9319981894217335
 20
57.2450987722223985
 30
0.0
 11
72.0798436769919277
 21
58.4692818033359103
 31
0.0
  0
LINE
  5
16DD
  8
0
 10
72.0312941047443047
 20
59.0242059754101334
 30
0.0
 11
72.1797131047442946
 21
57.3277689754101232
 31
0.0
  0
LINE
  5
16DE
  8
0
 10
71.7343798145552256
 20
58.9982286780029099
 30
0.0
 11
71.8827981047442819
 21
57.3017929754101232
 31
0.0
  0
ARC
  5
16DF
  8
0
 10
70.9987835603307502
 20
57.3147814830728208
 30
0.0
 40
0.1490245531800564
 50
185.0000625388609024
 51
4.9996706835426279
  0
ARC
  5
16E0
  8
0
 10
70.8503650135804293
 20
59.0112167102918193
 30
0.0
 40
0.1490242561636937
 50
5.0003648633527753
 51
184.9998890632774931
  0
LINE
  5
16E1
  8
0
 10
71.8342488556586858
 20
57.8567156832381428
 30
0.0
 11
70.9820948324625647
 21
59.0808980115312323
 31
0.0
  0
LINE
  5
16E2
  8
0
 10
71.8995260297554353
 20
57.2450990015948804
 30
0.0
 11
71.0473716769919434
 21
58.4692818033359387
 31
0.0
  0
LINE
  5
16E3
  8
0
 10
70.998822104744292
 20
59.0242059754101334
 30
0.0
 11
71.1472411047443103
 21
57.3277689754101232
 31
0.0
  0
LINE
  5
16E4
  8
0
 10
70.7019078145552413
 20
58.9982286780029028
 30
0.0
 11
70.8503261047442976
 21
57.3017929754101232
 31
0.0
  0
ARC
  5
16E5
  8
0
 10
69.9663120999437211
 20
57.3147810302822833
 30
0.0
 40
0.1490240550817288
 50
184.9999045427531996
 51
4.9998621878201526
  0
ARC
  5
16E6
  8
0
 10
69.8178930204093859
 20
59.0112167184302834
 30
0.0
 40
0.1490242486514412
 50
5.0003619750920789
 51
184.9998924569293024
  0
LINE
  5
16E7
  8
0
 10
70.8017768556586731
 20
57.8567156832381499
 30
0.0
 11
69.949622843439343
 21
59.0808979957623279
 31
0.0
  0
LINE
  5
16E8
  8
0
 10
70.8670508651832733
 20
57.2451049843110482
 30
0.0
 11
70.0148995332408077
 21
58.469283446419098
 31
0.0
  0
LINE
  5
16E9
  8
0
 10
69.9663501047443077
 20
59.0242059754101334
 30
0.0
 11
70.1147691047442976
 21
57.3277689754101232
 31
0.0
  0
LINE
  5
16EA
  8
0
 10
69.6694358296371519
 20
58.9982286780029028
 30
0.0
 11
69.8178551047443108
 21
57.3017929754101232
 31
0.0
  0
ARC
  5
16EB
  8
0
 10
68.9338405527348499
 20
57.3147815698967733
 30
0.0
 40
0.1490245531803593
 50
185.0000960477476895
 51
4.9996371746559554
  0
ARC
  5
16EC
  8
0
 10
68.7854215600241758
 20
59.0112162656390993
 30
0.0
 40
0.1490247467512349
 50
5.0005199697662182
 51
184.9997009524998077
  0
LINE
  5
16ED
  8
0
 10
69.7693056309192201
 20
57.8567145695189708
 30
0.0
 11
68.9171544398521547
 21
59.0808928292491231
 31
0.0
  0
LINE
  5
16EE
  8
0
 10
69.8345824615880844
 20
57.2450998178093897
 30
0.0
 11
68.9824286769919723
 21
58.4692818033359387
 31
0.0
  0
LINE
  5
16EF
  8
0
 10
68.9338791047442925
 20
59.0242059754101334
 30
0.0
 11
69.0822981047442823
 21
57.3277689754101232
 31
0.0
  0
LINE
  5
16F0
  8
0
 10
68.6369638296371534
 20
58.9982286780029028
 30
0.0
 11
68.7853831047442839
 21
57.3017929754101232
 31
0.0
  0
ARC
  5
16F1
  8
0
 10
67.9013685527348372
 20
57.3147815698967591
 30
0.0
 40
0.1490245531803747
 50
185.0000960477428009
 51
4.9996371746608208
  0
ARC
  5
16F2
  8
0
 10
67.7529495600241631
 20
59.0112162656390922
 30
0.0
 40
0.1490247467512485
 50
5.0005199697715614
 51
184.9997009524965108
  0
LINE
  5
16F3
  8
0
 10
68.7368334871676581
 20
57.856716212602791
 30
0.0
 11
67.884679275286274
 21
59.0808988119562599
 31
0.0
  0
LINE
  5
16F4
  8
0
 10
68.8021111894216659
 20
57.2450987722225477
 30
0.0
 11
67.9499566769919312
 21
58.4692818033359316
 31
0.0
  0
LINE
  5
16F5
  8
0
 10
67.9014071047443082
 20
59.0242059754101334
 30
0.0
 11
68.0498261047442838
 21
57.3277689754101232
 31
0.0
  0
LINE
  5
16F6
  8
0
 10
67.6044918296371549
 20
58.9982286780029028
 30
0.0
 11
67.7529111047442854
 21
57.3017929754101232
 31
0.0
  0
ARC
  5
16F7
  8
0
 10
66.8688965603308674
 20
57.3147814830715774
 30
0.0
 40
0.1490245531800374
 50
185.0000625383808028
 51
4.9996706840227816
  0
ARC
  5
16F8
  8
0
 10
66.7204780135804327
 20
59.0112167102918406
 30
0.0
 40
0.1490242561637085
 50
5.000364863347027
 51
184.9998890632795963
  0
LINE
  5
16F9
  8
0
 10
67.7043614871676738
 20
57.8567162126027696
 30
0.0
 11
66.8522078324627529
 21
59.0808980115310334
 31
0.0
  0
LINE
  5
16FA
  8
0
 10
67.7696391894214827
 20
57.2450987722227822
 30
0.0
 11
66.9174846769919469
 21
58.4692818033359316
 31
0.0
  0
LINE
  5
16FB
  8
0
 10
66.8689351047442955
 20
59.0242059754101334
 30
0.0
 11
67.0173541047443138
 21
57.3277689754101232
 31
0.0
  0
LINE
  5
16FC
  8
0
 10
66.5720208145552448
 20
58.9982286780029028
 30
0.0
 11
66.7204391047443011
 21
57.3017929754101232
 31
0.0
  0
ARC
  5
16FD
  8
0
 10
65.836424560330741
 20
57.3147814830728279
 30
0.0
 40
0.1490245531800416
 50
185.0000625388630056
 51
4.9996706835401241
  0
ARC
  5
16FE
  8
0
 10
65.6880060135804484
 20
59.0112167102918406
 30
0.0
 40
0.1490242561637097
 50
5.0003648633445916
 51
184.999889063285309
  0
LINE
  5
16FF
  8
0
 10
66.6718898556586765
 20
57.8567156832381499
 30
0.0
 11
65.8197358324627118
 21
59.0808980115310476
 31
0.0
  0
LINE
  5
1700
  8
0
 10
66.7371670297532233
 20
57.2450990015980992
 30
0.0
 11
65.8850126769919342
 21
58.46928180333596
 31
0.0
  0
LINE
  5
1701
  8
0
 10
65.8364631047442828
 20
59.0242059754101334
 30
0.0
 11
65.984882104744301
 21
57.3277689754101232
 31
0.0
  0
LINE
  5
1702
  8
0
 10
65.5395488145552605
 20
58.9982286780029028
 30
0.0
 11
65.6879671047442883
 21
57.3017929754101232
 31
0.0
  0
ARC
  5
1703
  8
0
 10
64.8039530999436835
 20
57.3147810302822833
 30
0.0
 40
0.1490240550817572
 50
184.9999045427543933
 51
4.9998621878189358
  0
ARC
  5
1704
  8
0
 10
64.6555340204093483
 20
59.0112167184302905
 30
0.0
 40
0.1490242486513994
 50
5.0003619750875474
 51
184.9998924569333951
  0
LINE
  5
1705
  8
0
 10
65.6394178556586638
 20
57.8567156832381499
 30
0.0
 11
64.7872638434390637
 21
59.0808979957626974
 31
0.0
  0
LINE
  5
1706
  8
0
 10
65.7046918651833636
 20
57.2451049843109487
 30
0.0
 11
64.8525405332407985
 21
58.4692834464191264
 31
0.0
  0
LINE
  5
1707
  8
0
 10
64.8039911047442843
 20
59.0242059754101334
 30
0.0
 11
64.9524101047442883
 21
57.3277689754101232
 31
0.0
  0
LINE
  5
1708
  8
0
 10
64.507076829637171
 20
58.9982286780029028
 30
0.0
 11
64.6554961047443015
 21
57.3017929754101232
 31
0.0
  0
ARC
  5
170A
  8
0
 10
63.6230625600241595
 20
59.0112162656390922
 30
0.0
 40
0.1490247467512266
 50
5.0005199697694618
 51
184.9997009524944929
  0
LINE
  5
170B
  8
0
 10
64.6069466309192393
 20
57.8567145695189495
 30
0.0
 11
63.7547954398520602
 21
59.0808928292492581
 31
0.0
  0
LINE
  5
170C
  8
0
 10
64.672223461587933
 20
57.2450998178095816
 30
0.0
 11
63.8200696769919631
 21
58.4692818033359529
 31
0.0
  0
LINE
  5
170D
  8
0
 10
63.7715201047443117
 20
59.0242059754101334
 30
0.0
 11
63.9193283464084487
 21
57.3347499754101193
 31
0.0
  0
LINE
  5
170E
  8
0
 10
63.4746048296371583
 20
58.9982286780029028
 30
0.0
 11
63.6201407334250888
 21
57.3347499754101193
 31
0.0
  0
ARC
  5
1710
  8
0
 10
62.5905905600241823
 20
59.0112162656390922
 30
0.0
 40
0.1490247467512414
 50
5.0005199697690559
 51
184.9997009524969087
  0
LINE
  5
1711
  8
0
 10
63.5744744871676772
 20
57.8567162126027483
 30
0.0
 11
62.7223202752861795
 21
59.0808988119563878
 31
0.0
  0
LINE
  5
1712
  8
0
 10
63.5773459352918877
 20
57.3347499754101193
 30
0.0
 11
62.7875976769919504
 21
58.4692818033359529
 31
0.0
  0
LINE
  5
1713
  8
0
 10
62.7390481047442989
 20
59.0242059754101334
 30
0.0
 11
62.8874671047442888
 21
57.3277689754101232
 31
0.0
  0
LINE
  5
1714
  8
0
 10
62.4421328296371385
 20
58.9982286780029028
 30
0.0
 11
62.5876687334251329
 21
57.3347499754101193
 31
0.0
  0
LINE
  5
1715
  8
0
 10
81.1849490931006841
 20
56.3956009757673584
 30
0.0
 11
82.6915973330287244
 21
56.2129230199081391
 31
0.0
  0
LINE
  5
1716
  8
0
 10
81.406423320675728
 20
56.0685163207737105
 30
0.0
 11
81.990395156607633
 21
55.9977109715400303
 31
0.0
  0
LINE
  5
1717
  8
0
 10
80.4001419343813524
 20
57.1368810640484668
 30
0.0
 11
82.0121305056559464
 21
57.4527534478801627
 31
0.0
  0
LINE
  5
1718
  8
0
 10
80.6630702919804463
 20
56.8846847890384382
 30
0.0
 11
81.4117447303868147
 21
57.0313891316224826
 31
0.0
  0
LINE
  5
1719
  8
0
 10
79.6691092566984338
 20
57.5775982909046888
 30
0.0
 11
80.9821398027747961
 21
58.4215486294817268
 31
0.0
  0
LINE
  5
171A
  8
0
 10
79.7561049607669048
 20
57.2792101148948873
 30
0.0
 11
80.4720308876726591
 21
57.7393708321566308
 31
0.0
  0
LINE
  5
171B
  8
0
 10
78.7579100901096041
 20
57.7499495348938225
 30
0.0
 11
79.8119650877758176
 21
58.940667689054159
 31
0.0
  0
LINE
  5
171C
  8
0
 10
78.7884161745640057
 20
57.3347499754101193
 30
0.0
 11
79.5634814216510335
 21
58.2103063174723232
 31
0.0
  0
LINE
  5
171D
  8
0
 10
77.7347787223209394
 20
57.8567162126027483
 30
0.0
 11
78.5869330978123486
 21
59.0808990469941122
 31
0.0
  0
LINE
  5
171E
  8
0
 10
77.7332363341893853
 20
57.3347499754101193
 30
0.0
 11
78.5214644655559511
 21
58.4670980284807911
 31
0.0
  0
ARC
  5
171F
  8
0
 10
77.6861906494644501
 20
59.0112162656393906
 30
0.0
 40
0.1490247467512226
 50
355.0002990473922182
 51
174.9994800303429088
  0
ARC
  5
1720
  8
0
 10
78.7186626443216966
 20
59.0112161758893379
 30
0.0
 40
0.1490247494511012
 50
355.0003337763384934
 51
174.9994454829871984
  0
ARC
  5
1721
  8
0
 10
79.9255846713268312
 20
58.8458471803284482
 30
0.0
 40
0.1479876300280172
 50
341.9997914546078164
 51
161.9999582953130925
  0
LINE
  5
1723
  8
0
 10
79.2788535343172924
 20
57.334312161789903
 30
0.0
 11
79.7848401047443048
 21
58.8915779754101294
 31
0.0
  0
ARC
  5
1724
  8
0
 10
81.0584719800909852
 20
58.2947664920301918
 30
0.0
 40
0.1479876553150878
 50
323.999734251121879
 51
144.0002287221734889
  0
LINE
  5
1725
  8
0
 10
80.3515997670674267
 20
57.0700684889683103
 30
0.0
 11
81.1781961047443161
 21
58.2077809754101168
 31
0.0
  0
LINE
  5
1726
  8
0
 10
80.0723773462160722
 20
57.1892945977728218
 30
0.0
 11
80.9387471047442943
 21
58.381750975410128
 31
0.0
  0
ARC
  5
1727
  8
0
 10
82.044817621364686
 20
57.3084208507570523
 30
0.0
 40
0.1479876553150941
 50
305.9997712776810772
 51
126.0002657490271929
  0
LINE
  5
1728
  8
0
 10
81.1305959025180954
 20
56.4612776269058401
 30
0.0
 11
82.1318021047442954
 21
57.1886959754101198
 31
0.0
  0
LINE
  5
1729
  8
0
 10
80.9229109577965886
 20
56.6762304793204876
 30
0.0
 11
81.9578321047442842
 21
57.4281449754101203
 31
0.0
  0
ARC
  5
172A
  8
0
 10
82.6780895043563788
 20
56.065553442792222
 30
0.0
 40
0.1479874755190892
 50
287.9999818835984229
 51
107.9999001496072992
  0
LINE
  5
172B
  8
0
 10
81.6224413846808403
 20
55.566949116740858
 30
0.0
 11
82.7238201047442772
 21
55.9248089754101301
 31
0.0
  0
LINE
  5
172C
  8
0
 10
81.5190489683778736
 20
55.844561110907172
 30
0.0
 11
82.6323591047443102
 21
56.2062979754101235
 31
0.0
  0
LINE
  5
172D
  8
0
 10
78.8671203852704252
 20
58.9982286780029099
 30
0.0
 11
78.721584828494727
 21
57.3347499754101193
 31
0.0
  0
LINE
  5
172E
  8
0
 10
78.5702051047442893
 20
59.0242059754101334
 30
0.0
 11
78.4223968284946835
 21
57.3347499754101193
 31
0.0
  0
LINE
  5
172F
  8
0
 10
77.8346483798514157
 20
58.998228678002917
 30
0.0
 11
77.6891124760634995
 21
57.3347499754101193
 31
0.0
  0
LINE
  5
1730
  8
0
 10
77.537733104744305
 20
59.0242059754101334
 30
0.0
 11
77.3899248630801679
 21
57.3347499754101193
 31
0.0
  0
LINE
  5
1732
  8
0
 10
59.9455829816744412
 20
55.844399709902973
 30
0.0
 11
58.8317761047442929
 21
56.2062979754101235
 31
0.0
  0
LINE
  5
1733
  8
0
 10
59.8422104165590412
 20
55.5667812658030087
 30
0.0
 11
58.7403151047443117
 21
55.9248089754101301
 31
0.0
  0
ARC
  5
1734
  8
0
 10
58.7860457051331409
 20
56.0655534427919306
 30
0.0
 40
0.1479874755190884
 50
72.0000998507581613
 51
252.000018116031697
  0
LINE
  5
1735
  8
0
 10
60.5415417378885508
 20
56.676000426754662
 30
0.0
 11
59.5063031047442976
 21
57.4281449754101203
 31
0.0
  0
LINE
  5
1736
  8
0
 10
60.3338894127814598
 20
56.461023260332567
 30
0.0
 11
59.3323331047443077
 21
57.1886959754101198
 31
0.0
  0
ARC
  5
1737
  8
0
 10
59.4193175881242226
 20
57.3084208507568533
 30
0.0
 40
0.1479876553150951
 50
53.9997342511126206
 51
234.0002287221790027
  0
LINE
  5
1738
  8
0
 10
61.3918748451043612
 20
57.1891335859991301
 30
0.0
 11
60.525388104744323
 21
58.381750975410128
 31
0.0
  0
LINE
  5
1739
  8
0
 10
61.1126870092758026
 20
57.0698598750473707
 30
0.0
 11
60.285939104744287
 21
58.2077809754101168
 31
0.0
  0
ARC
  5
173A
  8
0
 10
60.4056632293973834
 20
58.2947664920305115
 30
0.0
 40
0.1479876553150925
 50
35.9997712776740784
 51
216.0002657490317119
  0
ARC
  5
173C
  8
0
 10
61.5385505381617719
 20
58.8458471803284695
 30
0.0
 40
0.1479876300279689
 50
18.0000417046824701
 51
198.000208545395509
  0
LINE
  5
173D
  8
0
 10
61.7081723574413417
 20
57.2791187746487722
 30
0.0
 11
60.9921043218159369
 21
57.7393708321566379
 31
0.0
  0
LINE
  5
173E
  8
0
 10
61.7950268245194607
 20
57.5775977306007078
 30
0.0
 11
60.4892975027900519
 21
58.416855207478477
 31
0.0
  0
LINE
  5
173F
  8
0
 10
60.801508429618579
 20
56.884597881900639
 30
0.0
 11
60.0523910902612172
 21
57.0313890118644977
 31
0.0
  0
LINE
  5
1740
  8
0
 10
61.0639932751072507
 20
57.1368810640484597
 30
0.0
 11
59.4520047038281874
 21
57.4527534478810367
 31
0.0
  0
LINE
  5
1741
  8
0
 10
60.0583218550049622
 20
56.0685902778836009
 30
0.0
 11
59.4737400528808919
 21
55.9977109715400232
 31
0.0
  0
LINE
  5
1742
  8
0
 10
60.2798150694560633
 20
56.3956772350147375
 30
0.0
 11
58.7725423708770407
 21
56.2129235648468466
 31
0.0
  0
LINE
  5
1743
  8
0
 10
62.1852851292758402
 20
57.3343015311542885
 30
0.0
 11
61.6792951047442912
 21
58.8915779754101294
 31
0.0
  0
LINE
  5
1744
  8
0
 10
61.9236380614841693
 20
58.1395680297533417
 30
0.0
 11
62.5643165585678531
 21
57.3347499754101193
 31
0.0
  0
LINE
  5
1745
  8
0
 10
61.6792951047442912
 20
58.8915779754101294
 30
0.0
 11
62.5500722353798793
 21
57.7644788063206533
 31
0.0
  0
LINE
  5
1747
  8
0
 10
79.5821972452208826
 20
57.3101104713761274
 30
0.0
 11
80.066329104744284
 21
58.8001159754101295
 31
0.0
  0
LINE
  5
1748
  8
0
 10
61.881963744177547
 20
57.3100337160908211
 30
0.0
 11
61.397806104744312
 21
58.8001159754101295
 31
0.0
  0
LINE
  5
176F
  8
1
 10
71.2323511047442963
 20
94.2388950308224054
 30
0.0
 11
71.2323511047442963
 21
110.7388950308224054
 31
0.0
  0
LINE
  5
1770
  8
1
 10
70.7323515107648717
 20
83.4705390308224224
 30
0.0
 11
70.7323515107648717
 21
121.5072510308224025
 31
0.0
  0
LINE
  5
1773
  8
1
 10
70.2323511047442963
 20
110.7388950308224054
 30
0.0
 11
70.2323511047442963
 21
94.2388950308224054
 31
0.0
  0
ENDSEC
  0
EOF
