  0
SECTION
  2
HEADER
  9
$ACADVER
  1
AC1009
  9
$INSBASE
 10
0.0
 20
0.0
 30
0.0
  9
$EXTMIN
 10
0.0
 20
-2.960436562073669
 30
0.0
  9
$EXTMAX
 10
135.4143772085103024
 20
121.5072510308224025
 30
0.0
  9
$LIMMIN
 10
0.0
 20
0.0
  9
$LIMMAX
 10
192.5
 20
135.0
  9
$ORTHOMODE
 70
     1
  9
$REGENMODE
 70
     1
  9
$FILLMODE
 70
     1
  9
$QTEXTMODE
 70
     0
  9
$MIRRTEXT
 70
     0
  9
$DRAGMODE
 70
     2
  9
$LTSCALE
 40
5.0
  9
$OSMODE
 70
    37
  9
$ATTMODE
 70
     1
  9
$TEXTSIZE
 40
0.2
  9
$TRACEWID
 40
0.05
  9
$TEXTSTYLE
  7
STANDARD
  9
$CLAYER
  8
0
  9
$CELTYPE
  6
BYLAYER
  9
$CECOLOR
 62
   256
  9
$DIMSCALE
 40
0.5
  9
$DIMASZ
 40
3.0
  9
$DIMEXO
 40
1.0
  9
$DIMDLI
 40
6.0
  9
$DIMRND
 40
0.0
  9
$DIMDLE
 40
0.0
  9
$DIMEXE
 40
1.0
  9
$DIMTP
 40
495.0
  9
$DIMTM
 40
0.0
  9
$DIMTXT
 40
3.0
  9
$DIMCEN
 40
0.0
  9
$DIMTSZ
 40
0.0
  9
$DIMTOL
 70
     0
  9
$DIMLIM
 70
     0
  9
$DIMTIH
 70
     0
  9
$DIMTOH
 70
     0
  9
$DIMSE1
 70
     0
  9
$DIMSE2
 70
     0
  9
$DIMTAD
 70
     1
  9
$DIMZIN
 70
     0
  9
$DIMBLK
  1

  9
$DIMASO
 70
     0
  9
$DIMSHO
 70
     0
  9
$DIMPOST
  1

  9
$DIMAPOST
  1

  9
$DIMALT
 70
     0
  9
$DIMALTD
 70
     2
  9
$DIMALTF
 40
25.3999999999999986
  9
$DIMLFAC
 40
1.0
  9
$DIMTOFL
 70
     1
  9
$DIMTVP
 40
0.0
  9
$DIMTIX
 70
     1
  9
$DIMSOXD
 70
     0
  9
$DIMSAH
 70
     0
  9
$DIMBLK1
  1

  9
$DIMBLK2
  1

  9
$DIMSTYLE
  2
STANDARD
  9
$DIMCLRD
 70
     0
  9
$DIMCLRE
 70
     0
  9
$DIMCLRT
 70
     4
  9
$DIMTFAC
 40
1.0
  9
$DIMGAP
 40
1.0
  9
$LUNITS
 70
     2
  9
$LUPREC
 70
     1
  9
$SKETCHINC
 40
0.1
  9
$FILLETRAD
 40
0.0
  9
$AUNITS
 70
     0
  9
$AUPREC
 70
     0
  9
$MENU
  1
E:\r13\win\SUPPORT\ACAD
  9
$ELEVATION
 40
0.0
  9
$PELEVATION
 40
0.0
  9
$THICKNESS
 40
0.0
  9
$LIMCHECK
 70
     0
  9
$BLIPMODE
 70
     0
  9
$CHAMFERA
 40
0.0
  9
$CHAMFERB
 40
0.0
  9
$SKPOLY
 70
     0
  9
$TDCREATE
 40
2450647.4584953710436821
  9
$TDUPDATE
 40
2460571.6583796301856637
  9
$TDINDWG
 40
0.1050400463
  9
$TDUSRTIMER
 40
0.1050400463
  9
$USRTIMER
 70
     1
  9
$ANGBASE
 50
0.0
  9
$ANGDIR
 70
     0
  9
$PDMODE
 70
     0
  9
$PDSIZE
 40
0.0
  9
$PLINEWID
 40
0.0
  9
$COORDS
 70
     1
  9
$SPLFRAME
 70
     0
  9
$SPLINETYPE
 70
     6
  9
$SPLINESEGS
 70
     8
  9
$ATTDIA
 70
     1
  9
$ATTREQ
 70
     1
  9
$HANDLING
 70
     1
  9
$HANDSEED
  5
2C5C
  9
$SURFTAB1
 70
     6
  9
$SURFTAB2
 70
     6
  9
$SURFTYPE
 70
     6
  9
$SURFU
 70
     6
  9
$SURFV
 70
     6
  9
$UCSNAME
  2

  9
$UCSORG
 10
0.0
 20
0.0
 30
0.0
  9
$UCSXDIR
 10
1.0
 20
0.0
 30
0.0
  9
$UCSYDIR
 10
0.0
 20
1.0
 30
0.0
  9
$PUCSNAME
  2

  9
$PUCSORG
 10
0.0
 20
0.0
 30
0.0
  9
$PUCSXDIR
 10
1.0
 20
0.0
 30
0.0
  9
$PUCSYDIR
 10
0.0
 20
1.0
 30
0.0
  9
$USERI1
 70
     3
  9
$USERI2
 70
     1
  9
$USERI3
 70
     0
  9
$USERI4
 70
     0
  9
$USERI5
 70
     0
  9
$USERR1
 40
0.5
  9
$USERR2
 40
3.0
  9
$USERR3
 40
3.0
  9
$USERR4
 40
3.0
  9
$USERR5
 40
10.0
  9
$WORLDVIEW
 70
     1
  9
$SHADEDGE
 70
     3
  9
$SHADEDIF
 70
    70
  9
$TILEMODE
 70
     1
  9
$MAXACTVP
 70
    16
  9
$PLIMCHECK
 70
     0
  9
$PEXTMIN
 10
1.0000000000000000E+20
 20
1.0000000000000000E+20
 30
1.0000000000000000E+20
  9
$PEXTMAX
 10
-1.0000000000000000E+20
 20
-1.0000000000000000E+20
 30
-1.0000000000000000E+20
  9
$PLIMMIN
 10
0.0
 20
0.0
  9
$PLIMMAX
 10
12.0
 20
9.0
  9
$UNITMODE
 70
     0
  9
$VISRETAIN
 70
     0
  9
$PLINEGEN
 70
     0
  9
$PSLTSCALE
 70
     0
  0
ENDSEC
  0
SECTION
  2
TABLES
  0
TABLE
  2
VPORT
 70
     1
  0
VPORT
  2
*ACTIVE
 70
     0
 10
0.0
 20
0.0
 11
1.0
 21
1.0
 12
234.8522167487685124
 22
100.0
 13
0.0
 23
0.0
 14
2.5
 24
2.5
 15
10.0
 25
10.0
 16
0.0
 26
0.0
 36
1.0
 17
0.0
 27
0.0
 37
0.0
 40
200.0
 41
2.3485221674876842
 42
50.0
 43
0.0
 44
0.0
 50
0.0
 51
0.0
 71
     0
 72
   100
 73
     1
 74
     0
 75
     0
 76
     0
 77
     0
 78
     0
  0
ENDTAB
  0
TABLE
  2
LTYPE
 70
     3
  0
LTYPE
  2
CONTINUOUS
 70
     0
  3
Solid Line
 72
    65
 73
     0
 40
0.0
  0
LTYPE
  2
CENTER
 70
     0
  3
____ _ ____ _ ____ _ ____ _ ____ _ ____ _ ____
 72
    65
 73
     4
 40
2.0
 49
1.25
 49
-0.25
 49
0.25
 49
-0.25
  0
LTYPE
  2
PHANTOM
 70
     0
  3
_____ _ _ _____ _ _ _____ _ _ _____ _ _ ____
 72
    65
 73
     6
 40
2.5
 49
1.25
 49
-0.25
 49
0.25
 49
-0.25
 49
0.25
 49
-0.25
  0
ENDTAB
  0
TABLE
  2
LAYER
 70
     5
  0
LAYER
  2
0
 70
     0
 62
     7
  6
CONTINUOUS
  0
LAYER
  2
1
 70
     0
 62
     1
  6
CENTER
  0
LAYER
  2
5
 70
     0
 62
     3
  6
PHANTOM
  0
LAYER
  2
3
 70
     0
 62
     3
  6
CONTINUOUS
  0
LAYER
  2
DEFPOINTS
 70
     0
 62
     7
  6
CONTINUOUS
  0
ENDTAB
  0
TABLE
  2
STYLE
 70
     2
  0
STYLE
  2
STANDARD
 70
     0
 40
0.0
 41
1.0
 50
0.0
 71
     0
 42
0.2
  3
SIMPLEX
  4
BIGFONT
  0
STYLE
  2
STANDARD1
 70
     0
 40
0.0
 41
1.0
 50
0.0
 71
     0
 42
3.0
  3
txt
  4

  0
ENDTAB
  0
TABLE
  2
VIEW
 70
     0
  0
ENDTAB
  0
TABLE
  2
UCS
 70
     0
  0
ENDTAB
  0
TABLE
  2
APPID
 70
    11
  0
APPID
  2
ACAD
 70
     0
  0
APPID
  2
ACAD_MLEADERVER
 70
     0
  0
APPID
  2
ACAD_NAV_VCDISPLAY
 70
     0
  0
APPID
  2
ACAD_TC
 70
     0
  0
APPID
  2
ACAD_EXEMPT_FROM_CAD_STANDARDS
 70
     0
  0
APPID
  2
ACAD_DSTYLE_DIMRADIAL_EXTENSION
 70
     0
  0
APPID
  2
GRADIENTCOLOR1ACI
 70
     0
  0
APPID
  2
GRADIENTCOLOR2ACI
 70
     0
  0
APPID
  2
ACAD_PSEXT
 70
     0
  0
APPID
  2
ACAD_DSTYLE_DIMJAG
 70
     0
  0
APPID
  2
ACAD_DSTYLE_DIMTALN
 70
     0
  0
ENDTAB
  0
TABLE
  2
DIMSTYLE
 70
     1
  0
DIMSTYLE
  2
STANDARD
 70
     0
  3

  4

  5

  6

  7

 40
1.0
 41
0.18
 42
0.0625
 43
0.38
 44
0.18
 45
0.0
 46
0.0
 47
0.0
 48
0.0
140
0.18
141
0.09
142
0.0
143
25.3999999999999986
144
1.0
145
0.0
146
1.0
147
0.09
 71
     0
 72
     0
 73
     1
 74
     1
 75
     0
 76
     0
 77
     0
 78
     0
170
     0
171
     2
172
     0
173
     0
174
     0
175
     0
176
     0
177
     0
178
     0
  0
ENDTAB
  0
ENDSEC
  0
SECTION
  2
BLOCKS
  0
BLOCK
  8
0
  2
$MODEL_SPACE
 70
     0
 10
0.0
 20
0.0
 30
0.0
  3
$MODEL_SPACE
  1

  0
ENDBLK
  5
87C
  8
0
  0
BLOCK
 67
     1
  8
0
  2
$PAPER_SPACE
 70
     0
 10
0.0
 20
0.0
 30
0.0
  3
$PAPER_SPACE
  1

  0
ENDBLK
  5
87A
 67
     1
  8
0
  0
BLOCK
  8
0
  2
STDGX5
 70
     0
 10
0.0
 20
0.0
 30
0.0
  3
STDGX5
  1

  0
ENDBLK
  5
4F
  8
0
  0
BLOCK
  8
0
  2
*X1
 70
     1
 10
0.0
 20
0.0
 30
0.0
  3
*X1
  1

  0
LINE
  5
7B5
  8
0
 62
     0
 10
143.531218188115389
 20
49.6124119527009313
 30
0.0
 11
164.5246422716458028
 21
61.7329709985391304
 31
0.0
  0
LINE
  5
7B6
  8
0
 62
     0
 10
143.531218188115389
 20
50.9980525987560327
 30
0.0
 11
162.6138998193515874
 21
62.0154439754101219
 31
0.0
  0
LINE
  5
7B7
  8
0
 62
     0
 10
143.531218188115389
 20
52.3836932448111199
 30
0.0
 11
160.2138998193516102
 21
62.0154439754101219
 31
0.0
  0
LINE
  5
7B8
  8
0
 62
     0
 10
143.531218188115389
 20
53.7693338908662284
 30
0.0
 11
157.8138998193516045
 21
62.0154439754101219
 31
0.0
  0
LINE
  5
7B9
  8
0
 62
     0
 10
143.531218188115389
 20
55.1549745369213369
 30
0.0
 11
155.4138998193515988
 21
62.0154439754101219
 31
0.0
  0
LINE
  5
7BA
  8
0
 62
     0
 10
143.531218188115389
 20
56.5406151829764383
 30
0.0
 11
153.0138998193515931
 21
62.0154439754101219
 31
0.0
  0
LINE
  5
7BB
  8
0
 62
     0
 10
143.531218188115389
 20
57.9262558290315468
 30
0.0
 11
150.6138998193515874
 21
62.0154439754101219
 31
0.0
  0
LINE
  5
7BC
  8
0
 62
     0
 10
143.531218188115389
 20
59.3118964750866269
 30
0.0
 11
148.2138998193516102
 21
62.0154439754101219
 31
0.0
  0
LINE
  5
7BD
  8
0
 62
     0
 10
143.531218188115389
 20
60.6975371211417425
 30
0.0
 11
145.8138998193516045
 21
62.0154439754101219
 31
0.0
  0
LINE
  5
7BE
  8
0
 62
     0
 10
143.531218188115389
 20
48.2267713066458228
 30
0.0
 11
164.5312181881155027
 21
60.3511269596279689
 31
0.0
  0
LINE
  5
7BF
  8
0
 62
     0
 10
143.837816687385498
 20
47.018145386677439
 30
0.0
 11
164.5312181881155027
 21
58.9654863135728675
 31
0.0
  0
LINE
  5
7C0
  8
0
 62
     0
 10
146.2331377058183932
 20
47.0154439754101219
 30
0.0
 11
164.5312181881155027
 21
57.5798456675177732
 31
0.0
  0
LINE
  5
7C1
  8
0
 62
     0
 10
148.6331377058183989
 20
47.0154439754101219
 30
0.0
 11
164.5312181881155027
 21
56.1942050214626576
 31
0.0
  0
LINE
  5
7C2
  8
0
 62
     0
 10
151.0331377058184046
 20
47.0154439754101219
 30
0.0
 11
164.5312181881155027
 21
54.8085643754075633
 31
0.0
  0
LINE
  5
7C3
  8
0
 62
     0
 10
153.4331377058184103
 20
47.0154439754101219
 30
0.0
 11
164.5312181881155027
 21
53.4229237293524619
 31
0.0
  0
LINE
  5
7C4
  8
0
 62
     0
 10
155.8331377058183875
 20
47.0154439754101219
 30
0.0
 11
164.5312181881155027
 21
52.0372830832973605
 31
0.0
  0
LINE
  5
7C5
  8
0
 62
     0
 10
158.2331377058183932
 20
47.0154439754101219
 30
0.0
 11
164.5312181881155027
 21
50.651642437242252
 31
0.0
  0
LINE
  5
7C6
  8
0
 62
     0
 10
160.6331377058183989
 20
47.0154439754101219
 30
0.0
 11
164.5312181881155027
 21
49.2660017911871506
 31
0.0
  0
LINE
  5
7C7
  8
0
 62
     0
 10
163.0331377058184046
 20
47.0154439754101219
 30
0.0
 11
164.5312181881155027
 21
47.8803611451320492
 31
0.0
  0
LINE
  5
7C8
  8
0
 62
     0
 10
157.1458266900557135
 20
47.0154439754101219
 30
0.0
 11
148.4855726522112889
 21
62.015443975410129
 31
0.0
  0
LINE
  5
7C9
  8
0
 62
     0
 10
155.7601860440005908
 20
47.0154439754101219
 30
0.0
 11
147.0999320061561946
 21
62.015443975410129
 31
0.0
  0
LINE
  5
7CA
  8
0
 62
     0
 10
154.3745453979454965
 20
47.0154439754101219
 30
0.0
 11
145.714291360101214
 21
62.015443975410129
 31
0.0
  0
LINE
  5
7CB
  8
0
 62
     0
 10
152.9889047518904022
 20
47.0154439754101219
 30
0.0
 11
144.328650714046006
 21
62.015443975410129
 31
0.0
  0
LINE
  5
7CC
  8
0
 62
     0
 10
151.6032641058353079
 20
47.0154439754101219
 30
0.0
 11
143.531218188115389
 21
60.996637625929921
 31
0.0
  0
LINE
  5
7CD
  8
0
 62
     0
 10
150.2176234597802136
 20
47.0154439754101219
 30
0.0
 11
143.531218188115389
 21
58.5966376259298798
 31
0.0
  0
LINE
  5
7CE
  8
0
 62
     0
 10
148.8319828137250909
 20
47.0154439754101219
 30
0.0
 11
143.531218188115389
 21
56.1966376259298883
 31
0.0
  0
LINE
  5
7CF
  8
0
 62
     0
 10
147.4463421676699966
 20
47.0154439754101219
 30
0.0
 11
143.531218188115389
 21
53.7966376259299182
 31
0.0
  0
LINE
  5
7D0
  8
0
 62
     0
 10
146.0607015216149023
 20
47.0154439754101219
 30
0.0
 11
143.531218188115389
 21
51.3966376259298698
 31
0.0
  0
LINE
  5
7D1
  8
0
 62
     0
 10
144.675060875559808
 20
47.0154439754101219
 30
0.0
 11
143.531218188115389
 21
48.9966376259298926
 31
0.0
  0
LINE
  5
7D2
  8
0
 62
     0
 10
158.5314673361108078
 20
47.0154439754101219
 30
0.0
 11
149.8712132982664116
 21
62.015443975410129
 31
0.0
  0
LINE
  5
7D3
  8
0
 62
     0
 10
159.9171079821659021
 20
47.0154439754101219
 30
0.0
 11
151.2568539443215059
 21
62.015443975410129
 31
0.0
  0
LINE
  5
7D4
  8
0
 62
     0
 10
161.30274862822111
 20
47.0154439754101219
 30
0.0
 11
152.6424945903767139
 21
62.015443975410129
 31
0.0
  0
LINE
  5
7D5
  8
0
 62
     0
 10
162.6883892742760906
 20
47.0154439754101219
 30
0.0
 11
154.0281352364316945
 21
62.015443975410129
 31
0.0
  0
LINE
  5
7D6
  8
0
 62
     0
 10
164.0740299203312134
 20
47.0154439754101219
 30
0.0
 11
155.4137758824867888
 21
62.015443975410129
 31
0.0
  0
LINE
  5
7D7
  8
0
 62
     0
 10
164.5312181881155027
 20
48.6235706669834329
 30
0.0
 11
156.7994165285419967
 21
62.015443975410129
 31
0.0
  0
LINE
  5
7D8
  8
0
 62
     0
 10
164.5312181881155027
 20
51.0235706669834101
 30
0.0
 11
158.1850571745970058
 21
62.015443975410129
 31
0.0
  0
LINE
  5
7D9
  8
0
 62
     0
 10
164.5312181881155027
 20
53.4235706669834585
 30
0.0
 11
159.5706978206522137
 21
62.015443975410129
 31
0.0
  0
LINE
  5
7DA
  8
0
 62
     0
 10
164.5312181881155027
 20
55.8235706669834286
 30
0.0
 11
160.956338466707308
 21
62.015443975410129
 31
0.0
  0
LINE
  5
7DB
  8
0
 62
     0
 10
164.5312181881155027
 20
58.2235706669834201
 30
0.0
 11
162.3419791127624023
 21
62.015443975410129
 31
0.0
  0
LINE
  5
7DC
  8
0
 62
     0
 10
164.5312181881155027
 20
60.6235706669833903
 30
0.0
 11
163.7276197588174966
 21
62.015443975410129
 31
0.0
  0
ENDBLK
  5
7DD
  8
0
  0
BLOCK
  8
0
  2
*X2
 70
     1
 10
0.0
 20
0.0
 30
0.0
  3
*X2
  1

  0
LINE
  5
2C02
  8
0
 62
     0
 10
23.7752854464864996
 20
56.1277808275933694
 30
0.0
 11
22.1626618531613317
 21
57.7404044209185372
 31
0.0
  0
LINE
  5
2C03
  8
0
 62
     0
 10
24.1105395101078592
 20
55.0854199827854529
 30
0.0
 11
21.1203010083534117
 21
58.0756584845399004
 31
0.0
  0
LINE
  5
2C04
  8
0
 62
     0
 10
23.9734087362964203
 20
54.5154439754103635
 30
0.0
 11
20.5503250009782903
 21
57.9385277107284935
 31
0.0
  0
LINE
  5
2C05
  8
0
 62
     0
 10
20.5503250009782903
 20
57.9385277107284935
 30
0.0
 11
20.3722572700032813
 21
58.1165954417035024
 31
0.0
  0
LINE
  5
2C06
  8
0
 62
     0
 10
24.1514764672714612
 20
54.337376244435319
 30
0.0
 11
23.9734087362964203
 21
54.5154439754103635
 31
0.0
  0
LINE
  5
2C07
  8
0
 62
     0
 10
23.2663019551098706
 20
54.5154439754103635
 30
0.0
 11
20.5503250009782903
 21
57.2314209295419403
 31
0.0
  0
LINE
  5
2C08
  8
0
 62
     0
 10
20.5503250009782903
 20
57.2314209295419403
 30
0.0
 11
19.7505675949159283
 21
58.0311783356042881
 31
0.0
  0
LINE
  5
2C09
  8
0
 62
     0
 10
24.0660593611722504
 20
53.7156865693479801
 30
0.0
 11
23.2663019551098706
 21
54.5154439754103635
 31
0.0
  0
LINE
  5
2C0A
  8
0
 62
     0
 10
22.559195173923321
 20
54.5154439754103635
 30
0.0
 11
20.5503250009783009
 21
56.5243141483554012
 31
0.0
  0
LINE
  5
2C0B
  8
0
 62
     0
 10
20.5503250009783009
 20
56.5243141483554012
 30
0.0
 11
19.2114482949095589
 21
57.8631908544241185
 31
0.0
  0
LINE
  5
2C0C
  8
0
 62
     0
 10
23.8980718799920808
 20
53.1765672693415965
 30
0.0
 11
22.559195173923321
 21
54.5154439754103635
 31
0.0
  0
LINE
  5
2C0D
  8
0
 62
     0
 10
21.8520883927367713
 20
54.5154439754103635
 30
0.0
 11
20.5503250009782903
 21
55.817207367168848
 31
0.0
  0
LINE
  5
2C0E
  8
0
 62
     0
 10
20.5503250009782903
 20
55.817207367168848
 30
0.0
 11
18.7361807298605711
 21
57.63135163828656
 31
0.0
  0
LINE
  5
2C0F
  8
0
 62
     0
 10
23.6662326638545188
 20
52.701299704292623
 30
0.0
 11
21.8520883927367713
 21
54.5154439754103635
 31
0.0
  0
LINE
  5
2C10
  8
0
 62
     0
 10
21.1449816115502216
 20
54.5154439754103635
 30
0.0
 11
20.5503250009782903
 21
55.1101005859823019
 31
0.0
  0
LINE
  5
2C11
  8
0
 62
     0
 10
20.5503250009782903
 20
55.1101005859823019
 30
0.0
 11
18.3155403785148394
 21
57.3448852084457528
 31
0.0
  0
LINE
  5
2C12
  8
0
 62
     0
 10
23.3797662340137009
 20
52.280659352946877
 30
0.0
 11
21.1449816115502216
 21
54.5154439754103635
 31
0.0
  0
LINE
  5
2C13
  8
0
 62
     0
 10
20.5503250009782903
 20
54.4029938047957629
 30
0.0
 11
20.437874830363679
 21
54.5154439754103635
 31
0.0
  0
LINE
  5
2C14
  8
0
 62
     0
 10
20.437874830363679
 20
54.5154439754103635
 30
0.0
 11
17.9452102084097689
 21
57.0081085973642701
 31
0.0
  0
LINE
  5
2C15
  8
0
 62
     0
 10
23.0429896229322289
 20
51.9103291828418207
 30
0.0
 11
20.5503250009782903
 21
54.4029938047957629
 31
0.0
  0
LINE
  5
2C16
  8
0
 62
     0
 10
20.5503250009782903
 20
53.6958870236092025
 30
0.0
 11
19.7307680491771293
 21
54.5154439754103493
 31
0.0
  0
LINE
  5
2C17
  8
0
 62
     0
 10
19.7307680491771293
 20
54.5154439754103635
 30
0.0
 11
17.6241837530020007
 21
56.6220282715854921
 31
0.0
  0
LINE
  5
2C18
  8
0
 62
     0
 10
22.6569092971534509
 20
51.5893027274340383
 30
0.0
 11
20.5503250009782903
 21
53.6958870236092025
 31
0.0
  0
LINE
  5
2C19
  8
0
 62
     0
 10
20.5503250009782903
 20
52.9887802424226635
 30
0.0
 11
19.0236612679905903
 21
54.5154439754103635
 31
0.0
  0
LINE
  5
2C1A
  8
0
 62
     0
 10
19.0236612679905903
 20
54.5154439754103635
 30
0.0
 11
17.3544380042571689
 21
56.1846672391437707
 31
0.0
  0
LINE
  5
2C1B
  8
0
 62
     0
 10
22.2195482647117295
 20
51.3195569786892207
 30
0.0
 11
20.5503250009782903
 21
52.9887802424226635
 31
0.0
  0
LINE
  5
2C1C
  8
0
 62
     0
 10
20.5503250009782903
 20
52.2816734612361103
 30
0.0
 11
18.3165544868040406
 21
54.5154439754103635
 31
0.0
  0
LINE
  5
2C1D
  8
0
 62
     0
 10
18.3165544868040406
 20
54.5154439754103635
 30
0.0
 11
17.1415917291874287
 21
55.6904067330269612
 31
0.0
  0
LINE
  5
2C1E
  8
0
 62
     0
 10
21.72528775859492
 20
51.106710703619477
 30
0.0
 11
20.5503250009782903
 21
52.2816734612361103
 31
0.0
  0
LINE
  5
2C1F
  8
0
 62
     0
 10
20.5503250009782903
 20
51.574566680049557
 30
0.0
 11
17.6094477056174803
 21
54.5154439754103635
 31
0.0
  0
LINE
  5
2C20
  8
0
 62
     0
 10
17.6094477056174803
 20
54.5154439754103635
 30
0.0
 11
16.9971453268119106
 21
55.1277463542159225
 31
0.0
  0
LINE
  5
2C21
  8
0
 62
     0
 10
21.1626273797838813
 20
50.9622643012439624
 30
0.0
 11
20.5503250009782903
 21
51.574566680049557
 31
0.0
  0
LINE
  5
2C22
  8
0
 62
     0
 10
20.5076395181055595
 20
50.9101453817357381
 30
0.0
 11
16.9450264073037005
 21
54.4727584925376007
 31
0.0
  0
LINE
  5
2C23
  8
0
 62
     0
 10
19.6987870778294614
 20
51.0118910408252901
 30
0.0
 11
17.0467720663932489
 21
53.6639060522615026
 31
0.0
  0
LINE
  5
2C24
  8
0
 62
     0
 10
18.3250672613735617
 20
51.6785040760946401
 30
0.0
 11
17.7133851016625989
 21
52.2901862358056135
 31
0.0
  0
LINE
  5
2C25
  8
0
 62
     0
 10
22.4755236381341597
 20
51.4669016667826114
 30
0.0
 11
23.5988673096060211
 21
52.5902453382544692
 31
0.0
  0
LINE
  5
2C26
  8
0
 62
     0
 10
21.2875911435280685
 20
50.9860759533630699
 30
0.0
 11
24.079693023025559
 21
53.7781778328605569
 31
0.0
  0
LINE
  5
2C27
  8
0
 62
     0
 10
20.5503250009783009
 20
50.955916591999852
 30
0.0
 11
24.1098523843888302
 21
54.5154439754103706
 31
0.0
  0
LINE
  5
2C28
  8
0
 62
     0
 10
24.1098523843888302
 20
54.5154439754103706
 30
0.0
 11
24.1555862143711906
 21
54.561177805392731
 31
0.0
  0
LINE
  5
2C29
  8
0
 62
     0
 10
20.5045911709959015
 20
50.9101827620174419
 30
0.0
 11
20.5503250009783009
 21
50.955916591999852
 31
0.0
  0
LINE
  5
2C2A
  8
0
 62
     0
 10
20.5503250009782903
 20
51.663023373186391
 30
0.0
 11
23.4027456032022805
 21
54.5154439754103777
 31
0.0
  0
LINE
  5
2C2B
  8
0
 62
     0
 10
23.4027456032022805
 20
54.5154439754103777
 30
0.0
 11
24.0898086343883193
 21
55.2025070065964201
 31
0.0
  0
LINE
  5
2C2C
  8
0
 62
     0
 10
19.8632619697922088
 20
50.9759603420003131
 30
0.0
 11
20.5503250009782903
 21
51.663023373186391
 31
0.0
  0
LINE
  5
2C2D
  8
0
 62
     0
 10
20.5503250009783009
 20
52.3701301543729514
 30
0.0
 11
22.6956388220157308
 21
54.5154439754103777
 31
0.0
  0
LINE
  5
2C2E
  8
0
 62
     0
 10
22.6956388220157308
 20
54.5154439754103777
 30
0.0
 11
23.9358604539882585
 21
55.7556656073829089
 31
0.0
  0
LINE
  5
2C2F
  8
0
 62
     0
 10
19.3101033690057307
 20
51.1299085224003775
 30
0.0
 11
20.5503250009783009
 21
52.3701301543729514
 31
0.0
  0
LINE
  5
2C30
  8
0
 62
     0
 10
20.5503250009783009
 20
53.0772369355594904
 30
0.0
 11
21.9885320408291811
 21
54.5154439754103706
 31
0.0
  0
LINE
  5
2C31
  8
0
 62
     0
 10
21.9885320408291811
 20
54.5154439754103706
 30
0.0
 11
23.7154232321880407
 21
56.2423351667692302
 31
0.0
  0
LINE
  5
2C32
  8
0
 62
     0
 10
18.8234338096193916
 20
51.3503457442005882
 30
0.0
 11
20.5503250009783009
 21
53.0772369355594904
 31
0.0
  0
LINE
  5
2C33
  8
0
 62
     0
 10
20.5503250009783009
 20
53.7843437167460365
 30
0.0
 11
21.2814252596426314
 21
54.5154439754103635
 31
0.0
  0
LINE
  5
2C34
  8
0
 62
     0
 10
21.2814252596426314
 20
54.5154439754103635
 30
0.0
 11
23.4390424063635585
 21
56.6730611221313012
 31
0.0
  0
LINE
  5
2C35
  8
0
 62
     0
 10
18.3927078542573312
 20
51.6267265700250704
 30
0.0
 11
20.5503250009783009
 21
53.7843437167460365
 31
0.0
  0
LINE
  5
2C36
  8
0
 62
     0
 10
20.5503250009783009
 20
54.4914504979325827
 30
0.0
 11
20.5743184784560889
 21
54.5154439754103706
 31
0.0
  0
LINE
  5
2C37
  8
0
 62
     0
 10
20.5743184784560889
 20
54.5154439754103706
 30
0.0
 11
23.1118032709818486
 21
57.0529287679361303
 31
0.0
  0
LINE
  5
2C38
  8
0
 62
     0
 10
18.0128402084524986
 20
51.9539657054067874
 30
0.0
 11
20.5503250009783009
 21
54.4914504979325827
 31
0.0
  0
LINE
  5
2C39
  8
0
 62
     0
 10
19.8672116972695285
 20
54.5154439754103706
 30
0.0
 11
20.5503250009782903
 21
55.1985572791191288
 31
0.0
  0
LINE
  5
2C3A
  8
0
 62
     0
 10
20.5503250009782903
 20
55.1985572791191288
 30
0.0
 11
22.7352954227120811
 21
57.3835277008529232
 31
0.0
  0
LINE
  5
2C3B
  8
0
 62
     0
 10
17.6822412755357092
 20
52.3304735536765619
 30
0.0
 11
19.8672116972695285
 21
54.5154439754103706
 31
0.0
  0
LINE
  5
2C3C
  8
0
 62
     0
 10
19.1601049160829788
 20
54.5154439754103635
 30
0.0
 11
20.5503250009783009
 21
55.905664060305682
 31
0.0
  0
LINE
  5
2C3D
  8
0
 62
     0
 10
20.5503250009783009
 20
55.905664060305682
 30
0.0
 11
22.3081360801504012
 21
57.6634751394777822
 31
0.0
  0
LINE
  5
2C3E
  8
0
 62
     0
 10
17.4022938369108395
 20
52.7576328962382419
 30
0.0
 11
19.1601049160829788
 21
54.5154439754103635
 31
0.0
  0
LINE
  5
2C3F
  8
0
 62
     0
 10
18.4529981348964398
 20
54.5154439754103706
 30
0.0
 11
20.5503250009783009
 21
56.6127708414922211
 31
0.0
  0
LINE
  5
2C40
  8
0
 62
     0
 10
20.5503250009783009
 20
56.6127708414922211
 30
0.0
 11
21.8255172011905891
 21
57.8879630417045092
 31
0.0
  0
LINE
  5
2C41
  8
0
 62
     0
 10
17.177805934684109
 20
53.2402517751980398
 30
0.0
 11
18.4529981348964398
 21
54.5154439754103706
 31
0.0
  0
LINE
  5
2C42
  8
0
 62
     0
 10
17.7458913537098901
 20
54.5154439754103635
 30
0.0
 11
20.5503250009783009
 21
57.3198776226787672
 31
0.0
  0
LINE
  5
2C43
  8
0
 62
     0
 10
20.5503250009783009
 20
57.3198776226787672
 30
0.0
 11
21.2773775307883888
 21
58.0469301524888621
 31
0.0
  0
LINE
  5
2C44
  8
0
 62
     0
 10
17.0188388238997597
 20
53.7883914456002401
 30
0.0
 11
17.7458913537098901
 21
54.5154439754103635
 31
0.0
  0
LINE
  5
2C45
  8
0
 62
     0
 10
17.0387845725233404
 20
54.5154439754103635
 30
0.0
 11
20.5503250009783009
 21
58.0269844038653204
 31
0.0
  0
LINE
  5
2C46
  8
0
 62
     0
 10
20.5503250009783009
 20
58.0269844038653204
 30
0.0
 11
20.6431409910787416
 21
58.1198003939657681
 31
0.0
  0
LINE
  5
2C47
  8
0
 62
     0
 10
16.9459685824228607
 20
54.4226279853099015
 30
0.0
 11
17.0387845725233404
 21
54.5154439754103635
 31
0.0
  0
LINE
  5
2C48
  8
0
 62
     0
 10
17.0089560302050486
 20
55.192722214278632
 30
0.0
 11
19.8730467621100004
 21
58.0568129461835767
 31
0.0
  0
LINE
  5
2C49
  8
0
 62
     0
 10
17.4284814620582011
 20
56.3193544273183093
 30
0.0
 11
18.7464145490703196
 21
57.6372875143304384
 31
0.0
  0
ENDBLK
  5
2C4B
  8
0
  0
ENDSEC
  0
SECTION
  2
ENTITIES
  0
INSERT
  5
DE
  8
0
  2
STDGX5
 10
0.0
 20
0.0
 30
0.0
  0
INSERT
  5
DF
  8
0
  2
STDGX5
 10
0.0
 20
0.0
 30
0.0
  0
INSERT
  5
15C
  8
0
  2
STDGX5
 10
275.0
 20
0.0
 30
0.0
  0
INSERT
  5
15D
  8
0
  2
STDGX5
 10
275.0
 20
0.0
 30
0.0
  0
LINE
  5
4D5
  8
0
 10
84.2323511047442963
 20
61.815443975410119
 30
0.0
 11
84.0323511047443077
 21
62.0154439754101219
 31
0.0
  0
LINE
  5
4D6
  8
5
 10
86.2323511047442963
 20
61.815443975410119
 30
0.0
 11
86.0323511047443077
 21
62.0154439754101219
 31
0.0
  0
LINE
  5
4D7
  8
5
 10
86.0323511047443077
 20
47.0154439754101219
 30
0.0
 11
86.2323511047442963
 21
47.2154439754101176
 31
0.0
  0
LINE
  5
4D8
  8
0
 10
84.2323511047442963
 20
47.2154439754101176
 30
0.0
 11
84.0323511047443077
 21
47.0154439754101219
 31
0.0
  0
LINE
  5
4D9
  8
5
 10
84.2323511047442963
 20
47.0154439754101219
 30
0.0
 11
86.0323511047443077
 21
47.0154439754101219
 31
0.0
  0
LINE
  5
4DA
  8
5
 10
84.2323511047442963
 20
62.0154439754101219
 30
0.0
 11
86.0323511047443077
 21
62.0154439754101219
 31
0.0
  0
LINE
  5
4DB
  8
5
 10
86.2323511047442963
 20
61.815443975410119
 30
0.0
 11
86.2323511047442963
 21
47.2154439754101176
 31
0.0
  0
LINE
  5
4DC
  8
0
 10
84.2323511047442963
 20
61.815443975410119
 30
0.0
 11
84.2323511047442963
 21
47.2154439754101176
 31
0.0
  0
LINE
  5
507
  8
5
 10
86.2323511047442963
 20
92.4888950308224196
 30
0.0
 11
86.2323511047442963
 21
112.4888950308224054
 31
0.0
  0
LINE
  5
518
  8
0
 10
84.2323511047442963
 20
92.4888950308224196
 30
0.0
 11
84.2323511047442963
 21
112.4888950308224054
 31
0.0
  0
LINE
  5
659
  8
5
 10
84.2323511047442963
 20
112.9888950308224054
 30
0.0
 11
85.7323511047442963
 21
112.9888950308224054
 31
0.0
  0
LINE
  5
65A
  8
5
 10
84.2323511047442963
 20
91.9888950308224054
 30
0.0
 11
85.7323511047442963
 21
91.9888950308224054
 31
0.0
  0
ARC
  5
65D
  8
5
 10
85.7323511047442963
 20
92.4888950308224196
 30
0.0
 40
0.5
 50
270.0
 51
0.0
  0
ARC
  5
65E
  8
5
 10
85.7323511047442963
 20
112.4888950308224054
 30
0.0
 40
0.5
 50
0.0
 51
90.0
  0
ARC
  5
65F
  8
0
 10
83.7323511047442963
 20
112.4888950308224054
 30
0.0
 40
0.5
 50
0.0
 51
90.0
  0
ARC
  5
660
  8
0
 10
83.7323511047442963
 20
92.4888950308224196
 30
0.0
 40
0.5
 50
270.0
 51
0.0
  0
LINE
  5
665
  8
0
 10
110.4143772085103024
 20
64.5154439754101219
 30
0.0
 11
110.4143772085103024
 21
47.3654439754101091
 31
0.0
  0
LINE
  5
666
  8
0
 10
131.4143772085103024
 20
64.5154439754101219
 30
0.0
 11
131.4143772085103024
 21
47.3654439754101091
 31
0.0
  0
LINE
  5
667
  8
0
 10
110.7643772085102967
 20
47.0154439754101219
 30
0.0
 11
131.064377208510308
 21
47.0154439754101219
 31
0.0
  0
LINE
  5
668
  8
0
 10
110.4143772085103024
 20
64.5154439754101219
 30
0.0
 11
131.4143772085103024
 21
64.5154439754101219
 31
0.0
  0
LINE
  5
6B5
  8
0
 10
122.4143772085103024
 20
64.5154439754101219
 30
0.0
 11
122.4143772085103024
 21
62.0154439754101219
 31
0.0
  0
LINE
  5
6B6
  8
0
 10
119.4143772085103024
 20
62.0154439754101219
 30
0.0
 11
119.4143772085103024
 21
64.5154439754101219
 31
0.0
  0
ARC
  5
6D4
  8
0
 10
131.064377208510308
 20
47.3654439754101091
 30
0.0
 40
0.35
 50
270.0
 51
0.0
  0
ARC
  5
6D5
  8
0
 10
110.7643772085102967
 20
47.3654439754101091
 30
0.0
 40
0.35
 50
180.0
 51
270.0
  0
ARC
  5
6D6
  8
0
 10
131.064377208510308
 20
61.6654439754101134
 30
0.0
 40
0.35
 50
0.0
 51
90.0
  0
ARC
  5
6D7
  8
0
 10
110.7643772085102967
 20
61.6654439754101134
 30
0.0
 40
0.35
 50
90.0
 51
180.0
  0
LINE
  5
6D8
  8
0
 10
110.7643772085102967
 20
62.0154439754101219
 30
0.0
 11
131.064377208510308
 21
62.0154439754101219
 31
0.0
  0
LINE
  5
718
  8
1
 10
120.9143772085103024
 20
69.5154439754101219
 30
0.0
 11
120.9143772085103024
 21
42.0154439754101219
 31
0.0
  0
LINE
  5
719
  8
1
 10
70.7323511047442963
 20
69.5154439754101219
 30
0.0
 11
70.7323511047442963
 21
42.0154439754101077
 31
0.0
  0
LINE
  5
71A
  8
1
 10
89.2323511047442963
 20
102.4888950308224054
 30
0.0
 11
46.2323515107648717
 21
102.4888950308223059
 31
0.0
  0
LINE
  5
71B
  8
1
 10
70.7323515107648717
 20
83.4705390308224224
 30
0.0
 11
70.7323515107648717
 21
121.5072510308224025
 31
0.0
  0
INSERT
  5
7B4
  8
3
  2
*X1
 10
-33.1168409796051719
 20
0.0
 30
0.0
1001
ACAD
1000
HATCH
1002
{
1070
    19
1000
_U
1040
1.1999999999999991
1040
0.5235987755982988
1070
     1
1002
}
  0
TEXT
  5
933
  8
0
 62
     3
 10
0.0
 20
0.0
 30
0.0
 40
10.0
  1
BK2-VT-SP
  7
STANDARD1
  0
LINE
  5
13D4
  8
0
 10
31.0503250009782903
 20
64.5154439754101219
 30
0.0
 11
31.0503250009782903
 21
47.3654439754101091
 31
0.0
  0
LINE
  5
13D5
  8
0
 10
10.0503250009782903
 20
64.5154439754101219
 30
0.0
 11
10.0503250009782903
 21
47.3654439754101091
 31
0.0
  0
LINE
  5
13D6
  8
0
 10
30.7003250009782995
 20
47.0154439754101219
 30
0.0
 11
10.4003250009782793
 21
47.0154439754101219
 31
0.0
  0
LINE
  5
13D7
  8
0
 10
31.0503250009782903
 20
64.5154439754101219
 30
0.0
 11
10.0503250009782903
 21
64.5154439754101219
 31
0.0
  0
LINE
  5
13D8
  8
0
 10
35.0503250009782903
 20
56.8347499754101122
 30
0.0
 11
35.0503250009782903
 21
52.8347499754101193
 31
0.0
  0
LINE
  5
13D9
  8
0
 10
34.5686810009783017
 20
59.0063609754101179
 30
0.0
 11
34.5686810009783017
 21
50.6631389754101207
 31
0.0
  0
ARC
  5
13DA
  8
0
 10
31.4003250009782917
 20
60.065443975410119
 30
0.0
 40
0.35
 50
90.0
 51
180.0
  0
LINE
  5
13DB
  8
0
 10
34.0503250009782903
 20
59.3592349754101107
 30
0.0
 11
31.4003250009782917
 21
60.4154439754101134
 31
0.0
  0
LINE
  5
13DC
  8
0
 10
33.5117470009782892
 20
59.2154439754101176
 30
0.0
 11
31.8599110009783217
 21
59.8738149754101201
 31
0.0
  0
LINE
  5
13DD
  8
0
 10
33.5117470009782892
 20
59.2154439754101176
 30
0.0
 11
34.0503250009782903
 21
59.3592349754101107
 31
0.0
  0
LINE
  5
13DE
  8
0
 10
31.3803250009783099
 20
59.5486879754101182
 30
0.0
 11
31.3803250009783099
 21
50.1208119754101205
 31
0.0
  0
ARC
  5
13DF
  8
0
 10
31.7303251597090608
 20
59.5486878912505588
 30
0.0
 40
0.3500001587307727
 50
68.2692664150549575
 51
179.9999862228987979
  0
ARC
  5
13E0
  8
0
 10
31.7303251597090217
 20
50.1208120595696727
 30
0.0
 40
0.3500001587307503
 50
180.0000137770998947
 51
291.7307335849486094
  0
LINE
  5
13E1
  8
0
 10
33.5117470009782892
 20
50.4540569754101327
 30
0.0
 11
34.0503250009782903
 21
50.3102659754101325
 31
0.0
  0
LINE
  5
13E2
  8
0
 10
33.5117470009782892
 20
50.4540569754101327
 30
0.0
 11
31.8599110009783217
 21
49.7956849754101327
 31
0.0
  0
LINE
  5
13E3
  8
0
 10
34.0503250009782903
 20
50.3102659754101325
 30
0.0
 11
31.4003250009782917
 21
49.2540569754101227
 31
0.0
  0
ARC
  5
13E4
  8
0
 10
31.4003250009782917
 20
49.604056975410117
 30
0.0
 40
0.35
 50
180.0
 51
270.0
  0
ARC
  5
13E5
  8
0
 10
32.9745030009783093
 20
47.4152449754101184
 30
0.0
 40
7.588838
 50
77.8736159999999558
 51
102.1263840000000016
  0
ARC
  5
13E6
  8
0
 10
32.9745030009783093
 20
47.9288799754101191
 30
0.0
 40
7.588838
 50
77.8736159999999558
 51
102.1263840000000016
  0
ARC
  5
13E7
  8
0
 10
32.9745030009783093
 20
48.3033189754101215
 30
0.0
 40
7.588838
 50
77.8736159999999558
 51
102.1263840000000016
  0
ARC
  5
13E8
  8
0
 10
32.9745030009783093
 20
49.1578059754101204
 30
0.0
 40
7.588838
 50
77.8736159999999558
 51
102.1263840000000016
  0
ARC
  5
13E9
  8
0
 10
32.9745030009783093
 20
49.9786909754101316
 30
0.0
 40
7.588838
 50
77.8736159999999558
 51
102.1263840000000016
  0
ARC
  5
13EA
  8
0
 10
32.9745030009783093
 20
50.8523799754101304
 30
0.0
 40
7.588838
 50
77.8736159999999558
 51
102.1263840000000016
  0
ARC
  5
13EB
  8
0
 10
32.9745023345640789
 20
51.5868622493474831
 30
0.0
 40
7.5888317260626668
 50
77.8736012572451983
 51
102.1263890314363039
  0
ARC
  5
13EC
  8
0
 10
32.9745023345640789
 20
58.0826377014727697
 30
0.0
 40
7.5888317260626783
 50
257.8736109685635824
 51
282.1263987427548159
  0
ARC
  5
13ED
  8
0
 10
32.9745030009783093
 20
58.8171199754101224
 30
0.0
 40
7.588838
 50
257.8736159999999131
 51
282.1263840000000869
  0
ARC
  5
13EE
  8
0
 10
32.9745030009783093
 20
59.6908099754101187
 30
0.0
 40
7.588838
 50
257.8736159999999131
 51
282.1263840000000869
  0
ARC
  5
13EF
  8
0
 10
32.9745030009783093
 20
60.5116939754101324
 30
0.0
 40
7.588838
 50
257.8736159999999131
 51
282.1263840000000869
  0
ARC
  5
13F0
  8
0
 10
32.9745030009783093
 20
61.3661819754101074
 30
0.0
 40
7.588838
 50
257.8736159999999131
 51
282.1263840000000869
  0
ARC
  5
13F1
  8
0
 10
32.9745030009783093
 20
62.2542559754101106
 30
0.0
 40
7.588838
 50
257.8736159999999131
 51
282.1263840000000869
  0
LINE
  5
13F2
  8
0
 10
19.0503250009782903
 20
64.5154439754101219
 30
0.0
 11
19.0503250009782903
 21
62.0154439754101219
 31
0.0
  0
LINE
  5
13F3
  8
0
 10
22.0503250009782903
 20
62.0154439754101219
 30
0.0
 11
22.0503250009782903
 21
64.5154439754101219
 31
0.0
  0
ARC
  5
13F4
  8
0
 10
32.9745030009783093
 20
61.7406199754101124
 30
0.0
 40
7.588838
 50
257.8736159999999131
 51
282.1263840000000869
  0
ARC
  5
13F5
  8
0
 10
8.1261470009783068
 20
61.7406199754101124
 30
0.0
 40
7.588838
 50
257.8736159999999131
 51
282.1263840000000869
  0
ARC
  5
13F6
  8
0
 10
8.1261470009783068
 20
62.2542559754101106
 30
0.0
 40
7.588838
 50
257.8736159999999131
 51
282.1263840000000869
  0
ARC
  5
13F7
  8
0
 10
8.1261470009783068
 20
61.3661819754101074
 30
0.0
 40
7.588838
 50
257.8736159999999131
 51
282.1263840000000869
  0
ARC
  5
13F8
  8
0
 10
8.1261470009783068
 20
60.5116939754101324
 30
0.0
 40
7.588838
 50
257.8736159999999131
 51
282.1263840000000869
  0
ARC
  5
13F9
  8
0
 10
8.1261470009783068
 20
59.6908099754101187
 30
0.0
 40
7.588838
 50
257.8736159999999131
 51
282.1263840000000869
  0
ARC
  5
13FA
  8
0
 10
8.1261470009783068
 20
58.8171199754101224
 30
0.0
 40
7.588838
 50
257.8736159999999131
 51
282.1263840000000869
  0
ARC
  5
13FB
  8
0
 10
8.1261476673925017
 20
58.0826377014728905
 30
0.0
 40
7.5888317260628
 50
257.8736012572451841
 51
282.1263890314364176
  0
ARC
  5
13FC
  8
0
 10
8.1261476673925017
 20
51.5868622493473268
 30
0.0
 40
7.5888317260628222
 50
77.8736109685636535
 51
102.1263987427548017
  0
ARC
  5
13FD
  8
0
 10
8.1261470009783068
 20
50.8523799754101304
 30
0.0
 40
7.588838
 50
77.8736159999999558
 51
102.1263840000000016
  0
ARC
  5
13FE
  8
0
 10
8.1261470009783068
 20
49.9786909754101316
 30
0.0
 40
7.588838
 50
77.8736159999999558
 51
102.1263840000000016
  0
ARC
  5
13FF
  8
0
 10
8.1261470009783068
 20
49.1578059754101204
 30
0.0
 40
7.588838
 50
77.8736159999999558
 51
102.1263840000000016
  0
ARC
  5
1400
  8
0
 10
8.1261470009783068
 20
48.3033189754101215
 30
0.0
 40
7.588838
 50
77.8736159999999558
 51
102.1263840000000016
  0
ARC
  5
1401
  8
0
 10
8.1261470009783068
 20
47.9288799754101191
 30
0.0
 40
7.588838
 50
77.8736159999999558
 51
102.1263840000000016
  0
ARC
  5
1402
  8
0
 10
8.1261470009783068
 20
47.4152449754101184
 30
0.0
 40
7.588838
 50
77.8736159999999558
 51
102.1263840000000016
  0
ARC
  5
1403
  8
0
 10
9.7003250009782942
 20
49.604056975410117
 30
0.0
 40
0.35
 50
270.0
 51
0.0
  0
LINE
  5
1404
  8
0
 10
7.0503250009782903
 20
50.3102659754101325
 30
0.0
 11
9.7003250009782942
 21
49.2540569754101227
 31
0.0
  0
LINE
  5
1405
  8
0
 10
7.5889030009782914
 20
50.4540569754101327
 30
0.0
 11
9.2407400009783203
 21
49.7956849754101327
 31
0.0
  0
LINE
  5
1406
  8
0
 10
7.5889030009782914
 20
50.4540569754101327
 30
0.0
 11
7.0503250009782903
 21
50.3102659754101325
 31
0.0
  0
ARC
  5
1407
  8
0
 10
9.3703252640726191
 20
50.120811835916669
 30
0.0
 40
0.3499997369056997
 50
248.2693407817614002
 51
0.0000228354059536
  0
ARC
  5
1408
  8
0
 10
9.3703252640726031
 20
59.5486881149035625
 30
0.0
 40
0.3499997369057113
 50
359.999977164596487
 51
111.7306592182351039
  0
LINE
  5
1409
  8
0
 10
9.7203250009783062
 20
59.5486879754101182
 30
0.0
 11
9.7203250009783062
 21
50.1208119754101205
 31
0.0
  0
LINE
  5
140A
  8
0
 10
7.5889030009782914
 20
59.2154439754101176
 30
0.0
 11
7.0503250009782903
 21
59.3592349754101107
 31
0.0
  0
LINE
  5
140B
  8
0
 10
7.5889030009782914
 20
59.2154439754101176
 30
0.0
 11
9.2407400009783203
 21
59.8738149754101201
 31
0.0
  0
LINE
  5
140C
  8
0
 10
7.0503250009782903
 20
59.3592349754101107
 30
0.0
 11
9.7003250009782942
 21
60.4154439754101134
 31
0.0
  0
ARC
  5
140D
  8
0
 10
9.7003250009782942
 20
60.065443975410119
 30
0.0
 40
0.35
 50
0.0
 51
90.0
  0
LINE
  5
140E
  8
0
 10
6.531969000978278
 20
59.0063609754101179
 30
0.0
 11
6.531969000978278
 21
50.6631389754101207
 31
0.0
  0
LINE
  5
140F
  8
0
 10
6.0503250009782903
 20
56.8347499754101122
 30
0.0
 11
6.0503250009782903
 21
52.8347499754101193
 31
0.0
  0
ARC
  5
1410
  8
0
 10
10.4003250009782793
 20
47.3654439754101091
 30
0.0
 40
0.35
 50
180.0
 51
270.0
  0
ARC
  5
1411
  8
0
 10
30.7003250009782995
 20
47.3654439754101091
 30
0.0
 40
0.35
 50
270.0
 51
0.0
  0
ARC
  5
1412
  8
0
 10
10.4003250009782793
 20
61.6654439754101134
 30
0.0
 40
0.35
 50
90.0
 51
180.0
  0
ARC
  5
1413
  8
0
 10
30.7003250009782995
 20
61.6654439754101134
 30
0.0
 40
0.35
 50
0.0
 51
90.0
  0
LINE
  5
1414
  8
0
 10
30.7003250009782995
 20
62.0154439754101219
 30
0.0
 11
10.4003250009782793
 21
62.0154439754101219
 31
0.0
  0
ARC
  5
1415
  8
0
 10
34.5503250009782903
 20
56.8347499754101122
 30
0.0
 40
0.5
 50
0.0
 51
87.8960845625693281
  0
ARC
  5
1416
  8
0
 10
34.5503250009782903
 20
52.8347499754101193
 30
0.0
 40
0.5
 50
272.1039154374307145
 51
0.0
  0
ARC
  5
1417
  8
0
 10
6.5503250009782903
 20
56.8347499754101122
 30
0.0
 40
0.5
 50
92.1039154374306861
 51
180.0
  0
ARC
  5
1418
  8
0
 10
6.5503250009782903
 20
52.8347499754101193
 30
0.0
 40
0.5
 50
180.0
 51
267.8960845625692855
  0
INSERT
  5
1419
  8
3
  6
CONTINUOUS
  2
*X2
 10
0.0
 20
0.0
 30
0.0
1001
GRADIENTCOLOR1ACI
1070
     5
1001
GRADIENTCOLOR2ACI
1070
     2
1001
ACAD
1000
HATCH
1002
{
1070
    19
1000
_USER
1040
0.5
1040
0.7853981633974483
1000
ASC_BOUNDS
1070
     4
1070
     1
1070
     1
1005
141B
1070
     1
1070
     2
1005
141B
1005
141F
1070
     1
1070
     2
1005
141B
1005
141A
1070
     1
1070
     3
1005
141B
1005
141F
1005
141A
1000
ASC_SEEDPOINT
1011
22.4449505788917385
1021
0.0
1031
0.0
1021
57.4408987508375617
1031
0.0
1000
R14_HATCH_DATA
1000
1419
1011
1.0
1021
0.0
1031
0.0
1021
0.0
1031
0.0
1011
0.0
1021
0.0
1031
0.0
1021
1.0
1031
0.0
1011
0.0
1021
0.0
1031
0.0
1021
0.0
1031
1.0
1040
0.0
1010
0.0
1020
0.0
1030
1.0
1000
_USER
1070
     0
1070
     1
1071
        4
1071
        7
1070
     1
1070
     1
1071
        3
1040
20.5503250009782903
1040
58.1209952508743228
1040
0.0
1040
20.5503250009782903
1040
54.5154439754103635
1040
0.0
1040
24.1558762764422816
1040
54.5154439754103635
1040
0.4142135623730928
1071
        3
1005
141A
1005
141F
1005
141B
1071
        7
1070
     1
1070
     1
1071
        3
1040
24.1558762764422816
1040
54.5154439754103635
1040
0.0
1040
20.5503250009782903
1040
54.5154439754103635
1040
0.0
1040
20.5503250009782903
1040
50.9098926999463401
1040
0.4142135623730974
1071
        2
1005
141A
1005
141B
1071
        7
1070
     1
1070
     1
1071
        3
1040
20.5503250009782903
1040
54.5154439754103635
1040
0.0
1040
16.9447737255142883
1040
54.5154439754103635
1040
0.4142135623730973
1040
20.5503250009782903
1040
50.9098926999463401
1040
0.0
1071
        2
1005
141F
1005
141B
1071
        7
1070
     1
1070
     1
1071
        3
1040
20.5503250009782903
1040
58.1209952508743228
1040
0.4142135623730927
1040
16.9447737255142883
1040
54.5154439754103635
1040
0.0
1040
20.5503250009782903
1040
54.5154439754103635
1040
0.0
1071
        1
1005
141B
1070
     1
1070
     0
1040
0.7853981633974483
1040
0.5
1070
     1
1070
     2
1040
0.7853981633974483
1040
0.0
1040
0.0
1040
-0.3535533905932738
1040
0.3535533905932738
1070
     0
1040
2.3561944901923439
1040
0.0
1040
0.0
1040
-0.3535533905932738
1040
-0.3535533905932737
1070
     0
1040
0.028850362154969
1071
        4
1040
22.4449505788917385
1040
57.4408987508375617
1040
0.0
1040
22.7914011236345004
1040
51.8727786820448884
1040
0.0
1040
18.7783537384784687
1040
52.4786363715471111
1040
0.0
1040
19.2114162396762786
1040
56.2003332369718507
1040
0.0
1002
}
  0
LINE
  5
141A
  8
1
 10
20.5503250009782903
 20
69.5154439754101219
 30
0.0
 11
20.5503250009782903
 21
42.0154439754101219
 31
0.0
1001
ACAD
1000
ASC_BOUNDS
1002
{
1070
    19
1005
1419
1005
1419
1002
}
  0
CIRCLE
  5
141B
  8
0
 10
20.5503250009782903
 20
54.5154439754103421
 30
0.0
 40
3.6055512754639949
1001
ACAD
1000
ASC_BOUNDS
1002
{
1070
    19
1005
1419
1005
1419
1005
1419
1005
1419
1002
}
  0
CIRCLE
  5
141C
  8
0
 10
20.5503250009782583
 20
54.5154439754103421
 30
0.0
 40
4.9999999999999982
  0
CIRCLE
  5
141D
  8
0
 10
20.5503250009782583
 20
54.5154439754103421
 30
0.0
 40
4.249999999999984
  0
CIRCLE
  5
141E
  8
0
 10
20.5503250009782086
 20
54.5154439754103635
 30
0.0
 40
5.9999999995170663
  0
LINE
  5
141F
  8
1
 10
13.0503250014611396
 20
54.5154439754103635
 30
0.0
 11
28.0503250004952598
 21
54.5154439754103635
 31
0.0
1001
ACAD
1000
ASC_BOUNDS
1002
{
1070
    19
1005
1419
1005
1419
1002
}
  0
LINE
  5
152F
  8
0
 10
135.4143772085103024
 20
56.8347499754101122
 30
0.0
 11
135.4143772085103024
 21
52.8347499754101193
 31
0.0
  0
LINE
  5
1530
  8
0
 10
134.9327332085103137
 20
59.0063609754101179
 30
0.0
 11
134.9327332085103137
 21
50.6631389754101207
 31
0.0
  0
ARC
  5
1531
  8
0
 10
131.7643772085102967
 20
60.065443975410119
 30
0.0
 40
0.35
 50
90.0
 51
180.0
  0
LINE
  5
1532
  8
0
 10
134.4143772085103024
 20
59.3592349754101107
 30
0.0
 11
131.7643772085102967
 21
60.4154439754101134
 31
0.0
  0
LINE
  5
1533
  8
0
 10
133.8757992085103012
 20
59.2154439754101176
 30
0.0
 11
132.2239632085102983
 21
59.8738149754101201
 31
0.0
  0
LINE
  5
1534
  8
0
 10
133.8757992085103012
 20
59.2154439754101176
 30
0.0
 11
134.4143772085103024
 21
59.3592349754101107
 31
0.0
  0
LINE
  5
1535
  8
0
 10
131.7443772085102864
 20
59.5486879754101182
 30
0.0
 11
131.7443772085102864
 21
50.1208119754101205
 31
0.0
  0
ARC
  5
1536
  8
0
 10
132.0943773672410941
 20
59.5486878912505588
 30
0.0
 40
0.3500001587307727
 50
68.2692664150549717
 51
179.9999862228987979
  0
ARC
  5
1537
  8
0
 10
132.0943773672410089
 20
50.1208120595696727
 30
0.0
 40
0.3500001587307503
 50
180.0000137770998947
 51
291.730733584948382
  0
LINE
  5
1538
  8
0
 10
133.8757992085103012
 20
50.4540569754101327
 30
0.0
 11
134.4143772085103024
 21
50.3102659754101325
 31
0.0
  0
LINE
  5
1539
  8
0
 10
133.8757992085103012
 20
50.4540569754101327
 30
0.0
 11
132.2239632085102983
 21
49.7956849754101327
 31
0.0
  0
LINE
  5
153A
  8
0
 10
134.4143772085103024
 20
50.3102659754101325
 30
0.0
 11
131.7643772085102967
 21
49.2540569754101227
 31
0.0
  0
ARC
  5
153B
  8
0
 10
131.7643772085102967
 20
49.604056975410117
 30
0.0
 40
0.35
 50
180.0
 51
270.0
  0
ARC
  5
153C
  8
0
 10
133.3385552085102859
 20
47.4152449754101184
 30
0.0
 40
7.588838
 50
77.8736159999999558
 51
102.1263840000000016
  0
ARC
  5
153D
  8
0
 10
133.3385552085102859
 20
47.9288799754101191
 30
0.0
 40
7.588838
 50
77.8736159999999558
 51
102.1263840000000016
  0
ARC
  5
153E
  8
0
 10
133.3385552085102859
 20
48.3033189754101215
 30
0.0
 40
7.588838
 50
77.8736159999999558
 51
102.1263840000000016
  0
ARC
  5
153F
  8
0
 10
133.3385552085102859
 20
49.1578059754101204
 30
0.0
 40
7.588838
 50
77.8736159999999558
 51
102.1263840000000016
  0
ARC
  5
1540
  8
0
 10
133.3385552085102859
 20
49.9786909754101316
 30
0.0
 40
7.588838
 50
77.8736159999999558
 51
102.1263840000000016
  0
ARC
  5
1541
  8
0
 10
133.3385552085102859
 20
50.8523799754101304
 30
0.0
 40
7.588838
 50
77.8736159999999558
 51
102.1263840000000016
  0
ARC
  5
1542
  8
0
 10
133.3385545420960909
 20
51.5868622493474831
 30
0.0
 40
7.5888317260626668
 50
77.8736012572451983
 51
102.1263890314363039
  0
ARC
  5
1543
  8
0
 10
133.3385545420960909
 20
58.0826377014727697
 30
0.0
 40
7.5888317260626783
 50
257.8736109685635824
 51
282.1263987427548159
  0
ARC
  5
1544
  8
0
 10
133.3385552085102859
 20
58.8171199754101224
 30
0.0
 40
7.588838
 50
257.8736159999999131
 51
282.1263839999999732
  0
ARC
  5
1545
  8
0
 10
133.3385552085102859
 20
59.6908099754101187
 30
0.0
 40
7.588838
 50
257.8736159999999131
 51
282.1263839999999732
  0
ARC
  5
1546
  8
0
 10
133.3385552085102859
 20
60.5116939754101324
 30
0.0
 40
7.588838
 50
257.8736159999999131
 51
282.1263839999999732
  0
ARC
  5
1547
  8
0
 10
133.3385552085102859
 20
61.3661819754101074
 30
0.0
 40
7.588838
 50
257.8736159999999131
 51
282.1263839999999732
  0
ARC
  5
1548
  8
0
 10
133.3385552085102859
 20
62.2542559754101106
 30
0.0
 40
7.588838
 50
257.8736159999999131
 51
282.1263839999999732
  0
ARC
  5
1549
  8
0
 10
133.3385552085102859
 20
61.7406199754101124
 30
0.0
 40
7.588838
 50
257.8736159999999131
 51
282.1263839999999732
  0
ARC
  5
154A
  8
0
 10
108.4901992085103046
 20
61.7406199754101124
 30
0.0
 40
7.588838
 50
257.8736159999999131
 51
282.1263839999999732
  0
ARC
  5
154B
  8
0
 10
108.4901992085103046
 20
62.2542559754101106
 30
0.0
 40
7.588838
 50
257.8736159999999131
 51
282.1263839999999732
  0
ARC
  5
154C
  8
0
 10
108.4901992085103046
 20
61.3661819754101074
 30
0.0
 40
7.588838
 50
257.8736159999999131
 51
282.1263839999999732
  0
ARC
  5
154D
  8
0
 10
108.4901992085103046
 20
60.5116939754101324
 30
0.0
 40
7.588838
 50
257.8736159999999131
 51
282.1263839999999732
  0
ARC
  5
154E
  8
0
 10
108.4901992085103046
 20
59.6908099754101187
 30
0.0
 40
7.588838
 50
257.8736159999999131
 51
282.1263839999999732
  0
ARC
  5
154F
  8
0
 10
108.4901992085103046
 20
58.8171199754101224
 30
0.0
 40
7.588838
 50
257.8736159999999131
 51
282.1263839999999732
  0
ARC
  5
1550
  8
0
 10
108.4901998749244996
 20
58.0826377014728905
 30
0.0
 40
7.5888317260628
 50
257.8736012572451273
 51
282.1263890314364176
  0
ARC
  5
1551
  8
0
 10
108.4901998749244996
 20
51.5868622493473268
 30
0.0
 40
7.5888317260628222
 50
77.8736109685636535
 51
102.1263987427548017
  0
ARC
  5
1552
  8
0
 10
108.4901992085103046
 20
50.8523799754101304
 30
0.0
 40
7.588838
 50
77.8736159999999558
 51
102.1263840000000016
  0
ARC
  5
1553
  8
0
 10
108.4901992085103046
 20
49.9786909754101316
 30
0.0
 40
7.588838
 50
77.8736159999999558
 51
102.1263840000000016
  0
ARC
  5
1554
  8
0
 10
108.4901992085103046
 20
49.1578059754101204
 30
0.0
 40
7.588838
 50
77.8736159999999558
 51
102.1263840000000016
  0
ARC
  5
1555
  8
0
 10
108.4901992085103046
 20
48.3033189754101215
 30
0.0
 40
7.588838
 50
77.8736159999999558
 51
102.1263840000000016
  0
ARC
  5
1556
  8
0
 10
108.4901992085103046
 20
47.9288799754101191
 30
0.0
 40
7.588838
 50
77.8736159999999558
 51
102.1263840000000016
  0
ARC
  5
1557
  8
0
 10
108.4901992085103046
 20
47.4152449754101184
 30
0.0
 40
7.588838
 50
77.8736159999999558
 51
102.1263840000000016
  0
ARC
  5
1558
  8
0
 10
110.0643772085102938
 20
49.604056975410117
 30
0.0
 40
0.35
 50
270.0
 51
0.0
  0
LINE
  5
1559
  8
0
 10
107.4143772085103024
 20
50.3102659754101325
 30
0.0
 11
110.0643772085102938
 21
49.2540569754101227
 31
0.0
  0
LINE
  5
155A
  8
0
 10
107.9529552085103035
 20
50.4540569754101327
 30
0.0
 11
109.6047922085103039
 21
49.7956849754101327
 31
0.0
  0
LINE
  5
155B
  8
0
 10
107.9529552085103035
 20
50.4540569754101327
 30
0.0
 11
107.4143772085103024
 21
50.3102659754101325
 31
0.0
  0
ARC
  5
155C
  8
0
 10
109.7343774716046028
 20
50.120811835916669
 30
0.0
 40
0.3499997369056997
 50
248.2693407817612865
 51
0.0000228354059536
  0
ARC
  5
155D
  8
0
 10
109.7343774716046028
 20
59.5486881149035625
 30
0.0
 40
0.3499997369057113
 50
359.999977164596487
 51
111.7306592182351039
  0
LINE
  5
155E
  8
0
 10
110.0843772085103041
 20
59.5486879754101182
 30
0.0
 11
110.0843772085103041
 21
50.1208119754101205
 31
0.0
  0
LINE
  5
155F
  8
0
 10
107.9529552085103035
 20
59.2154439754101176
 30
0.0
 11
107.4143772085103024
 21
59.3592349754101107
 31
0.0
  0
LINE
  5
1560
  8
0
 10
107.9529552085103035
 20
59.2154439754101176
 30
0.0
 11
109.6047922085103039
 21
59.8738149754101201
 31
0.0
  0
LINE
  5
1561
  8
0
 10
107.4143772085103024
 20
59.3592349754101107
 30
0.0
 11
110.0643772085102938
 21
60.4154439754101134
 31
0.0
  0
ARC
  5
1562
  8
0
 10
110.0643772085102938
 20
60.065443975410119
 30
0.0
 40
0.35
 50
0.0
 51
90.0
  0
LINE
  5
1563
  8
0
 10
106.8960212085103052
 20
59.0063609754101179
 30
0.0
 11
106.8960212085103052
 21
50.6631389754101207
 31
0.0
  0
LINE
  5
1564
  8
0
 10
106.4143772085103024
 20
56.8347499754101122
 30
0.0
 11
106.4143772085103024
 21
52.8347499754101193
 31
0.0
  0
ARC
  5
1565
  8
0
 10
134.9143772085103024
 20
56.8347499754101122
 30
0.0
 40
0.5
 50
0.0
 51
87.8960845625693281
  0
ARC
  5
1566
  8
0
 10
134.9143772085103024
 20
52.8347499754101193
 30
0.0
 40
0.5
 50
272.1039154374307145
 51
0.0
  0
ARC
  5
1567
  8
0
 10
106.9143772085103024
 20
56.8347499754101122
 30
0.0
 40
0.5
 50
92.1039154374306861
 51
180.0
  0
ARC
  5
1568
  8
0
 10
106.9143772085103024
 20
52.8347499754101193
 30
0.0
 40
0.5
 50
180.0
 51
267.8960845625692855
  0
LINE
  5
1EE2
  8
0
 10
77.1422771047443092
 20
91.9888950308224054
 30
0.0
 11
82.7323511047442963
 21
101.6711880308224067
 31
0.0
  0
LINE
  5
1EE3
  8
0
 10
77.1422771047443092
 20
112.9888950308224054
 30
0.0
 11
82.7323511047442963
 21
103.306602030822404
 31
0.0
  0
LINE
  5
1EE4
  8
0
 10
82.7323511047442963
 20
103.306602030822404
 30
0.0
 11
82.7323511047442963
 21
101.6711880308224067
 31
0.0
  0
LINE
  5
1EE5
  8
0
 10
64.3224261047443093
 20
112.9888950308224054
 30
0.0
 11
58.7323511047442892
 21
103.306602030822404
 31
0.0
  0
LINE
  5
1EE6
  8
0
 10
58.7323511047442892
 20
103.306602030822404
 30
0.0
 11
58.7323511047442892
 21
101.6711880308224067
 31
0.0
  0
LINE
  5
1EE7
  8
0
 10
64.3224261047443093
 20
91.9888950308224054
 30
0.0
 11
58.7323511047442892
 21
101.6711880308224067
 31
0.0
  0
LINE
  5
1EE8
  8
0
 10
64.5323511047442935
 20
115.9888950308224054
 30
0.0
 11
76.9323511047442992
 21
115.9888950308224054
 31
0.0
  0
ARC
  5
1EE9
  8
0
 10
61.7411861047443011
 20
114.7570340308223962
 30
0.0
 40
2.0055089999999991
 50
119.2254989999998003
 51
241.8409390000001054
  0
ARC
  5
1EEA
  8
0
 10
62.5824311047443018
 20
114.7570340308223962
 30
0.0
 40
2.0055089999999991
 50
119.2254989999998003
 51
241.8409390000001054
  0
ARC
  5
1EEB
  8
0
 10
63.4236771047443
 20
114.7570340308223962
 30
0.0
 40
2.0055089999999991
 50
119.2254989999998003
 51
241.8409390000001054
  0
ARC
  5
1EEC
  8
0
 10
64.2649221047443007
 20
114.7570340308223962
 30
0.0
 40
2.0055089999999991
 50
119.2254989999998003
 51
241.8409390000001054
  0
ARC
  5
1EED
  8
0
 10
65.1061681047442988
 20
114.7570340308223962
 30
0.0
 40
2.0055089999999991
 50
119.2254989999998003
 51
241.8409390000001054
  0
ARC
  5
1EEE
  8
0
 10
66.1565071047442927
 20
114.7570340308223962
 30
0.0
 40
2.214602999999999
 50
143.0712029999995991
 51
222.8291009999998096
  0
LINE
  5
1EEF
  8
0
 10
64.5323511047442935
 20
112.9888950308224054
 30
0.0
 11
64.5323511047442935
 21
115.9888950308224054
 31
0.0
  0
LINE
  5
1EF0
  8
0
 10
59.4461701047442972
 20
116.5072510308224025
 30
0.0
 11
64.5323511047442935
 21
116.5072510308224025
 31
0.0
  0
ARC
  5
1EF1
  8
0
 10
62.5824311047443018
 20
114.7570340308223962
 30
0.0
 40
2.0055089999999991
 50
119.2254989999998003
 51
241.8409390000001054
  0
ARC
  5
1EF2
  8
0
 10
63.4236771047443
 20
114.7570340308223962
 30
0.0
 40
2.0055089999999991
 50
119.2254989999998003
 51
241.8409390000001054
  0
ARC
  5
1EF3
  8
0
 10
60.9585821047442877
 20
114.7570340308223962
 30
0.0
 40
2.0055089999999991
 50
119.2254989999998003
 51
241.8409390000001054
  0
ARC
  5
1EF4
  8
0
 10
80.5061201047442836
 20
114.7570340308223962
 30
0.0
 40
2.0055089999999991
 50
298.159060999999781
 51
60.7745010000000008
  0
ARC
  5
1EF5
  8
0
 10
78.0410251047443069
 20
114.7570340308223962
 30
0.0
 40
2.0055089999999991
 50
298.159060999999781
 51
60.7745010000000008
  0
ARC
  5
1EF6
  8
0
 10
78.8822711047442908
 20
114.7570340308223962
 30
0.0
 40
2.0055089999999991
 50
298.159060999999781
 51
60.7745010000000008
  0
LINE
  5
1EF7
  8
0
 10
82.0185321047442955
 20
116.5072510308224025
 30
0.0
 11
76.9323511047442992
 21
116.5072510308224025
 31
0.0
  0
LINE
  5
1EF8
  8
0
 10
76.9323511047442992
 20
112.9888950308224054
 30
0.0
 11
76.9323511047442992
 21
115.9888950308224054
 31
0.0
  0
ARC
  5
1EF9
  8
0
 10
74.1691311047442952
 20
114.7570340308223962
 30
0.0
 40
2.933044999999999
 50
340.4072100000008163
 51
19.5927899999991588
  0
ARC
  5
1EFA
  8
0
 10
75.3081961047442974
 20
114.7570340308223962
 30
0.0
 40
2.214602999999999
 50
317.1708990000001904
 51
52.1176470000000975
  0
ARC
  5
1EFB
  8
0
 10
76.3585351047443055
 20
114.7570340308223962
 30
0.0
 40
2.0055089999999991
 50
298.159060999999781
 51
60.7745010000000008
  0
ARC
  5
1EFC
  8
0
 10
77.199780104744292
 20
114.7570340308223962
 30
0.0
 40
2.0055089999999991
 50
298.159060999999781
 51
60.7745010000000008
  0
ARC
  5
1EFD
  8
0
 10
78.0410251047443069
 20
114.7570340308223962
 30
0.0
 40
2.0055089999999991
 50
298.159060999999781
 51
60.7745010000000008
  0
ARC
  5
1EFE
  8
0
 10
78.8822711047442908
 20
114.7570340308223962
 30
0.0
 40
2.0055089999999991
 50
298.159060999999781
 51
60.7745010000000008
  0
ARC
  5
1EFF
  8
0
 10
79.7235161047443057
 20
114.7570340308223962
 30
0.0
 40
2.0055089999999991
 50
298.159060999999781
 51
60.7745010000000008
  0
ARC
  5
1F00
  8
0
 10
65.8867311047442996
 20
114.7570340308223962
 30
0.0
 40
2.0055089999999991
 50
119.2254989999998003
 51
138.4354390000004003
  0
ARC
  5
1F01
  8
0
 10
68.3518251047443073
 20
114.7570340308223962
 30
0.0
 40
2.0055089999999991
 50
119.2254989999998003
 51
142.1033750000001987
  0
ARC
  5
1F02
  8
0
 10
67.5105801047442924
 20
114.7570340308223962
 30
0.0
 40
2.0055089999999991
 50
119.2254989999998003
 51
142.1033750000001987
  0
LINE
  5
1F03
  8
0
 10
64.8922911047443023
 20
116.5072510308224025
 30
0.0
 11
70.7323511047442963
 21
116.5072510308224025
 31
0.0
  0
ARC
  5
1F04
  8
0
 10
68.3518251047443073
 20
114.7570340308223962
 30
0.0
 40
2.0055089999999991
 50
119.2254989999998003
 51
142.1033750000001987
  0
ARC
  5
1F05
  8
0
 10
67.5105801047442924
 20
114.7570340308223962
 30
0.0
 40
2.0055089999999991
 50
119.2254989999998003
 51
142.1033750000001987
  0
ARC
  5
1F06
  8
0
 10
66.6693341047442942
 20
114.7570340308223962
 30
0.0
 40
2.0055089999999991
 50
119.2254989999998003
 51
142.1033750000001987
  0
LINE
  5
1F07
  8
0
 10
64.5323511047442935
 20
116.5072510308224025
 30
0.0
 11
64.9075451047443011
 21
116.5072510308224025
 31
0.0
  0
LINE
  5
1F08
  8
0
 10
70.7323511047442963
 20
116.5072510308224025
 30
0.0
 11
70.7323511047442963
 21
115.9888950308224054
 31
0.0
  0
ARC
  5
1F09
  8
0
 10
92.6159811047442787
 20
114.7480730308223968
 30
0.0
 40
21.954224
 50
175.4039980000003141
 51
176.7599970000011069
  0
ARC
  5
1F0A
  8
0
 10
92.0024431047442874
 20
114.7480730308223968
 30
0.0
 40
21.954224
 50
175.4039980000003141
 51
176.7599970000011069
  0
ARC
  5
1F0B
  8
0
 10
73.4025691047443019
 20
114.7480730308223968
 30
0.0
 40
4.3264969999999989
 50
156.0082139999996969
 51
163.3337669999991135
  0
ARC
  5
1F0C
  8
0
 10
72.6993961047442951
 20
114.7480730308223968
 30
0.0
 40
4.3264969999999989
 50
156.0082139999996969
 51
163.3337669999991135
  0
ARC
  5
1F0D
  8
0
 10
71.9371061047443021
 20
114.7480730308223968
 30
0.0
 40
4.3264969999999989
 50
156.0082139999996969
 51
163.3337669999991135
  0
ARC
  5
1F0E
  8
0
 10
74.7953681047442984
 20
114.7570340308223962
 30
0.0
 40
2.0055089999999991
 50
37.8966249999997231
 51
60.7745010000000008
  0
ARC
  5
1F0F
  8
0
 10
69.5275961047443047
 20
114.7480730308223968
 30
0.0
 40
4.3264969999999989
 50
16.6662330000008616
 51
23.9917860000003103
  0
ARC
  5
1F10
  8
0
 10
68.765307104744295
 20
114.7480730308223968
 30
0.0
 40
4.3264969999999989
 50
16.6662330000008616
 51
23.9917860000003103
  0
ARC
  5
1F11
  8
0
 10
68.0621331047442908
 20
114.7480730308223968
 30
0.0
 40
4.3264969999999989
 50
16.6662330000008616
 51
23.9917860000003103
  0
ARC
  5
1F12
  8
0
 10
49.462259104744291
 20
114.7480730308223968
 30
0.0
 40
21.954224
 50
3.2400030000004891
 51
4.596001999999662
  0
ARC
  5
1F13
  8
0
 10
48.8487211047442997
 20
114.7480730308223968
 30
0.0
 40
21.954224
 50
3.2400030000004891
 51
4.596001999999662
  0
LINE
  5
1F14
  8
0
 10
70.7323511047442963
 20
116.5072510308224025
 30
0.0
 11
70.7323511047442963
 21
115.9888950308224054
 31
0.0
  0
ARC
  5
1F15
  8
0
 10
73.9541231047442977
 20
114.7570340308223962
 30
0.0
 40
2.0055089999999991
 50
37.8966249999997231
 51
60.7745010000000008
  0
ARC
  5
1F16
  8
0
 10
73.1128771047442996
 20
114.7570340308223962
 30
0.0
 40
2.0055089999999991
 50
37.8966249999997231
 51
60.7745010000000008
  0
ARC
  5
1F17
  8
0
 10
73.9541231047442977
 20
114.7570340308223962
 30
0.0
 40
2.0055089999999991
 50
37.8966249999997231
 51
60.7745010000000008
  0
ARC
  5
1F18
  8
0
 10
73.1128771047442996
 20
114.7570340308223962
 30
0.0
 40
2.0055089999999991
 50
37.8966249999997231
 51
60.7745010000000008
  0
LINE
  5
1F19
  8
0
 10
76.5724111047443046
 20
116.5072510308224025
 30
0.0
 11
70.7323511047442963
 21
116.5072510308224025
 31
0.0
  0
LINE
  5
1F1A
  8
0
 10
76.5724111047443046
 20
116.5072510308224025
 30
0.0
 11
76.9323511047442992
 21
116.5072510308224025
 31
0.0
  0
LINE
  5
1F1B
  8
0
 10
54.7323515107648717
 20
91.988895030822377
 30
0.0
 11
83.7323511047442963
 21
91.988895030822377
 31
0.0
  0
LINE
  5
1F1C
  8
0
 10
54.7323515107648717
 20
112.9888950308224054
 30
0.0
 11
83.7323511047442963
 21
112.9888950308224054
 31
0.0
  0
TEXT
  5
1F1D
  8
0
 10
63.9590461047443029
 20
109.6496880308224036
 30
0.0
 40
2.0791059999999999
  1
OK-VISE
  0
TEXT
  5
1F1E
  8
0
 10
64.7281571047442981
 20
92.6455680308224032
 30
0.0
 40
2.0791059999999999
  1
BK2-VT
  0
LINE
  5
1F1F
  8
0
 10
82.0185321047442955
 20
88.470539030822394
 30
0.0
 11
70.7323511047442963
 21
88.470539030822394
 31
0.0
  0
ARC
  5
1F20
  8
0
 10
73.1128771047442996
 20
90.2207570308223978
 30
0.0
 40
2.0055089999999991
 50
299.2254989999997861
 51
322.1033750000003124
  0
ARC
  5
1F21
  8
0
 10
73.9541231047442977
 20
90.2207570308223978
 30
0.0
 40
2.0055089999999991
 50
299.2254989999997861
 51
322.1033750000003124
  0
ARC
  5
1F22
  8
0
 10
73.1128771047442996
 20
90.2207570308223978
 30
0.0
 40
2.0055089999999991
 50
299.2254989999997861
 51
322.1033750000003124
  0
ARC
  5
1F23
  8
0
 10
73.9541231047442977
 20
90.2207570308223978
 30
0.0
 40
2.0055089999999991
 50
299.2254989999997861
 51
322.1033750000003124
  0
LINE
  5
1F24
  8
0
 10
70.7323511047442963
 20
88.470539030822394
 30
0.0
 11
70.7323511047442963
 21
88.9888950308224054
 31
0.0
  0
ARC
  5
1F25
  8
0
 10
48.8487211047442997
 20
90.2297170308224139
 30
0.0
 40
21.954224
 50
355.4039980000002856
 51
356.7599969999994869
  0
ARC
  5
1F26
  8
0
 10
49.462259104744291
 20
90.2297170308224139
 30
0.0
 40
21.954224
 50
355.4039980000002856
 51
356.7599969999994869
  0
ARC
  5
1F27
  8
0
 10
68.0621331047442908
 20
90.2297170308224139
 30
0.0
 40
4.3264969999999989
 50
336.0082139999997253
 51
343.3337669999991135
  0
ARC
  5
1F28
  8
0
 10
68.765307104744295
 20
90.2297170308224139
 30
0.0
 40
4.3264969999999989
 50
336.0082139999997253
 51
343.3337669999991135
  0
ARC
  5
1F29
  8
0
 10
69.5275961047443047
 20
90.2297170308224139
 30
0.0
 40
4.3264969999999989
 50
336.0082139999997253
 51
343.3337669999991135
  0
ARC
  5
1F2A
  8
0
 10
74.7953681047442984
 20
90.2207570308223978
 30
0.0
 40
2.0055089999999991
 50
299.2254989999997861
 51
322.1033750000003124
  0
ARC
  5
1F2B
  8
0
 10
71.9371061047443021
 20
90.2297170308224139
 30
0.0
 40
4.3264969999999989
 50
196.6662329999992949
 51
203.9917860000003031
  0
ARC
  5
1F2C
  8
0
 10
72.6993961047442951
 20
90.2297170308224139
 30
0.0
 40
4.3264969999999989
 50
196.6662329999992949
 51
203.9917860000003031
  0
ARC
  5
1F2D
  8
0
 10
73.4025691047443019
 20
90.2297170308224139
 30
0.0
 40
4.3264969999999989
 50
196.6662329999992949
 51
203.9917860000003031
  0
ARC
  5
1F2E
  8
0
 10
92.0024431047442874
 20
90.2297170308224139
 30
0.0
 40
21.954224
 50
183.2400029999988078
 51
184.5960019999996007
  0
ARC
  5
1F2F
  8
0
 10
92.6159811047442787
 20
90.2297170308224139
 30
0.0
 40
21.954224
 50
183.2400029999988078
 51
184.5960019999996007
  0
LINE
  5
1F30
  8
0
 10
70.7323511047442963
 20
88.470539030822394
 30
0.0
 11
70.7323511047442963
 21
88.9888950308224054
 31
0.0
  0
LINE
  5
1F31
  8
0
 10
64.5323511047442935
 20
88.470539030822394
 30
0.0
 11
64.9075451047443011
 21
88.470539030822394
 31
0.0
  0
ARC
  5
1F32
  8
0
 10
66.6693341047442942
 20
90.2207570308223978
 30
0.0
 40
2.0055089999999991
 50
217.8966249999996876
 51
240.7745009999999866
  0
ARC
  5
1F33
  8
0
 10
67.5105801047442924
 20
90.2207570308223978
 30
0.0
 40
2.0055089999999991
 50
217.8966249999996876
 51
240.7745009999999866
  0
ARC
  5
1F34
  8
0
 10
68.3518251047443073
 20
90.2207570308223978
 30
0.0
 40
2.0055089999999991
 50
217.8966249999996876
 51
240.7745009999999866
  0
LINE
  5
1F35
  8
0
 10
64.8922911047443023
 20
88.470539030822394
 30
0.0
 11
70.7323511047442963
 21
88.470539030822394
 31
0.0
  0
ARC
  5
1F36
  8
0
 10
67.5105801047442924
 20
90.2207570308223978
 30
0.0
 40
2.0055089999999991
 50
217.8966249999996876
 51
240.7745009999999866
  0
ARC
  5
1F37
  8
0
 10
68.3518251047443073
 20
90.2207570308223978
 30
0.0
 40
2.0055089999999991
 50
217.8966249999996876
 51
240.7745009999999866
  0
ARC
  5
1F38
  8
0
 10
65.8867311047442996
 20
90.2207570308223978
 30
0.0
 40
2.0055089999999991
 50
221.5645609999994861
 51
240.7745009999999866
  0
ARC
  5
1F39
  8
0
 10
79.7235161047443057
 20
90.2207570308223978
 30
0.0
 40
2.0055089999999991
 50
299.2254989999997861
 51
61.8409390000001267
  0
ARC
  5
1F3A
  8
0
 10
78.8822711047442908
 20
90.2207570308223978
 30
0.0
 40
2.0055089999999991
 50
299.2254989999997861
 51
61.8409390000001267
  0
ARC
  5
1F3B
  8
0
 10
78.0410251047443069
 20
90.2207570308223978
 30
0.0
 40
2.0055089999999991
 50
299.2254989999997861
 51
61.8409390000001267
  0
ARC
  5
1F3C
  8
0
 10
77.199780104744292
 20
90.2207570308223978
 30
0.0
 40
2.0055089999999991
 50
299.2254989999997861
 51
61.8409390000001267
  0
ARC
  5
1F3D
  8
0
 10
76.3585351047443055
 20
90.2207570308223978
 30
0.0
 40
2.0055089999999991
 50
299.2254989999997861
 51
61.8409390000001267
  0
ARC
  5
1F3E
  8
0
 10
75.3081961047442974
 20
90.2207570308223978
 30
0.0
 40
2.214602999999999
 50
307.7857158580941928
 51
42.8291009999997883
  0
ARC
  5
1F3F
  8
0
 10
74.1691311047442952
 20
90.2207570308223978
 30
0.0
 40
2.933044999999999
 50
340.4072100000008163
 51
19.5927899999991588
  0
LINE
  5
1F40
  8
0
 10
76.9323511047442992
 20
91.9888950308224054
 30
0.0
 11
76.9323511047442992
 21
88.9888950308224054
 31
0.0
  0
ARC
  5
1F41
  8
0
 10
78.8822711047442908
 20
90.2207570308223978
 30
0.0
 40
2.0055089999999991
 50
299.2254989999997861
 51
61.8409390000001267
  0
ARC
  5
1F42
  8
0
 10
78.0410251047443069
 20
90.2207570308223978
 30
0.0
 40
2.0055089999999991
 50
299.2254989999997861
 51
61.8409390000001267
  0
ARC
  5
1F43
  8
0
 10
80.5061201047442836
 20
90.2207570308223978
 30
0.0
 40
2.0055089999999991
 50
299.2254989999997861
 51
61.8409390000001267
  0
ARC
  5
1F44
  8
0
 10
60.9585821047442877
 20
90.2207570308223978
 30
0.0
 40
2.0055089999999991
 50
118.1590609999998946
 51
240.7745009999999866
  0
ARC
  5
1F45
  8
0
 10
63.4236771047443
 20
90.2207570308223978
 30
0.0
 40
2.0055089999999991
 50
118.1590609999998946
 51
240.7745009999999866
  0
ARC
  5
1F46
  8
0
 10
62.5824311047443018
 20
90.2207570308223978
 30
0.0
 40
2.0055089999999991
 50
118.1590609999998946
 51
240.7745009999999866
  0
LINE
  5
1F47
  8
0
 10
59.4461701047442972
 20
88.470539030822394
 30
0.0
 11
64.5323511047442935
 21
88.470539030822394
 31
0.0
  0
LINE
  5
1F48
  8
0
 10
64.5323511047442935
 20
91.9888950308224054
 30
0.0
 11
64.5323511047442935
 21
88.9888950308224054
 31
0.0
  0
ARC
  5
1F49
  8
0
 10
66.1565071047442927
 20
90.2207570308223978
 30
0.0
 40
2.214602999999999
 50
137.1708990000001904
 51
216.9287970000004009
  0
ARC
  5
1F4A
  8
0
 10
65.1061681047442988
 20
90.2207570308223978
 30
0.0
 40
2.0055089999999991
 50
118.1590609999998946
 51
240.7745009999999866
  0
ARC
  5
1F4B
  8
0
 10
64.2649221047443007
 20
90.2207570308223978
 30
0.0
 40
2.0055089999999991
 50
118.1590609999998946
 51
240.7745009999999866
  0
ARC
  5
1F4C
  8
0
 10
63.4236771047443
 20
90.2207570308223978
 30
0.0
 40
2.0055089999999991
 50
118.1590609999998946
 51
240.7745009999999866
  0
ARC
  5
1F4D
  8
0
 10
62.5824311047443018
 20
90.2207570308223978
 30
0.0
 40
2.0055089999999991
 50
118.1590609999998946
 51
240.7745009999999866
  0
ARC
  5
1F4E
  8
0
 10
61.7411861047443011
 20
90.2207570308223978
 30
0.0
 40
2.0055089999999991
 50
118.1590609999998946
 51
240.7745009999999866
  0
LINE
  5
1F4F
  8
0
 10
64.5323511047442935
 20
88.9888950308224054
 30
0.0
 11
76.9323511047442992
 21
88.9888950308224054
 31
0.0
  0
ARC
  5
1F52
  8
0
 10
71.2323511047442963
 20
102.4888950308224054
 30
0.0
 40
6.75
 50
270.0
 51
90.0
  0
ARC
  5
1F53
  8
0
 10
71.2323511047442963
 20
102.4888950308224054
 30
0.0
 40
4.25
 50
270.0
 51
90.0
  0
ARC
  5
1F54
  8
0
 10
70.2323511047442963
 20
102.4888950308224054
 30
0.0
 40
4.25
 50
90.0
 51
270.0
  0
ARC
  5
1F55
  8
0
 10
70.2323511047442963
 20
102.4888950308224054
 30
0.0
 40
6.75
 50
90.0
 51
270.0
  0
LINE
  5
1F56
  8
0
 10
70.2323511047442963
 20
98.2388950308224054
 30
0.0
 11
71.2323511047442963
 21
98.2388950308224054
 31
0.0
  0
LINE
  5
1F57
  8
0
 10
70.2323511047442963
 20
106.7388950308224054
 30
0.0
 11
71.2323511047442963
 21
106.7388950308224054
 31
0.0
  0
LINE
  5
1F58
  8
0
 10
70.2323511047442963
 20
109.2388950308224054
 30
0.0
 11
71.2323511047442963
 21
109.2388950308224054
 31
0.0
  0
LINE
  5
1F59
  8
0
 10
71.2323511047442963
 20
95.7388950308224054
 30
0.0
 11
70.2323511047442963
 21
95.7388950308224054
 31
0.0
  0
LINE
  5
1F5A
  8
0
 10
60.2326351047442969
 20
87.9888950308224054
 30
0.0
 11
64.232635104744304
 21
87.9888950308224054
 31
0.0
  0
LINE
  5
1F5B
  8
0
 10
64.232635104744304
 20
87.9888950308224054
 30
0.0
 11
64.232635104744304
 21
88.470539030822394
 31
0.0
  0
ARC
  5
1F5C
  8
0
 10
60.4253565627967788
 20
90.2207567535571258
 30
0.0
 40
2.0055094606129491
 50
118.1590687991175059
 51
240.7744918451577973
  0
ARC
  5
1F5D
  8
0
 10
60.2326351047442969
 20
88.4888950308224054
 30
0.0
 40
0.5
 50
182.1039399999989996
 51
270.0
  0
ARC
  5
1F5E
  8
0
 10
81.0393456466918281
 20
90.2207567535571258
 30
0.0
 40
2.0055094606129602
 50
299.225508154842089
 51
61.840931200882487
  0
ARC
  5
1F5F
  8
0
 10
81.2320681047443003
 20
88.4888950308224054
 30
0.0
 40
0.5
 50
270.0
 51
357.8960599999992951
  0
LINE
  5
1F60
  8
0
 10
77.2320681047443003
 20
87.9888950308224054
 30
0.0
 11
77.2320681047443003
 21
88.470539030822394
 31
0.0
  0
LINE
  5
1F61
  8
0
 10
81.2320681047443003
 20
87.9888950308224054
 30
0.0
 11
77.2320681047443003
 21
87.9888950308224054
 31
0.0
  0
ARC
  5
1F62
  8
0
 10
60.4253557281530504
 20
114.757033802866701
 30
0.0
 40
2.0055086213036648
 50
119.2254942467098999
 51
241.8409454121047872
  0
ARC
  5
1F63
  8
0
 10
81.0393464813355564
 20
114.757033802866701
 30
0.0
 40
2.0055086213036479
 50
298.1590545878950138
 51
60.7745057532900574
  0
ARC
  5
1F64
  8
0
 10
60.2326351047442969
 20
116.4888950308224054
 30
0.0
 40
0.5
 50
90.0
 51
177.8960600000008867
  0
LINE
  5
1F65
  8
0
 10
64.232635104744304
 20
116.9888950308224054
 30
0.0
 11
64.232635104744304
 21
116.5072510308224025
 31
0.0
  0
LINE
  5
1F66
  8
0
 10
60.2326351047442969
 20
116.9888950308224054
 30
0.0
 11
64.232635104744304
 21
116.9888950308224054
 31
0.0
  0
LINE
  5
1F67
  8
0
 10
81.2320681047443003
 20
116.9888950308224054
 30
0.0
 11
77.2320681047443003
 21
116.9888950308224054
 31
0.0
  0
LINE
  5
1F68
  8
0
 10
77.2320681047443003
 20
116.9888950308224054
 30
0.0
 11
77.2320681047443003
 21
116.5072510308224025
 31
0.0
  0
ARC
  5
1F69
  8
0
 10
81.2320681047443003
 20
116.4888950308224054
 30
0.0
 40
0.5
 50
2.1039399999990609
 51
90.0
  0
LINE
  5
1F6A
  8
0
 10
54.2323515107648717
 20
92.4888950308223912
 30
0.0
 11
54.2323515107648717
 21
112.4888950308224054
 31
0.0
  0
ARC
  5
1F6B
  8
0
 10
54.7323515107648717
 20
92.4888950308223912
 30
0.0
 40
0.5
 50
180.0
 51
270.0
  0
ARC
  5
1F6C
  8
0
 10
54.7323515107648717
 20
112.4888950308224054
 30
0.0
 40
0.5
 50
90.0
 51
180.0
  0
LINE
  5
1F6D
  8
0
 10
54.232351511224401
 20
108.4888950303387958
 30
0.0
 11
53.2323515107651417
 21
107.4888950316416043
 31
0.0
  0
LINE
  5
1F6E
  8
0
 10
53.2323515107653407
 20
97.488895030001828
 30
0.0
 11
54.2323515112246568
 21
96.4888950313047076
 31
0.0
  0
LINE
  5
1F6F
  8
0
 10
52.6323515107653321
 20
97.4888950308217517
 30
0.0
 11
53.2323515107653407
 21
97.4888950308217517
 31
0.0
  0
LINE
  5
1F70
  8
0
 10
53.232351510765163
 20
107.4888950308216948
 30
0.0
 11
52.6323515107651332
 21
107.4888950308216948
 31
0.0
  0
LINE
  5
1F71
  8
0
 10
53.2323515107653407
 20
97.4888950308217659
 30
0.0
 11
53.2323515107651417
 21
107.4888950308216948
 31
0.0
  0
LINE
  5
1F72
  8
0
 10
52.6323515107651332
 20
107.4888950308216948
 30
0.0
 11
52.6323515107653321
 21
97.4888950308217517
 31
0.0
  0
LINE
  5
1F73
  8
5
 10
52.2323515107648717
 20
92.4888950308223912
 30
0.0
 11
52.2323515107648717
 21
96.488895031764514
 31
0.0
  0
LINE
  5
1F74
  8
5
 10
52.2323515107648717
 20
108.488895029879302
 30
0.0
 11
52.2323515107648717
 21
112.4888950308224054
 31
0.0
  0
ARC
  5
1F75
  8
5
 10
52.7323515107648717
 20
92.4888950308223912
 30
0.0
 40
0.5
 50
180.0
 51
270.0
  0
ARC
  5
1F76
  8
5
 10
52.7323515107648717
 20
112.4888950308224054
 30
0.0
 40
0.5
 50
90.0
 51
180.0
  0
LINE
  5
1F77
  8
5
 10
52.2323515112244081
 20
108.4888950303387958
 30
0.0
 11
51.2323515107651417
 21
107.4888950316416043
 31
0.0
  0
LINE
  5
1F78
  8
5
 10
51.2323515107653407
 20
97.488895030001828
 30
0.0
 11
52.2323515112246568
 21
96.4888950313047076
 31
0.0
  0
LINE
  5
1F79
  8
5
 10
50.6323515107653321
 20
97.4888950308217517
 30
0.0
 11
51.2323515107653407
 21
97.4888950308217517
 31
0.0
  0
LINE
  5
1F7A
  8
5
 10
51.2323515107651488
 20
107.4888950308216948
 30
0.0
 11
50.6323515107651332
 21
107.4888950308216948
 31
0.0
  0
POLYLINE
  5
1F7B
  8
5
 66
     1
 10
0.0
 20
0.0
 30
0.0
 70
   128
  0
VERTEX
  5
2C4C
  8
5
 10
49.2323515107648717
 20
99.171836785754877
 30
0.0
  0
VERTEX
  5
2C4D
  8
5
 10
49.9893530594773594
 20
98.7353428668525908
 30
0.0
  0
VERTEX
  5
2C4E
  8
5
 10
50.6323515107653179
 20
98.4197068491052534
 30
0.0
  0
SEQEND
  5
2C4F
  8
5
  0
POLYLINE
  5
1F7C
  8
5
 66
     1
 10
0.0
 20
0.0
 30
0.0
 70
   128
  0
VERTEX
  5
2C50
  8
5
 10
50.6323515107651616
 20
106.5580832125381932
 30
0.0
  0
VERTEX
  5
2C51
  8
5
 10
49.9893530594772173
 20
106.2424471947908984
 30
0.0
  0
VERTEX
  5
2C52
  8
5
 10
49.2323515107648717
 20
105.8059532758885979
 30
0.0
  0
SEQEND
  5
2C53
  8
5
  0
LINE
  5
1F7D
  8
5
 10
50.6323515107651332
 20
107.4888950308216948
 30
0.0
 11
50.6323515107651616
 21
106.5580832125381932
 31
0.0
  0
LINE
  5
1F7E
  8
5
 10
50.6323515107653179
 20
98.4197068491052534
 30
0.0
 11
50.6323515107653321
 21
97.4888950308217517
 31
0.0
  0
LINE
  5
1F7F
  8
5
 10
49.2323515107648717
 20
99.171836785754877
 30
0.0
 11
49.2323515107648717
 21
105.8059532758885979
 31
0.0
  0
LINE
  5
1F80
  8
0
 10
51.2323515107648717
 20
99.2485246816188038
 30
0.0
 11
51.2323515107648717
 21
105.7292653800260069
 31
0.0
  0
ARC
  5
1F81
  8
0
 10
53.9823515107652412
 20
102.4888950308224054
 30
0.0
 40
4.25
 50
108.5206885054122949
 51
130.3202150699781043
  0
ARC
  5
1F82
  8
0
 10
53.9823515107652412
 20
102.4888950308224054
 30
0.0
 40
4.25
 50
229.6797849300218957
 51
251.4793114945900072
  0
LINE
  5
1F83
  8
5
 10
52.7323515107648717
 20
112.9888950308224054
 30
0.0
 11
54.2323515107648717
 21
112.9888950308224054
 31
0.0
  0
LINE
  5
1F84
  8
5
 10
52.7323515107648717
 20
91.9888950308224054
 30
0.0
 11
54.2323515107648717
 21
91.9888950308224054
 31
0.0
  0
LINE
  5
29F4
  8
0
 10
54.4323515107651374
 20
47.0154439754101006
 30
0.0
 11
70.0323515107648831
 21
47.0154439754101006
 31
0.0
  0
LINE
  5
29F5
  8
0
 10
84.0323511047443077
 20
62.0154439754101077
 30
0.0
 11
76.2323511047437563
 21
62.015443975410129
 31
0.0
  0
LINE
  5
29F6
  8
0
 10
54.2323515107648717
 20
61.8154439754103677
 30
0.0
 11
54.2323515107648717
 21
47.2154439754103734
 31
0.0
  0
LINE
  5
29F7
  8
0
 10
70.0323515107648831
 20
49.015443975410129
 30
0.0
 11
70.0323515107648831
 21
47.0154439754101006
 31
0.0
  0
LINE
  5
29F8
  8
0
 10
54.2323515107648717
 20
47.2154439754103734
 30
0.0
 11
54.4323515107648603
 21
47.0154439754103706
 31
0.0
  0
LINE
  5
29F9
  8
0
 10
54.2323515107648717
 20
61.8154439754103677
 30
0.0
 11
54.4323515107648603
 21
62.0154439754103706
 31
0.0
  0
ARC
  5
29FA
  8
0
 10
79.2320681047437319
 20
54.8347499754101335
 30
0.0
 40
2.5
 50
270.0
 51
90.0
  0
LINE
  5
29FB
  8
0
 10
64.4323511047437449
 20
49.015443975410129
 30
0.0
 11
77.0323511047437677
 21
49.015443975410129
 31
0.0
  0
LINE
  5
29FC
  8
0
 10
77.0323511047437677
 20
49.015443975410129
 30
0.0
 11
77.0323511047437677
 21
51.0447983198455688
 31
0.0
  0
LINE
  5
29FD
  8
0
 10
64.4323511047437449
 20
49.015443975410129
 30
0.0
 11
64.4323511047437449
 21
51.2681139848960115
 31
0.0
  0
LINE
  5
29FE
  8
0
 10
77.0323511047437677
 20
60.4154439754101276
 30
0.0
 11
64.4323511047437449
 21
60.4154439754101276
 31
0.0
  0
LINE
  5
29FF
  8
0
 10
65.2323511047437563
 20
62.015443975410129
 30
0.0
 11
54.4323515107648603
 21
62.0154439754103706
 31
0.0
  0
LINE
  5
2A00
  8
0
 10
81.7320671047437344
 20
54.835811975410131
 30
0.0
 11
82.8963001047437444
 21
54.835811975410131
 31
0.0
  0
LINE
  5
2A01
  8
0
 10
80.6620276293085539
 20
56.8844805045404485
 30
0.0
 11
81.4140686293085736
 21
57.0318445045404587
 31
0.0
  0
LINE
  5
2A02
  8
0
 10
81.7211527163977252
 20
55.0681119175242699
 30
0.0
 11
82.2212987944604237
 21
54.835811975410131
 31
0.0
  0
LINE
  5
2A03
  8
0
 10
81.6615272000326371
 20
55.424435064519777
 30
0.0
 11
82.9546748283906794
 21
54.8238123564695101
 31
0.0
  0
LINE
  5
2A04
  8
0
 10
82.7323511047437563
 20
64.5154439754101361
 30
0.0
 11
58.7323511047437492
 21
64.5154439754101361
 31
0.0
  0
LINE
  5
2A05
  8
0
 10
75.6499991047437419
 20
60.4154439754101276
 30
0.0
 11
77.1422771047437408
 21
64.5154439754101361
 31
0.0
  0
LINE
  5
2A06
  8
0
 10
59.6422771047437408
 20
62.015443975410129
 30
0.0
 11
58.7323511047437492
 21
64.5154439754101361
 31
0.0
  0
LINE
  5
2A07
  8
0
 10
81.8224261047437693
 20
62.015443975410129
 30
0.0
 11
82.7323511047437563
 21
64.5154439754101361
 31
0.0
  0
LINE
  5
2A08
  8
0
 10
65.8147031047437707
 20
60.4154439754101276
 30
0.0
 11
64.3224261047437693
 21
64.5154439754101361
 31
0.0
  0
LINE
  5
2A09
  8
0
 10
64.4323511047437449
 20
59.2154439754101389
 30
0.0
 11
77.0323511047437677
 21
59.2154439754101389
 31
0.0
  0
LINE
  5
2A0A
  8
0
 10
77.0163598404564453
 20
51.5894622587582816
 30
0.0
 11
77.4887982031781632
 21
50.9107704819170266
 31
0.0
  0
LINE
  5
2A0B
  8
0
 10
76.9758137565300302
 20
51.1260183804278583
 30
0.0
 11
77.5544609442016366
 21
50.2947491199598176
 31
0.0
  0
ARC
  5
2A0C
  8
0
 10
76.7595900135798814
 20
50.3644312405284396
 30
0.0
 40
0.149024256163722
 50
175.0001109367231891
 51
354.9996351366501131
  0
ARC
  5
2A0D
  8
0
 10
76.9080085603302308
 20
52.0608664677474593
 30
0.0
 40
0.1490245531800441
 50
355.0003293164488127
 51
174.9999374611471978
  0
LINE
  5
2A0E
  8
0
 10
76.9080471047437726
 20
50.3514419754101397
 30
0.0
 11
77.0564661047437625
 21
52.0478789754101427
 31
0.0
  0
LINE
  5
2A0F
  8
0
 10
76.6111328145546935
 20
50.3774192728173631
 30
0.0
 11
76.7595511047437498
 21
52.0738549754101427
 31
0.0
  0
LINE
  5
2A10
  8
0
 10
76.6699458688311637
 20
51.0496582867962019
 30
0.0
 11
76.1444538384842957
 21
50.2947499506737685
 31
0.0
  0
LINE
  5
2A11
  8
0
 10
76.7221488245757968
 20
51.646343222280322
 30
0.0
 11
76.2101160064531058
 21
50.9107704835603982
 31
0.0
  0
ARC
  5
2A12
  8
0
 10
76.0127240135799269
 20
50.3644312405284609
 30
0.0
 40
0.1490242561637349
 50
175.0001109367294134
 51
354.9996351366414729
  0
ARC
  5
2A13
  8
0
 10
76.1611425603302052
 20
52.0608664677474593
 30
0.0
 40
0.1490245531800306
 50
355.0003293164455727
 51
174.9999374611508927
  0
LINE
  5
2A14
  8
0
 10
76.1611811047437612
 20
50.3514419754101397
 30
0.0
 11
76.3096001047437511
 21
52.0478789754101427
 31
0.0
  0
LINE
  5
2A15
  8
0
 10
75.8642668145546821
 20
50.3774192728173631
 30
0.0
 11
76.0126851047437384
 21
52.0738549754101427
 31
0.0
  0
ARC
  5
2A16
  8
0
 10
75.1286710999431619
 20
52.0608669205379613
 30
0.0
 40
0.149024055081727
 50
355.0001378121879725
 51
175.0000954572385865
  0
ARC
  5
2A17
  8
0
 10
74.9802520204088268
 20
50.3644312323899896
 30
0.0
 40
0.1490242486514388
 50
175.0001075430816968
 51
354.9996380249043
  0
LINE
  5
2A18
  8
0
 10
75.9641358556581139
 20
51.5189322675821089
 30
0.0
 11
75.1119818434387838
 21
50.2947499550579522
 31
0.0
  0
LINE
  5
2A19
  8
0
 10
76.0294129918217294
 20
52.1305488775154302
 30
0.0
 11
75.1772585330572554
 21
50.9063645023097777
 31
0.0
  0
LINE
  5
2A1A
  8
0
 10
75.1287091047437769
 20
50.3514419754101397
 30
0.0
 11
75.2771281047437668
 21
52.0478789754101427
 31
0.0
  0
LINE
  5
2A1B
  8
0
 10
74.8317948296366211
 20
50.3774192728173418
 30
0.0
 11
74.9802141047437516
 21
52.0738549754101427
 31
0.0
  0
ARC
  5
2A1C
  8
0
 10
74.0961990999431777
 20
52.0608669205379826
 30
0.0
 40
0.1490240550817282
 50
355.000137812182686
 51
175.0000954572439014
  0
ARC
  5
2A1D
  8
0
 10
73.947780560023574
 20
50.3644316851811595
 30
0.0
 40
0.1490247467512201
 50
175.0002990475022102
 51
354.9994800302346221
  0
LINE
  5
2A1E
  8
0
 10
74.9316646309186893
 20
51.5189333813013235
 30
0.0
 11
74.079513439851354
 21
50.2947551215708231
 31
0.0
  0
LINE
  5
2A1F
  8
0
 10
74.9969414615876957
 20
52.1305481330111107
 30
0.0
 11
74.1447873028575231
 21
50.9063656100133315
 31
0.0
  0
LINE
  5
2A20
  8
0
 10
74.0962381047437333
 20
50.3514419754101397
 30
0.0
 11
74.2446561047437257
 21
52.0478789754101427
 31
0.0
  0
LINE
  5
2A21
  8
0
 10
73.7993228296365658
 20
50.3774192728173631
 30
0.0
 11
73.9477421047437673
 21
52.0738549754101427
 31
0.0
  0
ARC
  5
2A22
  8
0
 10
73.0637275527343348
 20
52.0608663809234997
 30
0.0
 40
0.1490245531803458
 50
355.000362825340801
 51
174.9999039522554938
  0
ARC
  5
2A23
  8
0
 10
72.9153085600236608
 20
50.3644316851811809
 30
0.0
 40
0.1490247467512602
 50
175.000299047514801
 51
354.9994800302224007
  0
LINE
  5
2A24
  8
0
 10
73.8991924871670989
 20
51.5189317382174821
 30
0.0
 11
73.0470382752857716
 21
50.2947491388640628
 31
0.0
  0
LINE
  5
2A25
  8
0
 10
73.9644694615875977
 20
52.1305481330109686
 30
0.0
 11
73.1123156769914289
 21
50.9063661474843272
 31
0.0
  0
LINE
  5
2A26
  8
0
 10
73.063766104743749
 20
50.3514419754101397
 30
0.0
 11
73.2121851047437247
 21
52.0478789754101427
 31
0.0
  0
LINE
  5
2A27
  8
0
 10
72.7668508296365957
 20
50.3774192728173631
 30
0.0
 11
72.9152701047437262
 21
52.0738549754101427
 31
0.0
  0
ARC
  5
2A28
  8
0
 10
72.0312555603302229
 20
52.0608664677474593
 30
0.0
 40
0.1490245531800447
 50
355.0003293164464253
 51
174.9999374611504948
  0
ARC
  5
2A29
  8
0
 10
71.8828370135799304
 20
50.3644312405284325
 30
0.0
 40
0.1490242561637226
 50
175.0001109367208016
 51
354.9996351366526142
  0
LINE
  5
2A2A
  8
0
 10
72.8667204871671146
 20
51.5189317382174679
 30
0.0
 11
72.0145668324623074
 21
50.2947499392893889
 31
0.0
  0
LINE
  5
2A2B
  8
0
 10
72.9319981894211935
 20
52.1305491785978603
 30
0.0
 11
72.0798436769913877
 21
50.9063661474843485
 31
0.0
  0
LINE
  5
2A2C
  8
0
 10
72.0312941047437647
 20
50.3514419754101397
 30
0.0
 11
72.1797131047437546
 21
52.0478789754101427
 31
0.0
  0
LINE
  5
2A2D
  8
0
 10
71.7343798145546856
 20
50.3774192728173631
 30
0.0
 11
71.8827981047437419
 21
52.0738549754101427
 31
0.0
  0
ARC
  5
2A2E
  8
0
 10
70.9987835603301818
 20
52.0608664677474309
 30
0.0
 40
0.1490245531800564
 50
355.0003293164572824
 51
174.9999374611390124
  0
ARC
  5
2A2F
  8
0
 10
70.8503650135798893
 20
50.3644312405284396
 30
0.0
 40
0.1490242561636937
 50
175.0001109367223933
 51
354.999635136647214
  0
LINE
  5
2A30
  8
0
 10
71.8342488556581173
 20
51.5189322675821231
 30
0.0
 11
70.9820948324620389
 21
50.2947499392890407
 31
0.0
  0
LINE
  5
2A31
  8
0
 10
71.8995260297548811
 20
52.1305489492253926
 30
0.0
 11
71.0473716769914034
 21
50.9063661474843272
 31
0.0
  0
LINE
  5
2A32
  8
0
 10
70.9988221047437236
 20
50.3514419754101397
 30
0.0
 11
71.1472411047437703
 21
52.0478789754101427
 31
0.0
  0
LINE
  5
2A33
  8
0
 10
70.7019078145547013
 20
50.3774192728173631
 30
0.0
 11
70.8503261047437434
 21
52.0738549754101427
 31
0.0
  0
ARC
  5
2A34
  8
0
 10
69.9663120999431811
 20
52.0608669205379826
 30
0.0
 40
0.1490240550817288
 50
355.0001378121799007
 51
175.0000954572468004
  0
ARC
  5
2A35
  8
0
 10
69.8178930204088459
 20
50.3644312323899896
 30
0.0
 40
0.1490242486514412
 50
175.0001075430706976
 51
354.9996380249078811
  0
LINE
  5
2A36
  8
0
 10
70.8017768556581331
 20
51.5189322675821089
 30
0.0
 11
69.949622843438803
 21
50.2947499550579309
 31
0.0
  0
LINE
  5
2A37
  8
0
 10
70.8670508651827475
 20
52.1305429665092106
 30
0.0
 11
70.0148995332402677
 21
50.9063645044011608
 31
0.0
  0
LINE
  5
2A38
  8
0
 10
69.9663501047437393
 20
50.3514419754101397
 30
0.0
 11
70.1147691047437291
 21
52.0478789754101427
 31
0.0
  0
LINE
  5
2A39
  8
0
 10
69.6694358296365834
 20
50.3774192728173631
 30
0.0
 11
69.8178551047437708
 21
52.0738549754101427
 31
0.0
  0
ARC
  5
2A3A
  8
0
 10
68.9338405527342815
 20
52.0608663809234926
 30
0.0
 40
0.1490245531803593
 50
355.0003628253440979
 51
174.9999039522521969
  0
ARC
  5
2A3B
  8
0
 10
68.7854215600235932
 20
50.3644316851811595
 30
0.0
 40
0.1490247467512349
 50
175.000299047500107
 51
354.9994800302338263
  0
LINE
  5
2A3C
  8
0
 10
69.7693056309186517
 20
51.518933381301288
 30
0.0
 11
68.9171544398516147
 21
50.2947551215711499
 31
0.0
  0
LINE
  5
2A3D
  8
0
 10
69.8345824615875443
 20
52.1305481330108833
 30
0.0
 11
68.9824286769914323
 21
50.9063661474843272
 31
0.0
  0
LINE
  5
2A3E
  8
0
 10
68.9338791047437525
 20
50.3514419754101397
 30
0.0
 11
69.0822981047437423
 21
52.0478789754101427
 31
0.0
  0
LINE
  5
2A3F
  8
0
 10
68.6369638296365849
 20
50.3774192728173631
 30
0.0
 11
68.7853831047437296
 21
52.0738549754101427
 31
0.0
  0
ARC
  5
2A40
  8
0
 10
67.9013685527342972
 20
52.0608663809235068
 30
0.0
 40
0.1490245531803747
 50
355.0003628253392094
 51
174.9999039522571138
  0
ARC
  5
2A41
  8
0
 10
67.7529495600236231
 20
50.3644316851811666
 30
0.0
 40
0.1490247467512485
 50
175.0002990475034039
 51
354.9994800302284261
  0
LINE
  5
2A42
  8
0
 10
68.7368334871671181
 20
51.5189317382174679
 30
0.0
 11
67.884679275285734
 21
50.2947491388639989
 31
0.0
  0
LINE
  5
2A43
  8
0
 10
68.8021111894210975
 20
52.1305491785977111
 30
0.0
 11
67.9499566769913912
 21
50.9063661474843272
 31
0.0
  0
LINE
  5
2A44
  8
0
 10
67.9014071047437682
 20
50.3514419754101397
 30
0.0
 11
68.0498261047437438
 21
52.0478789754101427
 31
0.0
  0
LINE
  5
2A45
  8
0
 10
67.6044918296366149
 20
50.3774192728173631
 30
0.0
 11
67.7529111047437453
 21
52.0738549754101427
 31
0.0
  0
ARC
  5
2A46
  8
0
 10
66.8688965603302989
 20
52.0608664677486814
 30
0.0
 40
0.1490245531800374
 50
355.0003293159771829
 51
174.9999374616191972
  0
ARC
  5
2A47
  8
0
 10
66.7204780135798927
 20
50.3644312405284325
 30
0.0
 40
0.1490242561637085
 50
175.0001109367204037
 51
354.9996351366530121
  0
LINE
  5
2A48
  8
0
 10
67.7043614871671338
 20
51.5189317382175034
 30
0.0
 11
66.8522078324622129
 21
50.2947499392892396
 31
0.0
  0
LINE
  5
2A49
  8
0
 10
67.7696391894209427
 20
52.1305491785974908
 30
0.0
 11
66.9174846769914069
 21
50.9063661474843272
 31
0.0
  0
LINE
  5
2A4A
  8
0
 10
66.868935104743727
 20
50.3514419754101397
 30
0.0
 11
67.0173541047437737
 21
52.0478789754101427
 31
0.0
  0
LINE
  5
2A4B
  8
0
 10
66.5720208145547048
 20
50.3774192728173631
 30
0.0
 11
66.720439104743761
 21
52.0738549754101427
 31
0.0
  0
ARC
  5
2A4C
  8
0
 10
65.836424560330201
 20
52.0608664677474309
 30
0.0
 40
0.1490245531800416
 50
355.0003293164598972
 51
174.9999374611369944
  0
ARC
  5
2A4D
  8
0
 10
65.6880060135799084
 20
50.3644312405284182
 30
0.0
 40
0.1490242561637097
 50
175.000110936714691
 51
354.9996351366553995
  0
LINE
  5
2A4E
  8
0
 10
66.6718898556581365
 20
51.5189322675821089
 30
0.0
 11
65.8197358324621717
 21
50.2947499392892112
 31
0.0
  0
LINE
  5
2A4F
  8
0
 10
66.7371670297526833
 20
52.1305489492221596
 30
0.0
 11
65.8850126769913658
 21
50.9063661474842988
 31
0.0
  0
LINE
  5
2A50
  8
0
 10
65.8364631047437427
 20
50.3514419754101397
 30
0.0
 11
65.9848821047437326
 21
52.0478789754101427
 31
0.0
  0
LINE
  5
2A51
  8
0
 10
65.5395488145547205
 20
50.3774192728173631
 30
0.0
 11
65.6879671047437199
 21
52.0738549754101427
 31
0.0
  0
ARC
  5
2A52
  8
0
 10
64.8039530999431435
 20
52.0608669205379826
 30
0.0
 40
0.1490240550817572
 50
355.0001378121809807
 51
175.000095457245493
  0
ARC
  5
2A53
  8
0
 10
64.6555340204088083
 20
50.3644312323899683
 30
0.0
 40
0.1490242486513994
 50
175.0001075430666049
 51
354.9996380249123717
  0
LINE
  5
2A54
  8
0
 10
65.6394178556580954
 20
51.5189322675821089
 30
0.0
 11
64.7872638434385379
 21
50.2947499550575685
 31
0.0
  0
LINE
  5
2A55
  8
0
 10
65.7046918651828236
 20
52.1305429665093101
 30
0.0
 11
64.85254053324023
 21
50.9063645044011395
 31
0.0
  0
LINE
  5
2A56
  8
0
 10
64.8039911047437585
 20
50.3514419754101397
 30
0.0
 11
64.9524101047437483
 21
52.0478789754101427
 31
0.0
  0
LINE
  5
2A57
  8
0
 10
64.5070768296366026
 20
50.3774192728173631
 30
0.0
 11
64.6554961047437331
 21
52.0738549754101427
 31
0.0
  0
ARC
  5
2A58
  8
0
 10
63.7714815527343006
 20
52.060866380923521
 30
0.0
 40
0.149024553180376
 50
355.000362825333923
 51
174.9999039522624003
  0
ARC
  5
2A59
  8
0
 10
63.6230625600236195
 20
50.3644316851811666
 30
0.0
 40
0.1490247467512266
 50
175.0002990475055071
 51
354.9994800302304725
  0
LINE
  5
2A5A
  8
0
 10
64.6069466309186708
 20
51.5189333813013093
 30
0.0
 11
63.7547954398515202
 21
50.2947551215710078
 31
0.0
  0
LINE
  5
2A5B
  8
0
 10
64.672223461587393
 20
52.1305481330106772
 30
0.0
 11
63.8200696769913876
 21
50.906366147484313
 31
0.0
  0
LINE
  5
2A5C
  8
0
 10
63.7715201047437716
 20
50.3514419754101397
 30
0.0
 11
63.9199391047437615
 21
52.0478789754101427
 31
0.0
  0
LINE
  5
2A5D
  8
0
 10
63.4746048296366112
 20
50.3774192728173631
 30
0.0
 11
63.6230241047437488
 21
52.0738549754101427
 31
0.0
  0
ARC
  5
2A5E
  8
0
 10
62.7390095527343234
 20
52.0608663809235424
 30
0.0
 40
0.1490245531803489
 50
355.0003628253272723
 51
174.9999039522685962
  0
ARC
  5
2A5F
  8
0
 10
62.5905905600236423
 20
50.3644316851811666
 30
0.0
 40
0.1490247467512414
 50
175.000299047503006
 51
354.9994800302309272
  0
LINE
  5
2A60
  8
0
 10
63.5744744871671372
 20
51.5189317382175105
 30
0.0
 11
62.7223202752856395
 21
50.2947491388638781
 31
0.0
  0
LINE
  5
2A61
  8
0
 10
63.6397521894208893
 20
52.1305491785974198
 30
0.0
 11
62.7875976769914104
 21
50.906366147484313
 31
0.0
  0
LINE
  5
2A62
  8
0
 10
62.7390481047437305
 20
50.3514419754101397
 30
0.0
 11
62.8874671047437204
 21
52.0478789754101427
 31
0.0
  0
LINE
  5
2A63
  8
0
 10
62.4421328296365772
 20
50.3774192728173631
 30
0.0
 11
62.5905521047437574
 21
52.0738549754101427
 31
0.0
  0
LINE
  5
2A64
  8
0
 10
81.7146123103126882
 20
54.5398359754101421
 30
0.0
 11
82.8963001047437444
 21
54.5398359754101421
 31
0.0
  0
LINE
  5
2A65
  8
0
 10
81.5506198036207905
 20
53.8997002336132383
 30
0.0
 11
82.9546748261711144
 21
54.5518355933980104
 31
0.0
  0
LINE
  5
2A66
  8
0
 10
81.6706680970595897
 20
54.2840866685907386
 30
0.0
 11
82.2212988033867731
 21
54.5398359754101421
 31
0.0
  0
LINE
  5
2A67
  8
0
 10
81.0609012296070404
 20
52.9650064303981623
 30
0.0
 11
82.6915973330281844
 21
53.1627249309121197
 31
0.0
  0
LINE
  5
2A68
  8
0
 10
81.1905718755859738
 20
53.2809600991408772
 30
0.0
 11
81.9903951566071072
 21
53.3779369792802427
 31
0.0
  0
LINE
  5
2A69
  8
0
 10
80.4001419343807981
 20
52.238766886771792
 30
0.0
 11
82.0121305056554064
 21
51.9228945029401032
 31
0.0
  0
LINE
  5
2A6A
  8
0
 10
80.2815847203629289
 20
52.5657160678760818
 30
0.0
 11
81.4117447303862463
 21
52.3442588191977691
 31
0.0
  0
LINE
  5
2A6B
  8
0
 10
79.6691092566978654
 20
51.79804965991557
 30
0.0
 11
80.9821398027742561
 21
50.9540993213385391
 31
0.0
  0
LINE
  5
2A6C
  8
0
 10
79.5236004838512116
 20
52.2458798701400795
 30
0.0
 11
80.4720308876721049
 21
51.636277118663628
 31
0.0
  0
LINE
  5
2A6D
  8
0
 10
78.7579100901090641
 20
51.6256984159264292
 30
0.0
 11
79.8119650877752491
 21
50.4349802617660998
 31
0.0
  0
LINE
  5
2A6E
  8
0
 10
78.7142553654359034
 20
52.1246741052368208
 30
0.0
 11
79.5634814216505077
 21
51.1653416333479427
 31
0.0
  0
LINE
  5
2A6F
  8
0
 10
77.7347787223203994
 20
51.5189317382175105
 30
0.0
 11
78.5869330978117944
 21
50.2947489038261608
 31
0.0
  0
LINE
  5
2A70
  8
0
 10
77.6609839106492217
 20
52.1446939297398231
 30
0.0
 11
78.521464465555411
 21
50.9085499223394677
 31
0.0
  0
ARC
  5
2A71
  8
0
 10
77.6861906494639101
 20
50.3644316851808682
 30
0.0
 40
0.1490247467512226
 50
185.000519969657006
 51
4.9997009526077383
  0
ARC
  5
2A72
  8
0
 10
78.7186626443211566
 20
50.364431774930928
 30
0.0
 40
0.1490247494511012
 50
185.0005545170128016
 51
4.9996662236614204
  0
ARC
  5
2A73
  8
0
 10
79.9255846713262912
 20
50.5298007704918106
 30
0.0
 40
0.1479876300280172
 50
198.0000417046867938
 51
18.000208545392141
  0
LINE
  5
2A74
  8
0
 10
79.4903771047437289
 20
52.3481309754101289
 30
0.0
 11
80.0663291047437582
 21
50.5755319754101293
 31
0.0
  0
LINE
  5
2A75
  8
0
 10
79.183517441671242
 20
52.3347499754101406
 30
0.0
 11
79.7848401047437363
 21
50.4840699754101365
 31
0.0
  0
ARC
  5
2A76
  8
0
 10
81.0584719800904594
 20
51.080881458790067
 30
0.0
 40
0.1479876553150878
 50
215.9997712778265111
 51
36.0002657488780997
  0
LINE
  5
2A77
  8
0
 10
80.1913641047437835
 20
52.5261249754101414
 30
0.0
 11
81.1781961047437761
 21
51.1678669754101492
 31
0.0
  0
LINE
  5
2A78
  8
0
 10
79.8987791047437526
 20
52.4252909754101282
 30
0.0
 11
80.9387471047437401
 21
50.9938969754101308
 31
0.0
  0
ARC
  5
2A79
  8
0
 10
82.0448176213641176
 20
52.0672271000632065
 30
0.0
 40
0.1479876553150941
 50
233.9997342509728071
 51
54.0002287223189228
  0
LINE
  5
2A7A
  8
0
 10
80.9661021047437401
 20
53.0338819754101394
 30
0.0
 11
82.1318021047437554
 21
52.186951975410139
 31
0.0
  0
LINE
  5
2A7B
  8
0
 10
80.7343171047437238
 20
52.8364389754101467
 30
0.0
 11
81.9578321047437584
 21
51.9475029754101385
 31
0.0
  0
ARC
  5
2A7C
  8
0
 10
82.6780895043558388
 20
53.3100945080280511
 30
0.0
 40
0.1479874755190892
 50
252.0000998503927008
 51
72.0000181164016055
  0
LINE
  5
2A7D
  8
0
 10
81.5256976843963059
 20
53.8401327870694786
 30
0.0
 11
82.7238201047437514
 21
53.4508389754101287
 31
0.0
  0
LINE
  5
2A7E
  8
0
 10
81.3902649803427352
 20
53.5729313489210384
 30
0.0
 11
82.632359104743756
 21
53.1693499754101424
 31
0.0
  0
ARC
  5
2A7F
  8
0
 10
82.8963001047437444
 20
54.6878239754101401
 30
0.0
 40
0.147988
 50
270.0
 51
90.0
  0
LINE
  5
2A80
  8
0
 10
78.8671203852698994
 20
50.3774192728173631
 30
0.0
 11
78.6958761047437605
 21
52.3347499754101335
 31
0.0
  0
LINE
  5
2A81
  8
0
 10
78.5702051047437493
 20
50.3514419754101397
 30
0.0
 11
78.3966881047437454
 21
52.3347499754101335
 31
0.0
  0
LINE
  5
2A82
  8
0
 10
77.8346483798508615
 20
50.3774192728173489
 30
0.0
 11
77.686229104743731
 21
52.0738549754101427
 31
0.0
  0
LINE
  5
2A83
  8
0
 10
77.537733104743765
 20
50.3514419754101397
 30
0.0
 11
77.3893141047437751
 21
52.0478789754101427
 31
0.0
  0
ARC
  5
2A84
  8
0
 10
77.5377716567531792
 20
52.0608663809240824
 30
0.0
 40
0.1490245531803514
 50
5.0000960475204899
 51
184.9996371748831052
  0
ARC
  5
2A85
  8
0
 10
58.5678351047437573
 20
54.6878239754101401
 30
0.0
 40
0.147988
 50
90.0
 51
270.0
  0
LINE
  5
2A86
  8
0
 10
59.7320681047437319
 20
54.5398359754101421
 30
0.0
 11
58.5678351047437573
 21
54.5398359754101421
 31
0.0
  0
LINE
  5
2A87
  8
0
 10
60.074347558832109
 20
53.5730864429409408
 30
0.0
 11
58.8317761047437529
 21
53.1693499754101424
 31
0.0
  0
LINE
  5
2A88
  8
0
 10
59.938935383888051
 20
53.8402945512977524
 30
0.0
 11
58.7403151047437717
 21
53.4508389754101287
 31
0.0
  0
ARC
  5
2A89
  8
0
 10
58.7860457051325866
 20
53.3100945080283282
 30
0.0
 40
0.1479874755190884
 50
107.999981883968303
 51
287.999900149241796
  0
LINE
  5
2A8A
  8
0
 10
60.7301072769553585
 20
52.8366483446812367
 30
0.0
 11
59.5063031047437718
 21
51.9475029754101385
 31
0.0
  0
LINE
  5
2A8B
  8
0
 10
60.49835676668242
 20
53.0341171293997888
 30
0.0
 11
59.3323331047437676
 21
52.186951975410139
 31
0.0
  0
ARC
  5
2A8C
  8
0
 10
59.4193175881236897
 20
52.0672271000634197
 30
0.0
 40
0.1479876553150951
 50
125.9997712778209973
 51
306.0002657488873865
  0
LINE
  5
2A8D
  8
0
 10
61.5654507376473106
 20
52.4254212265047315
 30
0.0
 11
60.5253881047437829
 21
50.9938969754101308
 31
0.0
  0
LINE
  5
2A8E
  8
0
 10
61.2729026288184713
 20
52.5263060028055691
 30
0.0
 11
60.2859391047437398
 21
51.1678669754101492
 31
0.0
  0
ARC
  5
2A8F
  8
0
 10
60.4056632293968292
 20
51.0808814587897473
 30
0.0
 40
0.1479876553150925
 50
143.9997342509682881
 51
324.0002287223259145
  0
LINE
  5
2A90
  8
0
 10
61.9737591047437419
 20
52.3481309754101289
 30
0.0
 11
61.3978061047437578
 21
50.5755319754101293
 31
0.0
  0
ARC
  5
2A91
  8
0
 10
61.5385505381612319
 20
50.5298007704917893
 30
0.0
 40
0.1479876300279689
 50
161.999791454604491
 51
341.9999582953175263
  0
LINE
  5
2A92
  8
0
 10
61.9405359166952181
 20
52.2458806356920675
 30
0.0
 11
60.9921043218153969
 21
51.6362771186636209
 31
0.0
  0
LINE
  5
2A93
  8
0
 10
61.7950268245188923
 20
51.798050220219551
 30
0.0
 11
60.4892975027894835
 21
50.9587927433417818
 31
0.0
  0
LINE
  5
2A94
  8
0
 10
61.1829494767214683
 20
52.5657942503411206
 30
0.0
 11
60.0523910902606772
 21
52.3442589389557611
 31
0.0
  0
LINE
  5
2A95
  8
0
 10
61.0639932751067107
 20
52.2387668867717991
 30
0.0
 11
59.4520047038276189
 21
51.9228945029392293
 31
0.0
  0
LINE
  5
2A96
  8
0
 10
60.2741917891101906
 20
53.280883900276848
 30
0.0
 11
59.473740052880359
 21
53.3779369792802427
 31
0.0
  0
LINE
  5
2A97
  8
0
 10
60.4032339798804827
 20
52.9650064303981623
 30
0.0
 11
58.7725423708765078
 21
53.1627243859734122
 31
0.0
  0
LINE
  5
2A98
  8
0
 10
59.7941015610807014
 20
54.2837924848265914
 30
0.0
 11
59.2428364102467384
 21
54.5398359754101421
 31
0.0
  0
LINE
  5
2A99
  8
0
 10
59.914214355795238
 20
53.8993755953648801
 30
0.0
 11
58.5094603833158402
 21
54.5518355933982519
 31
0.0
  0
LINE
  5
2A9A
  8
0
 10
59.7500908991748219
 20
54.5398359754101421
 30
0.0
 11
58.5678351047437573
 21
54.5398359754101421
 31
0.0
  0
LINE
  5
2A9B
  8
0
 10
59.7320681047437319
 20
54.835811975410131
 30
0.0
 11
58.5678351047437573
 21
54.835811975410131
 31
0.0
  0
LINE
  5
2A9C
  8
0
 10
59.8032480772753701
 20
55.4247318995132829
 30
0.0
 11
58.5094604202788986
 21
54.8238123732888809
 31
0.0
  0
LINE
  5
2A9D
  8
0
 10
59.7435763248475169
 20
55.0683872802687802
 30
0.0
 11
59.2428364191729671
 21
54.835811975410131
 31
0.0
  0
LINE
  5
2A9E
  8
0
 10
59.7326353303125615
 20
54.835811975410131
 30
0.0
 11
58.5678351047437573
 21
54.835811975410131
 31
0.0
  0
LINE
  5
2A9F
  8
0
 10
62.2807721047437823
 20
52.3352249754101422
 30
0.0
 11
61.6792951047437228
 21
50.4840699754101365
 31
0.0
  0
LINE
  5
2AA0
  8
0
 10
61.9236380614836293
 20
51.2360799210669171
 30
0.0
 11
62.5905521047437574
 21
52.0738549754101427
 31
0.0
  0
LINE
  5
2AA1
  8
0
 10
61.6792951047437228
 20
50.4840699754101365
 30
0.0
 11
62.5500722353793179
 21
51.6111691444996197
 31
0.0
  0
LINE
  5
2AA2
  8
0
 10
64.4323511047437449
 20
50.2154439754101318
 30
0.0
 11
77.0323511047437677
 21
50.2154439754101318
 31
0.0
  0
LINE
  5
2AA3
  8
0
 10
77.2320681047437319
 20
57.3347499754101335
 30
0.0
 11
77.2320681047437319
 21
52.3347499754101335
 31
0.0
  0
LINE
  5
2AA4
  8
0
 10
79.2320681047437319
 20
57.3347499754101335
 30
0.0
 11
77.2320681047437319
 21
57.3347499754101335
 31
0.0
  0
LINE
  5
2AA5
  8
0
 10
79.2320681047437319
 20
52.3347499754101335
 30
0.0
 11
77.2320681047437319
 21
52.3347499754101335
 31
0.0
  0
LINE
  5
2AA6
  8
0
 10
62.2326351047437782
 20
57.3347499754101335
 30
0.0
 11
64.232635104743764
 21
57.3347499754101335
 31
0.0
  0
LINE
  5
2AA7
  8
0
 10
64.232635104743764
 20
57.3347499754101335
 30
0.0
 11
64.232635104743764
 21
52.3347499754101335
 31
0.0
  0
ARC
  5
2AA8
  8
0
 10
62.2326351047437782
 20
54.8347499754101335
 30
0.0
 40
2.5
 50
90.0
 51
270.0
  0
LINE
  5
2AA9
  8
0
 10
62.2326351047437782
 20
52.3347499754101335
 30
0.0
 11
64.232635104743764
 21
52.3347499754101335
 31
0.0
  0
LINE
  5
2AAA
  8
0
 10
64.4323511047437449
 20
58.1075339659243184
 30
0.0
 11
64.4323511047437449
 21
60.4154439754101276
 31
0.0
  0
LINE
  5
2AAB
  8
0
 10
64.4323511047437449
 20
51.7859537377479313
 30
0.0
 11
64.4323511047437449
 21
57.589694213072363
 31
0.0
  0
LINE
  5
2AAC
  8
0
 10
77.0323511047437677
 20
58.3308496309747326
 30
0.0
 11
77.0323511047437677
 21
60.4154439754101276
 31
0.0
  0
LINE
  5
2AAD
  8
0
 10
77.0323511047437677
 20
52.1430081082185097
 30
0.0
 11
77.0323511047437677
 21
57.2326398426017491
 31
0.0
  0
LINE
  5
2AAE
  8
0
 10
77.0323511047437677
 20
51.5664896544368219
 30
0.0
 11
77.0323511047437677
 21
51.7722432531979422
 31
0.0
  0
ARC
  5
2AAF
  8
0
 10
62.2326351047437782
 20
54.8347499754101335
 30
0.0
 40
2.0
 50
90.0
 51
270.0
  0
LINE
  5
2AB0
  8
0
 10
62.2326351047437782
 20
56.8347499754101335
 30
0.0
 11
64.232635104743764
 21
56.8347499754101335
 31
0.0
  0
LINE
  5
2AB1
  8
0
 10
62.2326351047437782
 20
52.8347499754101335
 30
0.0
 11
64.232635104743764
 21
52.8347499754101335
 31
0.0
  0
LINE
  5
2AB2
  8
0
 10
79.2320681047437319
 20
56.8347499754101335
 30
0.0
 11
77.2320681047437319
 21
56.8347499754101335
 31
0.0
  0
ARC
  5
2AB3
  8
0
 10
79.2320681047437319
 20
54.8347499754101335
 30
0.0
 40
2.0
 50
270.0
 51
90.0
  0
LINE
  5
2AB4
  8
0
 10
79.2320681047437319
 20
52.8347499754101335
 30
0.0
 11
77.2320681047437319
 21
52.8347499754101335
 31
0.0
  0
LINE
  5
2AB5
  8
1
 10
46.2323515107648717
 20
54.5154439754102782
 30
0.0
 11
56.2323515107648717
 21
54.5154439754103777
 31
0.0
  0
LINE
  5
2AB6
  8
0
 10
54.2323515112243868
 20
60.515443974926832
 30
0.0
 11
53.2323515107651275
 21
59.515443976229669
 31
0.0
  0
LINE
  5
2AB7
  8
0
 10
53.2323515107653265
 20
49.5154439745898287
 30
0.0
 11
54.2323515112246497
 21
48.5154439758927083
 31
0.0
  0
LINE
  5
2AB8
  8
0
 10
52.6323515107652966
 20
49.5154439754097382
 30
0.0
 11
53.2323515107653265
 21
49.5154439754097524
 31
0.0
  0
LINE
  5
2AB9
  8
0
 10
53.232351510765163
 20
59.5154439754097382
 30
0.0
 11
52.6323515107651332
 21
59.5154439754097027
 31
0.0
  0
LINE
  5
2ABA
  8
0
 10
53.2323515107653265
 20
49.5154439754097666
 30
0.0
 11
53.2323515107651275
 21
59.5154439754097666
 31
0.0
  0
LINE
  5
2ABB
  8
0
 10
52.6323515107651332
 20
59.5154439754097027
 30
0.0
 11
52.6323515107652966
 21
49.5154439754097382
 31
0.0
  0
LINE
  5
2ABC
  8
5
 10
52.2323515112243868
 20
60.515443974926832
 30
0.0
 11
51.2323515107651275
 21
59.515443976229669
 31
0.0
  0
LINE
  5
2ABD
  8
5
 10
51.2323515107653193
 20
49.5154439745898287
 30
0.0
 11
52.2323515112246497
 21
48.5154439758927083
 31
0.0
  0
LINE
  5
2ABE
  8
5
 10
50.6323515107652966
 20
49.5154439754097382
 30
0.0
 11
51.2323515107653193
 21
49.5154439754097524
 31
0.0
  0
LINE
  5
2ABF
  8
5
 10
51.2323515107651488
 20
59.5154439754097382
 30
0.0
 11
50.6323515107651332
 21
59.5154439754097027
 31
0.0
  0
POLYLINE
  5
2AC0
  8
5
 66
     1
 10
0.0
 20
0.0
 30
0.0
 70
   128
  0
VERTEX
  5
2C54
  8
5
 10
49.2323515107648717
 20
51.1983857303428778
 30
0.0
  0
VERTEX
  5
2C55
  8
5
 10
49.9893530594773523
 20
50.7618918114405915
 30
0.0
  0
VERTEX
  5
2C56
  8
5
 10
50.6323515107652966
 20
50.446255793693247
 30
0.0
  0
SEQEND
  5
2C57
  8
5
  0
POLYLINE
  5
2AC1
  8
5
 66
     1
 10
0.0
 20
0.0
 30
0.0
 70
   128
  0
VERTEX
  5
2C58
  8
5
 10
50.6323515107651332
 20
58.5846321571262223
 30
0.0
  0
VERTEX
  5
2C59
  8
5
 10
49.9893530594772102
 20
58.268996139378892
 30
0.0
  0
VERTEX
  5
2C5A
  8
5
 10
49.2323515107648717
 20
57.8325022204765986
 30
0.0
  0
SEQEND
  5
2C5B
  8
5
  0
LINE
  5
2AC2
  8
5
 10
50.6323515107651332
 20
59.5154439754097027
 30
0.0
 11
50.6323515107651332
 21
58.5846321571262223
 31
0.0
  0
LINE
  5
2AC3
  8
5
 10
50.6323515107652966
 20
50.446255793693247
 30
0.0
 11
50.6323515107652966
 21
49.5154439754097382
 31
0.0
  0
LINE
  5
2AC4
  8
5
 10
49.2323515107648717
 20
51.1983857303428778
 30
0.0
 11
49.2323515107648717
 21
57.8325022204765986
 31
0.0
  0
LINE
  5
2AC5
  8
0
 10
51.2323515107648717
 20
51.2750736262067974
 30
0.0
 11
51.2323515107648717
 21
57.7558143246140503
 31
0.0
  0
ARC
  5
2AC6
  8
0
 10
53.9823515107652128
 20
54.5154439754104203
 30
0.0
 40
4.25
 50
108.520688505411897
 51
130.3202150699775075
  0
ARC
  5
2AC7
  8
0
 10
53.9823515107652128
 20
54.5154439754104203
 30
0.0
 40
4.25
 50
229.6797849300224073
 51
251.4793114945906041
  0
LINE
  5
2AC8
  8
5
 10
52.2323515112243868
 20
61.815443975869897
 30
0.0
 11
52.4323515112243825
 21
62.015443975869907
 31
0.0
  0
LINE
  5
2AC9
  8
5
 10
52.2323515112243868
 20
61.815443975869897
 30
0.0
 11
52.4323515112243825
 21
62.015443975869907
 31
0.0
  0
LINE
  5
2ACA
  8
5
 10
52.2323515112243868
 20
60.515443974926832
 30
0.0
 11
52.2323515112243868
 21
61.815443975869897
 31
0.0
  0
LINE
  5
2ACB
  8
5
 10
52.2323515107648717
 20
47.2154439754103734
 30
0.0
 11
52.4323515107648603
 21
47.0154439754103706
 31
0.0
  0
LINE
  5
2ACC
  8
5
 10
52.2323515112246497
 20
48.5154439758927083
 30
0.0
 11
52.2323515107648717
 21
47.2154439754103734
 31
0.0
  0
LINE
  5
2ACD
  8
5
 10
52.4323515112243825
 20
62.015443975869907
 30
0.0
 11
53.9323515112243825
 21
62.015443975869907
 31
0.0
  0
LINE
  5
2ACE
  8
5
 10
52.4323515107648603
 20
47.0154439754103706
 30
0.0
 11
53.9323515107648603
 21
47.0154439754103706
 31
0.0
  0
LINE
  5
2ACF
  8
0
 10
84.0323511047442793
 20
47.0154439754101006
 30
0.0
 11
71.4323506987226295
 21
47.0154439754101006
 31
0.0
  0
LINE
  5
2AD0
  8
0
 10
71.4323506987226295
 20
49.015443975410129
 30
0.0
 11
71.4323506987226295
 21
47.0154439754101006
 31
0.0
  0
LINE
  5
2AD1
  8
0
 10
77.0163598404564453
 20
57.7861856920619985
 30
0.0
 11
77.4887982031781632
 21
58.4648774689032535
 31
0.0
  0
LINE
  5
2AD2
  8
0
 10
76.9758137565300302
 20
58.2496295703924076
 30
0.0
 11
77.5544609442016366
 21
59.0808988308604626
 31
0.0
  0
ARC
  5
2AD3
  8
0
 10
76.7595900135798814
 20
59.0112167102918406
 30
0.0
 40
0.149024256163722
 50
5.0003648633498647
 51
184.9998890632766972
  0
ARC
  5
2AD4
  8
0
 10
76.9080085603302308
 20
57.3147814830728208
 30
0.0
 40
0.1490245531800441
 50
185.0000625388526885
 51
4.9996706835512148
  0
LINE
  5
2AD5
  8
0
 10
76.9080471047437726
 20
59.0242059754101405
 30
0.0
 11
77.0564661047437625
 21
57.3277689754101374
 31
0.0
  0
LINE
  5
2AD6
  8
0
 10
76.6111328145546935
 20
58.998228678002917
 30
0.0
 11
76.7595511047437498
 21
57.3017929754101303
 31
0.0
  0
LINE
  5
2AD7
  8
0
 10
76.6699458688311637
 20
58.3259896640240711
 30
0.0
 11
76.1444538384842957
 21
59.0808980001465116
 31
0.0
  0
LINE
  5
2AD8
  8
0
 10
76.7221488245757968
 20
57.7293047285399581
 30
0.0
 11
76.2101160064531058
 21
58.4648774672598819
 31
0.0
  0
ARC
  5
2AD9
  8
0
 10
76.0127240135799269
 20
59.0112167102918193
 30
0.0
 40
0.1490242561637349
 50
5.0003648633584517
 51
184.9998890632705013
  0
ARC
  5
2ADA
  8
0
 10
76.1611425603302052
 20
57.3147814830728208
 30
0.0
 40
0.1490245531800306
 50
185.0000625388491073
 51
4.9996706835544602
  0
LINE
  5
2ADB
  8
0
 10
76.1611811047437612
 20
59.0242059754101405
 30
0.0
 11
76.3096001047437511
 21
57.3277689754101374
 31
0.0
  0
LINE
  5
2ADC
  8
0
 10
75.8642668145546821
 20
58.998228678002917
 30
0.0
 11
76.0126851047437384
 21
57.3017929754101303
 31
0.0
  0
ARC
  5
2ADD
  8
0
 10
75.1286710999431619
 20
57.3147810302823189
 30
0.0
 40
0.149024055081727
 50
184.9999045427614135
 51
4.9998621878120417
  0
ARC
  5
2ADE
  8
0
 10
74.9802520204088268
 20
59.0112167184302905
 30
0.0
 40
0.1490242486514388
 50
5.0003619750957293
 51
184.9998924569181895
  0
LINE
  5
2ADF
  8
0
 10
75.9641358556581139
 20
57.8567156832381713
 30
0.0
 11
75.1119818434387838
 21
59.0808979957623279
 31
0.0
  0
LINE
  5
2AE0
  8
0
 10
76.0294129918217294
 20
57.2450990733048428
 30
0.0
 11
75.1772585330572554
 21
58.4692834485105024
 31
0.0
  0
LINE
  5
2AE1
  8
0
 10
75.1287091047437769
 20
59.0242059754101405
 30
0.0
 11
75.2771281047437668
 21
57.3277689754101374
 31
0.0
  0
LINE
  5
2AE2
  8
0
 10
74.8317948296366211
 20
58.9982286780029384
 30
0.0
 11
74.9802141047437516
 21
57.3017929754101303
 31
0.0
  0
ARC
  5
2AE3
  8
0
 10
74.0961990999431777
 20
57.3147810302822975
 30
0.0
 40
0.1490240550817282
 50
184.9999045427560134
 51
4.999862187817314
  0
ARC
  5
2AE4
  8
0
 10
73.947780560023574
 20
59.0112162656391206
 30
0.0
 40
0.1490247467512201
 50
5.0005199697654072
 51
184.9997009524977898
  0
LINE
  5
2AE5
  8
0
 10
74.9316646309186893
 20
57.8567145695189566
 30
0.0
 11
74.079513439851354
 21
59.0808928292494571
 31
0.0
  0
LINE
  5
2AE6
  8
0
 10
74.9969414615876957
 20
57.2450998178091695
 30
0.0
 11
74.1447873028575231
 21
58.4692823408069486
 31
0.0
  0
LINE
  5
2AE7
  8
0
 10
74.0962381047437333
 20
59.0242059754101405
 30
0.0
 11
74.2446561047437257
 21
57.3277689754101374
 31
0.0
  0
LINE
  5
2AE8
  8
0
 10
73.7993228296365658
 20
58.998228678002917
 30
0.0
 11
73.9477421047437673
 21
57.3017929754101303
 31
0.0
  0
ARC
  5
2AE9
  8
0
 10
73.0637275527343348
 20
57.3147815698967804
 30
0.0
 40
0.1490245531803458
 50
185.0000960477443925
 51
4.999637174659199
  0
ARC
  5
2AEA
  8
0
 10
72.9153085600236608
 20
59.0112162656390922
 30
0.0
 40
0.1490247467512602
 50
5.0005199697776437
 51
184.9997009524851137
  0
LINE
  5
2AEB
  8
0
 10
73.8991924871670989
 20
57.8567162126027981
 30
0.0
 11
73.0470382752857716
 21
59.0808988119562102
 31
0.0
  0
LINE
  5
2AEC
  8
0
 10
73.9644694615875977
 20
57.2450998178093116
 30
0.0
 11
73.1123156769914289
 21
58.4692818033359529
 31
0.0
  0
LINE
  5
2AED
  8
0
 10
73.063766104743749
 20
59.0242059754101405
 30
0.0
 11
73.2121851047437247
 21
57.3277689754101374
 31
0.0
  0
LINE
  5
2AEE
  8
0
 10
72.7668508296365957
 20
58.998228678002917
 30
0.0
 11
72.9152701047437262
 21
57.3017929754101303
 31
0.0
  0
ARC
  5
2AEF
  8
0
 10
72.0312555603302229
 20
57.3147814830728208
 30
0.0
 40
0.1490245531800447
 50
185.0000625388495052
 51
4.9996706835536493
  0
ARC
  5
2AF0
  8
0
 10
71.8828370135799304
 20
59.0112167102918406
 30
0.0
 40
0.1490242561637226
 50
5.000364863347432
 51
184.9998890632791131
  0
LINE
  5
2AF1
  8
0
 10
72.8667204871671146
 20
57.8567162126028123
 30
0.0
 11
72.0145668324623074
 21
59.0808980115308913
 31
0.0
  0
LINE
  5
2AF2
  8
0
 10
72.9319981894211935
 20
57.2450987722224198
 30
0.0
 11
72.0798436769913877
 21
58.4692818033359316
 31
0.0
  0
LINE
  5
2AF3
  8
0
 10
72.0312941047437647
 20
59.0242059754101405
 30
0.0
 11
72.1797131047437546
 21
57.3277689754101374
 31
0.0
  0
LINE
  5
2AF4
  8
0
 10
71.7343798145546856
 20
58.998228678002917
 30
0.0
 11
71.8827981047437419
 21
57.3017929754101303
 31
0.0
  0
ARC
  5
2AF5
  8
0
 10
70.9987835603301818
 20
57.3147814830728421
 30
0.0
 40
0.1490245531800564
 50
185.0000625388609024
 51
4.9996706835426279
  0
ARC
  5
2AF6
  8
0
 10
70.8503650135798893
 20
59.0112167102918406
 30
0.0
 40
0.1490242561636937
 50
5.0003648633527753
 51
184.9998890632774931
  0
LINE
  5
2AF7
  8
0
 10
71.8342488556581173
 20
57.8567156832381571
 30
0.0
 11
70.9820948324620389
 21
59.0808980115312394
 31
0.0
  0
LINE
  5
2AF8
  8
0
 10
71.8995260297548811
 20
57.2450990015948875
 30
0.0
 11
71.0473716769914034
 21
58.4692818033359529
 31
0.0
  0
LINE
  5
2AF9
  8
0
 10
70.9988221047437236
 20
59.0242059754101405
 30
0.0
 11
71.1472411047437703
 21
57.3277689754101374
 31
0.0
  0
LINE
  5
2AFA
  8
0
 10
70.7019078145547013
 20
58.998228678002917
 30
0.0
 11
70.8503261047437434
 21
57.3017929754101303
 31
0.0
  0
ARC
  5
2AFB
  8
0
 10
69.9663120999431811
 20
57.3147810302822975
 30
0.0
 40
0.1490240550817288
 50
184.9999045427531996
 51
4.9998621878201526
  0
ARC
  5
2AFC
  8
0
 10
69.8178930204088459
 20
59.0112167184302905
 30
0.0
 40
0.1490242486514412
 50
5.0003619750920789
 51
184.9998924569293024
  0
LINE
  5
2AFD
  8
0
 10
70.8017768556581331
 20
57.8567156832381713
 30
0.0
 11
69.949622843438803
 21
59.0808979957623421
 31
0.0
  0
LINE
  5
2AFE
  8
0
 10
70.8670508651827475
 20
57.2451049843110695
 30
0.0
 11
70.0148995332402677
 21
58.4692834464191193
 31
0.0
  0
LINE
  5
2AFF
  8
0
 10
69.9663501047437393
 20
59.0242059754101405
 30
0.0
 11
70.1147691047437291
 21
57.3277689754101374
 31
0.0
  0
LINE
  5
2B00
  8
0
 10
69.6694358296365834
 20
58.998228678002917
 30
0.0
 11
69.8178551047437708
 21
57.3017929754101303
 31
0.0
  0
ARC
  5
2B01
  8
0
 10
68.9338405527342815
 20
57.3147815698967875
 30
0.0
 40
0.1490245531803593
 50
185.0000960477476895
 51
4.9996371746559554
  0
ARC
  5
2B02
  8
0
 10
68.7854215600235932
 20
59.0112162656391206
 30
0.0
 40
0.1490247467512349
 50
5.0005199697662182
 51
184.9997009524998077
  0
LINE
  5
2B03
  8
0
 10
69.7693056309186517
 20
57.8567145695189922
 30
0.0
 11
68.9171544398516147
 21
59.0808928292491302
 31
0.0
  0
LINE
  5
2B04
  8
0
 10
69.8345824615875443
 20
57.2450998178093968
 30
0.0
 11
68.9824286769914323
 21
58.4692818033359529
 31
0.0
  0
LINE
  5
2B05
  8
0
 10
68.9338791047437525
 20
59.0242059754101405
 30
0.0
 11
69.0822981047437423
 21
57.3277689754101374
 31
0.0
  0
LINE
  5
2B06
  8
0
 10
68.6369638296365849
 20
58.998228678002917
 30
0.0
 11
68.7853831047437296
 21
57.3017929754101303
 31
0.0
  0
ARC
  5
2B07
  8
0
 10
67.9013685527342972
 20
57.3147815698967733
 30
0.0
 40
0.1490245531803747
 50
185.0000960477428009
 51
4.9996371746608208
  0
ARC
  5
2B08
  8
0
 10
67.7529495600236231
 20
59.0112162656391135
 30
0.0
 40
0.1490247467512485
 50
5.0005199697715614
 51
184.9997009524965108
  0
LINE
  5
2B09
  8
0
 10
68.7368334871671181
 20
57.8567162126028123
 30
0.0
 11
67.884679275285734
 21
59.080898811956267
 31
0.0
  0
LINE
  5
2B0A
  8
0
 10
68.8021111894210975
 20
57.2450987722225619
 30
0.0
 11
67.9499566769913912
 21
58.4692818033359529
 31
0.0
  0
LINE
  5
2B0B
  8
0
 10
67.9014071047437682
 20
59.0242059754101405
 30
0.0
 11
68.0498261047437438
 21
57.3277689754101374
 31
0.0
  0
LINE
  5
2B0C
  8
0
 10
67.6044918296366149
 20
58.998228678002917
 30
0.0
 11
67.7529111047437453
 21
57.3017929754101303
 31
0.0
  0
ARC
  5
2B0D
  8
0
 10
66.8688965603302989
 20
57.3147814830715987
 30
0.0
 40
0.1490245531800374
 50
185.0000625383808028
 51
4.9996706840227816
  0
ARC
  5
2B0E
  8
0
 10
66.7204780135798927
 20
59.0112167102918406
 30
0.0
 40
0.1490242561637085
 50
5.000364863347027
 51
184.9998890632795963
  0
LINE
  5
2B0F
  8
0
 10
67.7043614871671338
 20
57.8567162126027767
 30
0.0
 11
66.8522078324622129
 21
59.0808980115310405
 31
0.0
  0
LINE
  5
2B10
  8
0
 10
67.7696391894209427
 20
57.2450987722227893
 30
0.0
 11
66.9174846769914069
 21
58.4692818033359529
 31
0.0
  0
LINE
  5
2B11
  8
0
 10
66.868935104743727
 20
59.0242059754101405
 30
0.0
 11
67.0173541047437737
 21
57.3277689754101374
 31
0.0
  0
LINE
  5
2B12
  8
0
 10
66.5720208145547048
 20
58.998228678002917
 30
0.0
 11
66.720439104743761
 21
57.3017929754101303
 31
0.0
  0
ARC
  5
2B13
  8
0
 10
65.836424560330201
 20
57.3147814830728493
 30
0.0
 40
0.1490245531800416
 50
185.0000625388630056
 51
4.9996706835401241
  0
ARC
  5
2B14
  8
0
 10
65.6880060135799084
 20
59.0112167102918477
 30
0.0
 40
0.1490242561637097
 50
5.0003648633445916
 51
184.999889063285309
  0
LINE
  5
2B15
  8
0
 10
66.6718898556581365
 20
57.8567156832381713
 30
0.0
 11
65.8197358324621717
 21
59.0808980115310618
 31
0.0
  0
LINE
  5
2B16
  8
0
 10
66.7371670297526833
 20
57.2450990015981134
 30
0.0
 11
65.8850126769913658
 21
58.4692818033359671
 31
0.0
  0
LINE
  5
2B17
  8
0
 10
65.8364631047437427
 20
59.0242059754101405
 30
0.0
 11
65.9848821047437326
 21
57.3277689754101374
 31
0.0
  0
LINE
  5
2B18
  8
0
 10
65.5395488145547205
 20
58.998228678002917
 30
0.0
 11
65.6879671047437199
 21
57.3017929754101303
 31
0.0
  0
ARC
  5
2B19
  8
0
 10
64.8039530999431435
 20
57.3147810302822975
 30
0.0
 40
0.1490240550817572
 50
184.9999045427543933
 51
4.9998621878189358
  0
ARC
  5
2B1A
  8
0
 10
64.6555340204088083
 20
59.0112167184302976
 30
0.0
 40
0.1490242486513994
 50
5.0003619750875474
 51
184.9998924569333951
  0
LINE
  5
2B1B
  8
0
 10
65.6394178556580954
 20
57.8567156832381713
 30
0.0
 11
64.7872638434385379
 21
59.0808979957627116
 31
0.0
  0
LINE
  5
2B1C
  8
0
 10
65.7046918651828236
 20
57.2451049843109701
 30
0.0
 11
64.85254053324023
 21
58.4692834464191407
 31
0.0
  0
LINE
  5
2B1D
  8
0
 10
64.8039911047437585
 20
59.0242059754101405
 30
0.0
 11
64.9524101047437483
 21
57.3277689754101374
 31
0.0
  0
LINE
  5
2B1E
  8
0
 10
64.5070768296366026
 20
58.998228678002917
 30
0.0
 11
64.6554961047437331
 21
57.3017929754101303
 31
0.0
  0
ARC
  5
2B1F
  8
0
 10
63.6230625600236195
 20
59.0112162656391135
 30
0.0
 40
0.1490247467512266
 50
5.0005199697694618
 51
184.9997009524944929
  0
LINE
  5
2B20
  8
0
 10
64.6069466309186708
 20
57.8567145695189708
 30
0.0
 11
63.7547954398515202
 21
59.0808928292492723
 31
0.0
  0
LINE
  5
2B21
  8
0
 10
64.672223461587393
 20
57.2450998178095887
 30
0.0
 11
63.8200696769913876
 21
58.4692818033359671
 31
0.0
  0
LINE
  5
2B22
  8
0
 10
63.7715201047437716
 20
59.0242059754101405
 30
0.0
 11
63.9193283464078803
 21
57.3347499754101335
 31
0.0
  0
LINE
  5
2B23
  8
0
 10
63.4746048296366112
 20
58.998228678002917
 30
0.0
 11
63.6201407334245204
 21
57.3347499754101335
 31
0.0
  0
ARC
  5
2B24
  8
0
 10
62.5905905600236423
 20
59.0112162656391135
 30
0.0
 40
0.1490247467512414
 50
5.0005199697690559
 51
184.9997009524969087
  0
LINE
  5
2B25
  8
0
 10
63.5744744871671372
 20
57.8567162126027696
 30
0.0
 11
62.7223202752856395
 21
59.080898811956402
 31
0.0
  0
LINE
  5
2B26
  8
0
 10
63.5773459352913406
 20
57.3347499754101335
 30
0.0
 11
62.7875976769914104
 21
58.4692818033359671
 31
0.0
  0
LINE
  5
2B27
  8
0
 10
62.7390481047437305
 20
59.0242059754101405
 30
0.0
 11
62.8874671047437204
 21
57.3277689754101374
 31
0.0
  0
LINE
  5
2B28
  8
0
 10
62.4421328296365772
 20
58.998228678002917
 30
0.0
 11
62.5876687334245929
 21
57.3347499754101335
 31
0.0
  0
LINE
  5
2B29
  8
0
 10
81.1849490931001441
 20
56.3956009757673726
 30
0.0
 11
82.6915973330281844
 21
56.2129230199081533
 31
0.0
  0
LINE
  5
2B2A
  8
0
 10
81.4064233206751595
 20
56.0685163207737176
 30
0.0
 11
81.9903951566071072
 21
55.9977109715400374
 31
0.0
  0
LINE
  5
2B2B
  8
0
 10
80.4001419343807981
 20
57.136881064048481
 30
0.0
 11
82.0121305056554064
 21
57.4527534478801769
 31
0.0
  0
LINE
  5
2B2C
  8
0
 10
80.6630702919799063
 20
56.8846847890384595
 30
0.0
 11
81.4117447303862463
 21
57.0313891316224968
 31
0.0
  0
LINE
  5
2B2D
  8
0
 10
79.6691092566978654
 20
57.5775982909047102
 30
0.0
 11
80.9821398027742561
 21
58.421548629481741
 31
0.0
  0
LINE
  5
2B2E
  8
0
 10
79.7561049607663648
 20
57.2792101148949087
 30
0.0
 11
80.4720308876721049
 21
57.7393708321566521
 31
0.0
  0
LINE
  5
2B2F
  8
0
 10
78.7579100901090641
 20
57.7499495348938368
 30
0.0
 11
79.8119650877752491
 21
58.9406676890541803
 31
0.0
  0
LINE
  5
2B30
  8
0
 10
78.7884161745634373
 20
57.3347499754101335
 30
0.0
 11
79.5634814216505077
 21
58.2103063174723374
 31
0.0
  0
LINE
  5
2B31
  8
0
 10
77.7347787223203994
 20
57.8567162126027625
 30
0.0
 11
78.5869330978117944
 21
59.0808990469941193
 31
0.0
  0
LINE
  5
2B32
  8
0
 10
77.7332363341888453
 20
57.3347499754101335
 30
0.0
 11
78.521464465555411
 21
58.4670980284808124
 31
0.0
  0
ARC
  5
2B33
  8
0
 10
77.6861906494639101
 20
59.0112162656394119
 30
0.0
 40
0.1490247467512226
 50
355.0002990473922182
 51
174.9994800303429088
  0
ARC
  5
2B34
  8
0
 10
78.7186626443211566
 20
59.0112161758893521
 30
0.0
 40
0.1490247494511012
 50
355.0003337763384934
 51
174.9994454829871984
  0
ARC
  5
2B35
  8
0
 10
79.9255846713262912
 20
58.8458471803284695
 30
0.0
 40
0.1479876300280172
 50
341.9997914546078164
 51
161.9999582953130925
  0
LINE
  5
2B36
  8
0
 10
79.5821972452203426
 20
57.3101104713761487
 30
0.0
 11
80.0663291047437582
 21
58.8001159754101508
 31
0.0
  0
LINE
  5
2B37
  8
0
 10
79.278853534316724
 20
57.3343121617899172
 30
0.0
 11
79.7848401047437363
 21
58.8915779754101365
 31
0.0
  0
ARC
  5
2B38
  8
0
 10
81.0584719800904594
 20
58.2947664920302131
 30
0.0
 40
0.1479876553150878
 50
323.999734251121879
 51
144.0002287221734889
  0
LINE
  5
2B39
  8
0
 10
80.3515997670668725
 20
57.0700684889683316
 30
0.0
 11
81.1781961047437761
 21
58.207780975410131
 31
0.0
  0
LINE
  5
2B3A
  8
0
 10
80.0723773462155179
 20
57.1892945977728289
 30
0.0
 11
80.9387471047437401
 21
58.3817509754101422
 31
0.0
  0
ARC
  5
2B3B
  8
0
 10
82.0448176213641176
 20
57.3084208507570665
 30
0.0
 40
0.1479876553150941
 50
305.9997712776810772
 51
126.0002657490271929
  0
LINE
  5
2B3C
  8
0
 10
81.130595902517527
 20
56.4612776269058614
 30
0.0
 11
82.1318021047437554
 21
57.1886959754101412
 31
0.0
  0
LINE
  5
2B3D
  8
0
 10
80.9229109577960202
 20
56.6762304793205018
 30
0.0
 11
81.9578321047437584
 21
57.4281449754101274
 31
0.0
  0
ARC
  5
2B3E
  8
0
 10
82.6780895043558388
 20
56.0655534427922291
 30
0.0
 40
0.1479874755190892
 50
287.9999818835984229
 51
107.9999001496072992
  0
LINE
  5
2B3F
  8
0
 10
81.6224413846803145
 20
55.5669491167408793
 30
0.0
 11
82.7238201047437514
 21
55.9248089754101372
 31
0.0
  0
LINE
  5
2B40
  8
0
 10
81.5190489683773052
 20
55.8445611109071933
 30
0.0
 11
82.632359104743756
 21
56.2062979754101306
 31
0.0
  0
LINE
  5
2B41
  8
0
 10
78.8671203852698994
 20
58.998228678002917
 30
0.0
 11
78.721584828494187
 21
57.3347499754101335
 31
0.0
  0
LINE
  5
2B42
  8
0
 10
78.5702051047437493
 20
59.0242059754101405
 30
0.0
 11
78.4223968284941151
 21
57.3347499754101335
 31
0.0
  0
LINE
  5
2B43
  8
0
 10
77.8346483798508615
 20
58.9982286780029312
 30
0.0
 11
77.6891124760629594
 21
57.3347499754101335
 31
0.0
  0
LINE
  5
2B44
  8
0
 10
77.537733104743765
 20
59.0242059754101405
 30
0.0
 11
77.3899248630795995
 21
57.3347499754101335
 31
0.0
  0
LINE
  5
2B45
  8
0
 10
59.945582981673887
 20
55.8443997099029872
 30
0.0
 11
58.8317761047437529
 21
56.2062979754101306
 31
0.0
  0
LINE
  5
2B46
  8
0
 10
59.8422104165584727
 20
55.56678126580303
 30
0.0
 11
58.7403151047437717
 21
55.9248089754101372
 31
0.0
  0
ARC
  5
2B47
  8
0
 10
58.7860457051325866
 20
56.065553442791952
 30
0.0
 40
0.1479874755190884
 50
72.0000998507581613
 51
252.000018116031697
  0
LINE
  5
2B48
  8
0
 10
60.5415417378879823
 20
56.676000426754662
 30
0.0
 11
59.5063031047437718
 21
57.4281449754101274
 31
0.0
  0
LINE
  5
2B49
  8
0
 10
60.3338894127809198
 20
56.4610232603325812
 30
0.0
 11
59.3323331047437676
 21
57.1886959754101412
 31
0.0
  0
ARC
  5
2B4A
  8
0
 10
59.4193175881236897
 20
57.3084208507568604
 30
0.0
 40
0.1479876553150951
 50
53.9997342511126206
 51
234.0002287221790027
  0
LINE
  5
2B4B
  8
0
 10
61.3918748451037928
 20
57.1891335859991514
 30
0.0
 11
60.5253881047437829
 21
58.3817509754101422
 31
0.0
  0
LINE
  5
2B4C
  8
0
 10
61.112687009275227
 20
57.0698598750473707
 30
0.0
 11
60.2859391047437398
 21
58.207780975410131
 31
0.0
  0
ARC
  5
2B4D
  8
0
 10
60.4056632293968292
 20
58.2947664920305186
 30
0.0
 40
0.1479876553150925
 50
35.9997712776740784
 51
216.0002657490317119
  0
LINE
  5
2B4E
  8
0
 10
61.881963744177007
 20
57.3100337160908424
 30
0.0
 11
61.3978061047437578
 21
58.8001159754101508
 31
0.0
  0
ARC
  5
2B4F
  8
0
 10
61.5385505381612319
 20
58.8458471803284908
 30
0.0
 40
0.1479876300279689
 50
18.0000417046824701
 51
198.000208545395509
  0
LINE
  5
2B50
  8
0
 10
61.7081723574407803
 20
57.2791187746487935
 30
0.0
 11
60.9921043218153969
 21
57.7393708321566592
 31
0.0
  0
LINE
  5
2B51
  8
0
 10
61.7950268245188923
 20
57.5775977306007221
 30
0.0
 11
60.4892975027894835
 21
58.4168552074784984
 31
0.0
  0
LINE
  5
2B52
  8
0
 10
60.8015084296180106
 20
56.8845978819006604
 30
0.0
 11
60.0523910902606772
 21
57.031389011864519
 31
0.0
  0
LINE
  5
2B53
  8
0
 10
61.0639932751067107
 20
57.1368810640484668
 30
0.0
 11
59.4520047038276189
 21
57.4527534478810509
 31
0.0
  0
LINE
  5
2B54
  8
0
 10
60.0583218550043867
 20
56.0685902778836223
 30
0.0
 11
59.473740052880359
 21
55.9977109715400374
 31
0.0
  0
LINE
  5
2B55
  8
0
 10
60.2798150694555233
 20
56.3956772350147517
 30
0.0
 11
58.7725423708765078
 21
56.2129235648468679
 31
0.0
  0
LINE
  5
2B56
  8
0
 10
62.1852851292753002
 20
57.3343015311543098
 30
0.0
 11
61.6792951047437228
 21
58.8915779754101365
 31
0.0
  0
LINE
  5
2B57
  8
0
 10
61.9236380614836293
 20
58.139568029753363
 30
0.0
 11
62.5643165585673131
 21
57.3347499754101335
 31
0.0
  0
LINE
  5
2B58
  8
0
 10
61.6792951047437228
 20
58.8915779754101365
 30
0.0
 11
62.5500722353793179
 21
57.7644788063206605
 31
0.0
  0
LINE
  5
2B9E
  8
1
 10
70.2323511047442963
 20
110.7388950308224054
 30
0.0
 11
70.2323511047442963
 21
94.2388950308224054
 31
0.0
  0
LINE
  5
2B9F
  8
1
 10
71.2323511047442963
 20
94.2388950308224054
 30
0.0
 11
71.2323511047442963
 21
110.7388950308224054
 31
0.0
  0
ENDSEC
  0
EOF
