  0
SECTION
  2
HEADER
  9
$ACADVER
  1
AC1009
  9
$INSBASE
 10
0.0
 20
0.0
 30
0.0
  9
$EXTMIN
 10
0.0
 20
-2.960436562073669
 30
0.0
  9
$EXTMAX
 10
135.4143772085103024
 20
121.5072510308224025
 30
0.0
  9
$LIMMIN
 10
0.0
 20
0.0
  9
$LIMMAX
 10
192.5
 20
135.0
  9
$ORTHOMODE
 70
     1
  9
$REGENMODE
 70
     1
  9
$FILLMODE
 70
     1
  9
$QTEXTMODE
 70
     0
  9
$MIRRTEXT
 70
     0
  9
$DRAGMODE
 70
     2
  9
$LTSCALE
 40
5.0
  9
$OSMODE
 70
    37
  9
$ATTMODE
 70
     1
  9
$TEXTSIZE
 40
0.2
  9
$TRACEWID
 40
0.05
  9
$TEXTSTYLE
  7
STANDARD
  9
$CLAYER
  8
0
  9
$CELTYPE
  6
BYLAYER
  9
$CECOLOR
 62
   256
  9
$DIMSCALE
 40
0.5
  9
$DIMASZ
 40
3.0
  9
$DIMEXO
 40
1.0
  9
$DIMDLI
 40
6.0
  9
$DIMRND
 40
0.0
  9
$DIMDLE
 40
0.0
  9
$DIMEXE
 40
1.0
  9
$DIMTP
 40
495.0
  9
$DIMTM
 40
0.0
  9
$DIMTXT
 40
3.0
  9
$DIMCEN
 40
0.0
  9
$DIMTSZ
 40
0.0
  9
$DIMTOL
 70
     0
  9
$DIMLIM
 70
     0
  9
$DIMTIH
 70
     0
  9
$DIMTOH
 70
     0
  9
$DIMSE1
 70
     0
  9
$DIMSE2
 70
     0
  9
$DIMTAD
 70
     1
  9
$DIMZIN
 70
     0
  9
$DIMBLK
  1

  9
$DIMASO
 70
     0
  9
$DIMSHO
 70
     0
  9
$DIMPOST
  1

  9
$DIMAPOST
  1

  9
$DIMALT
 70
     0
  9
$DIMALTD
 70
     2
  9
$DIMALTF
 40
25.3999999999999986
  9
$DIMLFAC
 40
1.0
  9
$DIMTOFL
 70
     1
  9
$DIMTVP
 40
0.0
  9
$DIMTIX
 70
     1
  9
$DIMSOXD
 70
     0
  9
$DIMSAH
 70
     0
  9
$DIMBLK1
  1

  9
$DIMBLK2
  1

  9
$DIMSTYLE
  2
STANDARD
  9
$DIMCLRD
 70
     0
  9
$DIMCLRE
 70
     0
  9
$DIMCLRT
 70
     4
  9
$DIMTFAC
 40
1.0
  9
$DIMGAP
 40
1.0
  9
$LUNITS
 70
     2
  9
$LUPREC
 70
     1
  9
$SKETCHINC
 40
0.1
  9
$FILLETRAD
 40
0.0
  9
$AUNITS
 70
     0
  9
$AUPREC
 70
     0
  9
$MENU
  1
C:\R13\WIN\SUPPORT\ACAD-I
  9
$ELEVATION
 40
0.0
  9
$PELEVATION
 40
0.0
  9
$THICKNESS
 40
0.0
  9
$LIMCHECK
 70
     0
  9
$BLIPMODE
 70
     0
  9
$CHAMFERA
 40
0.0
  9
$CHAMFERB
 40
0.0
  9
$SKPOLY
 70
     0
  9
$TDCREATE
 40
2450647.4584953710436821
  9
$TDUPDATE
 40
2460571.6583796301856637
  9
$TDINDWG
 40
0.020513912
  9
$TDUSRTIMER
 40
0.020513912
  9
$USRTIMER
 70
     1
  9
$ANGBASE
 50
0.0
  9
$ANGDIR
 70
     0
  9
$PDMODE
 70
     0
  9
$PDSIZE
 40
0.0
  9
$PLINEWID
 40
0.0
  9
$COORDS
 70
     1
  9
$SPLFRAME
 70
     0
  9
$SPLINETYPE
 70
     6
  9
$SPLINESEGS
 70
     8
  9
$ATTDIA
 70
     1
  9
$ATTREQ
 70
     1
  9
$HANDLING
 70
     1
  9
$HANDSEED
  5
21A8
  9
$SURFTAB1
 70
     6
  9
$SURFTAB2
 70
     6
  9
$SURFTYPE
 70
     6
  9
$SURFU
 70
     6
  9
$SURFV
 70
     6
  9
$UCSNAME
  2

  9
$UCSORG
 10
0.0
 20
0.0
 30
0.0
  9
$UCSXDIR
 10
1.0
 20
0.0
 30
0.0
  9
$UCSYDIR
 10
0.0
 20
1.0
 30
0.0
  9
$PUCSNAME
  2

  9
$PUCSORG
 10
0.0
 20
0.0
 30
0.0
  9
$PUCSXDIR
 10
1.0
 20
0.0
 30
0.0
  9
$PUCSYDIR
 10
0.0
 20
1.0
 30
0.0
  9
$USERI1
 70
     3
  9
$USERI2
 70
     1
  9
$USERI3
 70
     0
  9
$USERI4
 70
     0
  9
$USERI5
 70
     0
  9
$USERR1
 40
0.5
  9
$USERR2
 40
3.0
  9
$USERR3
 40
3.0
  9
$USERR4
 40
3.0
  9
$USERR5
 40
10.0
  9
$WORLDVIEW
 70
     1
  9
$SHADEDGE
 70
     3
  9
$SHADEDIF
 70
    70
  9
$TILEMODE
 70
     1
  9
$MAXACTVP
 70
    16
  9
$PLIMCHECK
 70
     0
  9
$PEXTMIN
 10
1.0000000000000000E+20
 20
1.0000000000000000E+20
 30
1.0000000000000000E+20
  9
$PEXTMAX
 10
-1.0000000000000000E+20
 20
-1.0000000000000000E+20
 30
-1.0000000000000000E+20
  9
$PLIMMIN
 10
0.0
 20
0.0
  9
$PLIMMAX
 10
12.0
 20
9.0
  9
$UNITMODE
 70
     0
  9
$VISRETAIN
 70
     0
  9
$PLINEGEN
 70
     0
  9
$PSLTSCALE
 70
     0
  0
ENDSEC
  0
SECTION
  2
TABLES
  0
TABLE
  2
VPORT
 70
     1
  0
VPORT
  2
*ACTIVE
 70
     0
 10
0.0
 20
0.0
 11
1.0
 21
1.0
 12
234.8522167487685124
 22
100.0
 13
0.0
 23
0.0
 14
2.5
 24
2.5
 15
10.0
 25
10.0
 16
0.0
 26
0.0
 36
1.0
 17
0.0
 27
0.0
 37
0.0
 40
200.0
 41
2.3485221674876842
 42
50.0
 43
0.0
 44
0.0
 50
0.0
 51
0.0
 71
     0
 72
   100
 73
     1
 74
     0
 75
     0
 76
     0
 77
     0
 78
     0
  0
ENDTAB
  0
TABLE
  2
LTYPE
 70
     3
  0
LTYPE
  2
CONTINUOUS
 70
     0
  3
Solid Line
 72
    65
 73
     0
 40
0.0
  0
LTYPE
  2
CENTER
 70
     0
  3
____ _ ____ _ ____ _ ____ _ ____ _ ____ _ ____
 72
    65
 73
     4
 40
2.0
 49
1.25
 49
-0.25
 49
0.25
 49
-0.25
  0
LTYPE
  2
PHANTOM
 70
     0
  3
_____ _ _ _____ _ _ _____ _ _ _____ _ _ ____
 72
    65
 73
     6
 40
2.5
 49
1.25
 49
-0.25
 49
0.25
 49
-0.25
 49
0.25
 49
-0.25
  0
ENDTAB
  0
TABLE
  2
LAYER
 70
     3
  0
LAYER
  2
0
 70
     0
 62
     7
  6
CONTINUOUS
  0
LAYER
  2
1
 70
     0
 62
     1
  6
CENTER
  0
LAYER
  2
5
 70
     0
 62
     3
  6
PHANTOM
  0
ENDTAB
  0
TABLE
  2
STYLE
 70
     2
  0
STYLE
  2
STANDARD
 70
     0
 40
0.0
 41
1.0
 50
0.0
 71
     0
 42
0.2
  3
SIMPLEX
  4
BIGFONT
  0
STYLE
  2
STANDARD1
 70
     0
 40
0.0
 41
1.0
 50
0.0
 71
     0
 42
3.0
  3
txt
  4

  0
ENDTAB
  0
TABLE
  2
VIEW
 70
     0
  0
ENDTAB
  0
TABLE
  2
UCS
 70
     0
  0
ENDTAB
  0
TABLE
  2
APPID
 70
    10
  0
APPID
  2
ACAD
 70
     0
  0
APPID
  2
ACAD_MLEADERVER
 70
     0
  0
APPID
  2
ACAD_TC
 70
     0
  0
APPID
  2
ACAD_EXEMPT_FROM_CAD_STANDARDS
 70
     0
  0
APPID
  2
ACAD_NAV_VCDISPLAY
 70
     0
  0
APPID
  2
GRADIENTCOLOR1ACI
 70
     0
  0
APPID
  2
GRADIENTCOLOR2ACI
 70
     0
  0
APPID
  2
ACAD_PSEXT
 70
     0
  0
APPID
  2
ACAD_DSTYLE_DIMJAG
 70
     0
  0
APPID
  2
ACAD_DSTYLE_DIMTALN
 70
     0
  0
ENDTAB
  0
TABLE
  2
DIMSTYLE
 70
     1
  0
DIMSTYLE
  2
STANDARD
 70
     0
  3

  4

  5

  6

  7

 40
1.0
 41
0.18
 42
0.0625
 43
0.38
 44
0.18
 45
0.0
 46
0.0
 47
0.0
 48
0.0
140
0.18
141
0.09
142
0.0
143
25.3999999999999986
144
1.0
145
0.0
146
1.0
147
0.09
 71
     0
 72
     0
 73
     1
 74
     1
 75
     0
 76
     0
 77
     0
 78
     0
170
     0
171
     2
172
     0
173
     0
174
     0
175
     0
176
     0
177
     0
178
     0
  0
ENDTAB
  0
ENDSEC
  0
SECTION
  2
BLOCKS
  0
BLOCK
  8
0
  2
$MODEL_SPACE
 70
     0
 10
0.0
 20
0.0
 30
0.0
  3
$MODEL_SPACE
  1

  0
ENDBLK
  5
793
  8
0
  0
BLOCK
 67
     1
  8
0
  2
$PAPER_SPACE
 70
     0
 10
0.0
 20
0.0
 30
0.0
  3
$PAPER_SPACE
  1

  0
ENDBLK
  5
791
 67
     1
  8
0
  0
BLOCK
  8
0
  2
STDGX5
 70
     0
 10
0.0
 20
0.0
 30
0.0
  3
STDGX5
  1

  0
ENDBLK
  5
4F
  8
0
  0
ENDSEC
  0
SECTION
  2
ENTITIES
  0
INSERT
  5
DE
  8
0
  2
STDGX5
 10
0.0
 20
0.0
 30
0.0
  0
INSERT
  5
DF
  8
0
  2
STDGX5
 10
0.0
 20
0.0
 30
0.0
  0
INSERT
  5
15C
  8
0
  2
STDGX5
 10
275.0
 20
0.0
 30
0.0
  0
INSERT
  5
15D
  8
0
  2
STDGX5
 10
275.0
 20
0.0
 30
0.0
  0
LINE
  5
4CD
  8
0
 10
57.2323511047443034
 20
61.815443975410119
 30
0.0
 11
57.2323511047443034
 21
47.2154439754101176
 31
0.0
  0
LINE
  5
4CE
  8
5
 10
55.2323511047443034
 20
61.815443975410119
 30
0.0
 11
55.2323511047443034
 21
47.2154439754101176
 31
0.0
  0
LINE
  5
4CF
  8
5
 10
57.2323511047443034
 20
62.0154439754101219
 30
0.0
 11
55.4323511047442992
 21
62.0154439754101219
 31
0.0
  0
LINE
  5
4D0
  8
5
 10
57.2323511047443034
 20
47.0154439754101219
 30
0.0
 11
55.4323511047442992
 21
47.0154439754101219
 31
0.0
  0
LINE
  5
4D1
  8
0
 10
57.2323511047443034
 20
47.2154439754101176
 30
0.0
 11
57.4323511047442921
 21
47.0154439754101219
 31
0.0
  0
LINE
  5
4D2
  8
5
 10
55.4323511047442992
 20
47.0154439754101219
 30
0.0
 11
55.2323511047443034
 21
47.2154439754101176
 31
0.0
  0
LINE
  5
4D3
  8
5
 10
55.2323511047443034
 20
61.815443975410119
 30
0.0
 11
55.4323511047442992
 21
62.0154439754101219
 31
0.0
  0
LINE
  5
4D4
  8
0
 10
57.2323511047443034
 20
61.815443975410119
 30
0.0
 11
57.4323511047442921
 21
62.0154439754101219
 31
0.0
  0
LINE
  5
4D5
  8
0
 10
84.2323511047442963
 20
61.815443975410119
 30
0.0
 11
84.0323511047443077
 21
62.0154439754101219
 31
0.0
  0
LINE
  5
4D6
  8
5
 10
86.2323511047442963
 20
61.815443975410119
 30
0.0
 11
86.0323511047443077
 21
62.0154439754101219
 31
0.0
  0
LINE
  5
4D7
  8
5
 10
86.0323511047443077
 20
47.0154439754101219
 30
0.0
 11
86.2323511047442963
 21
47.2154439754101176
 31
0.0
  0
LINE
  5
4D8
  8
0
 10
84.2323511047442963
 20
47.2154439754101176
 30
0.0
 11
84.0323511047443077
 21
47.0154439754101219
 31
0.0
  0
LINE
  5
4D9
  8
5
 10
84.2323511047442963
 20
47.0154439754101219
 30
0.0
 11
86.0323511047443077
 21
47.0154439754101219
 31
0.0
  0
LINE
  5
4DA
  8
5
 10
84.2323511047442963
 20
62.0154439754101219
 30
0.0
 11
86.0323511047443077
 21
62.0154439754101219
 31
0.0
  0
LINE
  5
4DB
  8
5
 10
86.2323511047442963
 20
61.815443975410119
 30
0.0
 11
86.2323511047442963
 21
47.2154439754101176
 31
0.0
  0
LINE
  5
4DC
  8
0
 10
84.2323511047442963
 20
61.815443975410119
 30
0.0
 11
84.2323511047442963
 21
47.2154439754101176
 31
0.0
  0
LINE
  5
506
  8
5
 10
55.2323511047443034
 20
92.4888950308224196
 30
0.0
 11
55.2323511047443034
 21
112.4888950308224054
 31
0.0
  0
LINE
  5
507
  8
5
 10
86.2323511047442963
 20
92.4888950308224196
 30
0.0
 11
86.2323511047442963
 21
112.4888950308224054
 31
0.0
  0
LINE
  5
508
  8
5
 10
55.7323511047442892
 20
91.9888950308224054
 30
0.0
 11
57.2323511047443034
 21
91.9888950308224054
 31
0.0
  0
LINE
  5
509
  8
5
 10
55.7323511047442892
 20
112.9888950308224054
 30
0.0
 11
57.2323511047443034
 21
112.9888950308224054
 31
0.0
  0
LINE
  5
517
  8
0
 10
57.2323511047443034
 20
92.4888950308224196
 30
0.0
 11
57.2323511047443034
 21
112.4888950308224054
 31
0.0
  0
LINE
  5
518
  8
0
 10
84.2323511047442963
 20
92.4888950308224196
 30
0.0
 11
84.2323511047442963
 21
112.4888950308224054
 31
0.0
  0
LINE
  5
659
  8
5
 10
84.2323511047442963
 20
112.9888950308224054
 30
0.0
 11
85.7323511047442963
 21
112.9888950308224054
 31
0.0
  0
LINE
  5
65A
  8
5
 10
84.2323511047442963
 20
91.9888950308224054
 30
0.0
 11
85.7323511047442963
 21
91.9888950308224054
 31
0.0
  0
ARC
  5
65B
  8
5
 10
55.7323511047442892
 20
112.4888950308224054
 30
0.0
 40
0.5
 50
90.0
 51
180.0
  0
ARC
  5
65C
  8
5
 10
55.7323511047442892
 20
92.4888950308224196
 30
0.0
 40
0.5
 50
180.0
 51
270.0
  0
ARC
  5
65D
  8
5
 10
85.7323511047442963
 20
92.4888950308224196
 30
0.0
 40
0.5
 50
270.0
 51
0.0
  0
ARC
  5
65E
  8
5
 10
85.7323511047442963
 20
112.4888950308224054
 30
0.0
 40
0.5
 50
0.0
 51
90.0
  0
ARC
  5
65F
  8
0
 10
83.7323511047442963
 20
112.4888950308224054
 30
0.0
 40
0.5
 50
0.0
 51
90.0
  0
ARC
  5
660
  8
0
 10
83.7323511047442963
 20
92.4888950308224196
 30
0.0
 40
0.5
 50
270.0
 51
0.0
  0
ARC
  5
661
  8
0
 10
57.7323511047443034
 20
92.4888950308224196
 30
0.0
 40
0.5
 50
180.0
 51
270.0
  0
ARC
  5
662
  8
0
 10
57.7323511047443034
 20
112.4888950308224054
 30
0.0
 40
0.5
 50
90.0
 51
180.0
  0
LINE
  5
719
  8
1
 10
70.7323511047442963
 20
69.5154439754101219
 30
0.0
 11
70.7323511047442963
 21
42.0154439754101077
 31
0.0
  0
LINE
  5
71A
  8
1
 10
89.2323511047442963
 20
102.4888950308224054
 30
0.0
 11
52.2323511047442892
 21
102.4888950308224054
 31
0.0
  0
LINE
  5
71B
  8
1
 10
70.7323515107648717
 20
83.4705390308224224
 30
0.0
 11
70.7323515107648717
 21
121.5072510308224025
 31
0.0
  0
TEXT
  5
854
  8
0
 62
     3
 10
0.0
 20
0.0
 30
0.0
 40
10.0
  1
BK2-VT-TC
  7
STANDARD1
  0
LINE
  5
FF0
  8
0
 10
131.4143772085103024
 20
64.5154439754100935
 30
0.0
 11
131.4143772085103024
 21
47.365443975410102
 31
0.0
  0
LINE
  5
FF1
  8
0
 10
110.4143772085103024
 20
64.5154439754100935
 30
0.0
 11
110.4143772085103024
 21
47.365443975410102
 31
0.0
  0
LINE
  5
FF2
  8
0
 10
131.064377208510308
 20
47.0154439754101006
 30
0.0
 11
110.7643772085102967
 21
47.0154439754101006
 31
0.0
  0
LINE
  5
FF3
  8
0
 10
131.4143772085103024
 20
64.5154439754100935
 30
0.0
 11
110.4143772085103024
 21
64.5154439754100935
 31
0.0
  0
LINE
  5
FF4
  8
0
 10
135.4143772085103024
 20
56.8347499754101122
 30
0.0
 11
135.4143772085103024
 21
52.8347499754101193
 31
0.0
  0
LINE
  5
FF5
  8
0
 10
134.9327332085103137
 20
59.0063609754100966
 30
0.0
 11
134.9327332085103137
 21
50.6631389754101065
 31
0.0
  0
ARC
  5
FF6
  8
0
 10
131.7643772085102967
 20
60.065443975410119
 30
0.0
 40
0.35
 50
90.0
 51
180.0
  0
LINE
  5
FF7
  8
0
 10
134.4143772085103024
 20
59.3592349754101107
 30
0.0
 11
131.7643772085102967
 21
60.4154439754101134
 31
0.0
  0
LINE
  5
FF8
  8
0
 10
133.8757992085103012
 20
59.2154439754101176
 30
0.0
 11
132.2239632085102983
 21
59.8738149754101201
 31
0.0
  0
LINE
  5
FF9
  8
0
 10
133.8757992085103012
 20
59.2154439754101176
 30
0.0
 11
134.4143772085103024
 21
59.3592349754101107
 31
0.0
  0
LINE
  5
FFA
  8
0
 10
131.7443772085102864
 20
59.5486879754100968
 30
0.0
 11
131.7443772085102864
 21
50.1208119754101133
 31
0.0
  0
ARC
  5
FFB
  8
0
 10
132.0943773672410941
 20
59.5486878912505517
 30
0.0
 40
0.3500001587307727
 50
68.2692664150559949
 51
179.9999862228980021
  0
ARC
  5
FFC
  8
0
 10
132.0943773672410089
 20
50.1208120595696585
 30
0.0
 40
0.3500001587307503
 50
180.000013777098701
 51
291.7307335849475862
  0
LINE
  5
FFD
  8
0
 10
133.8757992085103012
 20
50.4540569754101114
 30
0.0
 11
134.4143772085103024
 21
50.3102659754101182
 31
0.0
  0
LINE
  5
FFE
  8
0
 10
133.8757992085103012
 20
50.4540569754101114
 30
0.0
 11
132.2239632085102983
 21
49.7956849754101327
 31
0.0
  0
LINE
  5
FFF
  8
0
 10
134.4143772085103024
 20
50.3102659754101182
 30
0.0
 11
131.7643772085102967
 21
49.2540569754101227
 31
0.0
  0
ARC
  5
1000
  8
0
 10
131.7643772085102967
 20
49.604056975410117
 30
0.0
 40
0.35
 50
180.0
 51
270.0
  0
ARC
  5
1001
  8
0
 10
133.3385552085102859
 20
47.4152449754100971
 30
0.0
 40
7.588838
 50
77.873616000000041
 51
102.1263840000000016
  0
ARC
  5
1002
  8
0
 10
133.3385552085102859
 20
47.9288799754101191
 30
0.0
 40
7.588838
 50
77.873616000000041
 51
102.1263840000000016
  0
ARC
  5
1003
  8
0
 10
133.3385552085102859
 20
48.3033189754101215
 30
0.0
 40
7.588838
 50
77.873616000000041
 51
102.1263840000000016
  0
ARC
  5
1004
  8
0
 10
133.3385552085102859
 20
49.1578059754101204
 30
0.0
 40
7.588838
 50
77.873616000000041
 51
102.1263840000000016
  0
ARC
  5
1005
  8
0
 10
133.3385552085102859
 20
49.9786909754101316
 30
0.0
 40
7.588838
 50
77.873616000000041
 51
102.1263840000000016
  0
ARC
  5
1006
  8
0
 10
133.3385552085102859
 20
50.8523799754101091
 30
0.0
 40
7.588838
 50
77.873616000000041
 51
102.1263840000000016
  0
ARC
  5
1007
  8
0
 10
133.3385545420960909
 20
51.5868622493474689
 30
0.0
 40
7.5888317260626668
 50
77.873601257244232
 51
102.1263890314362044
  0
ARC
  5
1008
  8
0
 10
133.3385545420960909
 20
58.0826377014727626
 30
0.0
 40
7.5888317260626783
 50
257.8736109685638098
 51
282.1263987427537927
  0
ARC
  5
1009
  8
0
 10
133.3385552085102859
 20
58.8171199754101224
 30
0.0
 40
7.588838
 50
257.8736160000000268
 51
282.1263839999999732
  0
ARC
  5
100A
  8
0
 10
133.3385552085102859
 20
59.6908099754100974
 30
0.0
 40
7.588838
 50
257.8736160000000268
 51
282.1263839999999732
  0
ARC
  5
100B
  8
0
 10
133.3385552085102859
 20
60.5116939754101111
 30
0.0
 40
7.588838
 50
257.8736160000000268
 51
282.1263839999999732
  0
ARC
  5
100C
  8
0
 10
133.3385552085102859
 20
61.3661819754101074
 30
0.0
 40
7.588838
 50
257.8736160000000268
 51
282.1263839999999732
  0
ARC
  5
100D
  8
0
 10
133.3385552085102859
 20
62.2542559754101035
 30
0.0
 40
7.588838
 50
257.8736160000000268
 51
282.1263839999999732
  0
LINE
  5
100E
  8
0
 10
119.4143772085103024
 20
64.5154439754100935
 30
0.0
 11
119.4143772085103024
 21
62.0154439754101006
 31
0.0
  0
LINE
  5
100F
  8
0
 10
122.4143772085103024
 20
62.0154439754101006
 30
0.0
 11
122.4143772085103024
 21
64.5154439754100935
 31
0.0
  0
ARC
  5
1010
  8
0
 10
133.3385552085102859
 20
61.7406199754101124
 30
0.0
 40
7.588838
 50
257.8736160000000268
 51
282.1263839999999732
  0
ARC
  5
1011
  8
0
 10
108.4901992085103046
 20
61.7406199754101124
 30
0.0
 40
7.588838
 50
257.8736160000000268
 51
282.1263839999999732
  0
ARC
  5
1012
  8
0
 10
108.4901992085103046
 20
62.2542559754101035
 30
0.0
 40
7.588838
 50
257.8736160000000268
 51
282.1263839999999732
  0
ARC
  5
1013
  8
0
 10
108.4901992085103046
 20
61.3661819754101074
 30
0.0
 40
7.588838
 50
257.8736160000000268
 51
282.1263839999999732
  0
ARC
  5
1014
  8
0
 10
108.4901992085103046
 20
60.5116939754101111
 30
0.0
 40
7.588838
 50
257.8736160000000268
 51
282.1263839999999732
  0
ARC
  5
1015
  8
0
 10
108.4901992085103046
 20
59.6908099754100974
 30
0.0
 40
7.588838
 50
257.8736160000000268
 51
282.1263839999999732
  0
ARC
  5
1016
  8
0
 10
108.4901992085103046
 20
58.8171199754101224
 30
0.0
 40
7.588838
 50
257.8736160000000268
 51
282.1263839999999732
  0
ARC
  5
1017
  8
0
 10
108.4901998749244996
 20
58.0826377014728905
 30
0.0
 40
7.5888317260628
 50
257.8736012572460936
 51
282.1263890314361902
  0
ARC
  5
1018
  8
0
 10
108.4901998749244996
 20
51.5868622493473197
 30
0.0
 40
7.5888317260628222
 50
77.873610968563753
 51
102.1263987427538069
  0
ARC
  5
1019
  8
0
 10
108.4901992085103046
 20
50.8523799754101091
 30
0.0
 40
7.588838
 50
77.873616000000041
 51
102.1263840000000016
  0
ARC
  5
101A
  8
0
 10
108.4901992085103046
 20
49.9786909754101316
 30
0.0
 40
7.588838
 50
77.873616000000041
 51
102.1263840000000016
  0
ARC
  5
101B
  8
0
 10
108.4901992085103046
 20
49.1578059754101204
 30
0.0
 40
7.588838
 50
77.873616000000041
 51
102.1263840000000016
  0
ARC
  5
101C
  8
0
 10
108.4901992085103046
 20
48.3033189754101215
 30
0.0
 40
7.588838
 50
77.873616000000041
 51
102.1263840000000016
  0
ARC
  5
101D
  8
0
 10
108.4901992085103046
 20
47.9288799754101191
 30
0.0
 40
7.588838
 50
77.873616000000041
 51
102.1263840000000016
  0
ARC
  5
101E
  8
0
 10
108.4901992085103046
 20
47.4152449754100971
 30
0.0
 40
7.588838
 50
77.873616000000041
 51
102.1263840000000016
  0
ARC
  5
101F
  8
0
 10
110.0643772085102938
 20
49.604056975410117
 30
0.0
 40
0.35
 50
270.0
 51
0.0
  0
LINE
  5
1020
  8
0
 10
107.4143772085103024
 20
50.3102659754101182
 30
0.0
 11
110.0643772085102938
 21
49.2540569754101227
 31
0.0
  0
LINE
  5
1021
  8
0
 10
107.9529552085103035
 20
50.4540569754101114
 30
0.0
 11
109.6047922085103039
 21
49.7956849754101327
 31
0.0
  0
LINE
  5
1022
  8
0
 10
107.9529552085103035
 20
50.4540569754101114
 30
0.0
 11
107.4143772085103024
 21
50.3102659754101182
 31
0.0
  0
ARC
  5
1023
  8
0
 10
109.7343774716046028
 20
50.120811835916669
 30
0.0
 40
0.3499997369056997
 50
248.2693407817608033
 51
0.0000228354063607
  0
ARC
  5
1024
  8
0
 10
109.7343774716046028
 20
59.5486881149035412
 30
0.0
 40
0.3499997369057113
 50
359.9999771645952933
 51
111.7306592182339955
  0
LINE
  5
1025
  8
0
 10
110.0843772085103041
 20
59.5486879754100968
 30
0.0
 11
110.0843772085103041
 21
50.1208119754101133
 31
0.0
  0
LINE
  5
1026
  8
0
 10
107.9529552085103035
 20
59.2154439754101176
 30
0.0
 11
107.4143772085103024
 21
59.3592349754101107
 31
0.0
  0
LINE
  5
1027
  8
0
 10
107.9529552085103035
 20
59.2154439754101176
 30
0.0
 11
109.6047922085103039
 21
59.8738149754101201
 31
0.0
  0
LINE
  5
1028
  8
0
 10
107.4143772085103024
 20
59.3592349754101107
 30
0.0
 11
110.0643772085102938
 21
60.4154439754101134
 31
0.0
  0
ARC
  5
1029
  8
0
 10
110.0643772085102938
 20
60.065443975410119
 30
0.0
 40
0.35
 50
0.0
 51
90.0
  0
LINE
  5
102A
  8
0
 10
106.8960212085103052
 20
59.0063609754100966
 30
0.0
 11
106.8960212085103052
 21
50.6631389754101065
 31
0.0
  0
LINE
  5
102B
  8
0
 10
106.4143772085103024
 20
56.8347499754101122
 30
0.0
 11
106.4143772085103024
 21
52.8347499754101193
 31
0.0
  0
ARC
  5
102C
  8
0
 10
110.7643772085102967
 20
47.365443975410102
 30
0.0
 40
0.35
 50
180.0
 51
270.0
  0
ARC
  5
102D
  8
0
 10
131.064377208510308
 20
47.365443975410102
 30
0.0
 40
0.35
 50
270.0
 51
0.0
  0
ARC
  5
102E
  8
0
 10
110.7643772085102967
 20
61.6654439754101134
 30
0.0
 40
0.35
 50
90.0
 51
180.0
  0
ARC
  5
102F
  8
0
 10
131.064377208510308
 20
61.6654439754101134
 30
0.0
 40
0.35
 50
0.0
 51
90.0
  0
LINE
  5
1030
  8
0
 10
131.064377208510308
 20
62.0154439754101006
 30
0.0
 11
110.7643772085102967
 21
62.0154439754101006
 31
0.0
  0
ARC
  5
1031
  8
0
 10
134.9143772085103024
 20
56.8347499754101122
 30
0.0
 40
0.5
 50
0.0
 51
87.8960845625692855
  0
ARC
  5
1032
  8
0
 10
134.9143772085103024
 20
52.8347499754101193
 30
0.0
 40
0.5
 50
272.1039154374307145
 51
0.0
  0
ARC
  5
1033
  8
0
 10
106.9143772085103024
 20
56.8347499754101122
 30
0.0
 40
0.5
 50
92.1039154374307145
 51
180.0
  0
ARC
  5
1034
  8
0
 10
106.9143772085103024
 20
52.8347499754101193
 30
0.0
 40
0.5
 50
180.0
 51
267.8960845625692855
  0
LINE
  5
1036
  8
1
 10
120.9143772085103024
 20
69.5154439754100935
 30
0.0
 11
120.9143772085103024
 21
42.0154439754101006
 31
0.0
  0
LINE
  5
13C4
  8
0
 10
77.1422766987237054
 20
91.9888950308224054
 30
0.0
 11
82.7323506987237351
 21
101.6711880308224067
 31
0.0
  0
LINE
  5
13C5
  8
0
 10
77.1422766987237054
 20
112.9888950308224054
 30
0.0
 11
82.7323506987237351
 21
103.306602030822404
 31
0.0
  0
LINE
  5
13C6
  8
0
 10
82.7323506987237351
 20
103.306602030822404
 30
0.0
 11
82.7323506987237351
 21
101.6711880308224067
 31
0.0
  0
LINE
  5
13C7
  8
0
 10
64.3224256987237482
 20
112.9888950308224054
 30
0.0
 11
58.732350698723728
 21
103.306602030822404
 31
0.0
  0
LINE
  5
13C8
  8
0
 10
58.732350698723728
 20
103.306602030822404
 30
0.0
 11
58.732350698723728
 21
101.6711880308224067
 31
0.0
  0
LINE
  5
13C9
  8
0
 10
64.3224256987237482
 20
91.9888950308224054
 30
0.0
 11
58.732350698723728
 21
101.6711880308224067
 31
0.0
  0
LINE
  5
13CA
  8
0
 10
64.5323506987237465
 20
115.9888950308224054
 30
0.0
 11
76.9323506987237238
 21
115.9888950308224054
 31
0.0
  0
ARC
  5
13CB
  8
0
 10
61.7411856987237115
 20
114.7570340308223962
 30
0.0
 40
2.0055089999999991
 50
119.2254989999993029
 51
241.8409390000001054
  0
ARC
  5
13CC
  8
0
 10
62.5824306987237193
 20
114.7570340308223962
 30
0.0
 40
2.0055089999999991
 50
119.2254989999993029
 51
241.8409390000001054
  0
ARC
  5
13CD
  8
0
 10
63.4236766987237317
 20
114.7570340308223962
 30
0.0
 40
2.0055089999999991
 50
119.2254989999993029
 51
241.8409390000001054
  0
ARC
  5
13CE
  8
0
 10
64.2649216987237253
 20
114.7570340308223962
 30
0.0
 40
2.0055089999999991
 50
119.2254989999993029
 51
241.8409390000001054
  0
ARC
  5
13CF
  8
0
 10
65.106167698723695
 20
114.7570340308223962
 30
0.0
 40
2.0055089999999991
 50
119.2254989999993029
 51
241.8409390000001054
  0
ARC
  5
13D0
  8
0
 10
66.1565066987237174
 20
114.7570340308223962
 30
0.0
 40
2.214602999999999
 50
143.0712029999995991
 51
222.8291009999998096
  0
LINE
  5
13D1
  8
0
 10
64.5323506987237465
 20
112.9888950308224054
 30
0.0
 11
64.5323506987237465
 21
115.9888950308224054
 31
0.0
  0
LINE
  5
13D2
  8
0
 10
59.4461696987237431
 20
116.5072510308224025
 30
0.0
 11
64.5323506987237465
 21
116.5072510308224025
 31
0.0
  0
ARC
  5
13D3
  8
0
 10
62.5824306987237193
 20
114.7570340308223962
 30
0.0
 40
2.0055089999999991
 50
119.2254989999993029
 51
241.8409390000001054
  0
ARC
  5
13D4
  8
0
 10
63.4236766987237317
 20
114.7570340308223962
 30
0.0
 40
2.0055089999999991
 50
119.2254989999993029
 51
241.8409390000001054
  0
ARC
  5
13D5
  8
0
 10
60.9585816987237123
 20
114.7570340308223962
 30
0.0
 40
2.0055089999999991
 50
119.2254989999993029
 51
241.8409390000001054
  0
ARC
  5
13D6
  8
0
 10
80.5061196987237224
 20
114.7570340308223962
 30
0.0
 40
2.0055089999999991
 50
298.159060999999781
 51
60.7745010000006971
  0
ARC
  5
13D7
  8
0
 10
78.0410246987237315
 20
114.7570340308223962
 30
0.0
 40
2.0055089999999991
 50
298.159060999999781
 51
60.7745010000006971
  0
ARC
  5
13D8
  8
0
 10
78.8822706987237154
 20
114.7570340308223962
 30
0.0
 40
2.0055089999999991
 50
298.159060999999781
 51
60.7745010000006971
  0
LINE
  5
13D9
  8
0
 10
82.0185316987237343
 20
116.5072510308224025
 30
0.0
 11
76.9323506987237238
 21
116.5072510308224025
 31
0.0
  0
LINE
  5
13DA
  8
0
 10
76.9323506987237238
 20
112.9888950308224054
 30
0.0
 11
76.9323506987237238
 21
115.9888950308224054
 31
0.0
  0
ARC
  5
13DB
  8
0
 10
74.169130698723734
 20
114.7570340308223962
 30
0.0
 40
2.933044999999999
 50
340.4072100000008732
 51
19.5927899999990913
  0
ARC
  5
13DC
  8
0
 10
75.308195698723722
 20
114.7570340308223962
 30
0.0
 40
2.214602999999999
 50
317.1708990000001904
 51
52.1176470000000975
  0
ARC
  5
13DD
  8
0
 10
76.3585346987237301
 20
114.7570340308223962
 30
0.0
 40
2.0055089999999991
 50
298.159060999999781
 51
60.7745010000006971
  0
ARC
  5
13DE
  8
0
 10
77.1997796987237166
 20
114.7570340308223962
 30
0.0
 40
2.0055089999999991
 50
298.159060999999781
 51
60.7745010000006971
  0
ARC
  5
13DF
  8
0
 10
78.0410246987237315
 20
114.7570340308223962
 30
0.0
 40
2.0055089999999991
 50
298.159060999999781
 51
60.7745010000006971
  0
ARC
  5
13E0
  8
0
 10
78.8822706987237154
 20
114.7570340308223962
 30
0.0
 40
2.0055089999999991
 50
298.159060999999781
 51
60.7745010000006971
  0
ARC
  5
13E1
  8
0
 10
79.7235156987237303
 20
114.7570340308223962
 30
0.0
 40
2.0055089999999991
 50
298.159060999999781
 51
60.7745010000006971
  0
ARC
  5
13E2
  8
0
 10
65.8867306987237384
 20
114.7570340308223962
 30
0.0
 40
2.0055089999999991
 50
119.2254989999993029
 51
138.4354390000000024
  0
ARC
  5
13E3
  8
0
 10
68.3518246987237319
 20
114.7570340308223962
 30
0.0
 40
2.0055089999999991
 50
119.2254989999993029
 51
142.1033750000001135
  0
ARC
  5
13E4
  8
0
 10
67.510579698723717
 20
114.7570340308223962
 30
0.0
 40
2.0055089999999991
 50
119.2254989999993029
 51
142.1033750000001135
  0
LINE
  5
13E5
  8
0
 10
64.8922906987237411
 20
116.5072510308224025
 30
0.0
 11
70.7323506987237351
 21
116.5072510308224025
 31
0.0
  0
ARC
  5
13E6
  8
0
 10
68.3518246987237319
 20
114.7570340308223962
 30
0.0
 40
2.0055089999999991
 50
119.2254989999993029
 51
142.1033750000001135
  0
ARC
  5
13E7
  8
0
 10
67.510579698723717
 20
114.7570340308223962
 30
0.0
 40
2.0055089999999991
 50
119.2254989999993029
 51
142.1033750000001135
  0
ARC
  5
13E8
  8
0
 10
66.6693336987237331
 20
114.7570340308223962
 30
0.0
 40
2.0055089999999991
 50
119.2254989999993029
 51
142.1033750000001135
  0
LINE
  5
13E9
  8
0
 10
64.5323506987237465
 20
116.5072510308224025
 30
0.0
 11
64.9075446987237115
 21
116.5072510308224025
 31
0.0
  0
LINE
  5
13EA
  8
0
 10
70.7323506987237351
 20
116.5072510308224025
 30
0.0
 11
70.7323506987237351
 21
115.9888950308224054
 31
0.0
  0
ARC
  5
13EB
  8
0
 10
92.6159806987237175
 20
114.7480730308223968
 30
0.0
 40
21.954224
 50
175.4039980000002004
 51
176.7599970000011922
  0
ARC
  5
13EC
  8
0
 10
92.0024426987237121
 20
114.7480730308223968
 30
0.0
 40
21.954224
 50
175.4039980000002004
 51
176.7599970000011922
  0
ARC
  5
13ED
  8
0
 10
73.4025686987237123
 20
114.7480730308223968
 30
0.0
 40
4.3264969999999989
 50
156.0082139999994126
 51
163.3337669999991135
  0
ARC
  5
13EE
  8
0
 10
72.6993956987237198
 20
114.7480730308223968
 30
0.0
 40
4.3264969999999989
 50
156.0082139999994126
 51
163.3337669999991135
  0
ARC
  5
13EF
  8
0
 10
71.9371056987237125
 20
114.7480730308223968
 30
0.0
 40
4.3264969999999989
 50
156.0082139999994126
 51
163.3337669999991135
  0
ARC
  5
13F0
  8
0
 10
74.7953676987237372
 20
114.7570340308223962
 30
0.0
 40
2.0055089999999991
 50
37.8966249999998368
 51
60.7745010000006971
  0
ARC
  5
13F1
  8
0
 10
69.5275956987237294
 20
114.7480730308223968
 30
0.0
 40
4.3264969999999989
 50
16.6662330000008616
 51
23.9917860000005483
  0
ARC
  5
13F2
  8
0
 10
68.7653066987237196
 20
114.7480730308223968
 30
0.0
 40
4.3264969999999989
 50
16.6662330000008616
 51
23.9917860000005483
  0
ARC
  5
13F3
  8
0
 10
68.0621326987237012
 20
114.7480730308223968
 30
0.0
 40
4.3264969999999989
 50
16.6662330000008616
 51
23.9917860000005483
  0
ARC
  5
13F4
  8
0
 10
49.4622586987237298
 20
114.7480730308223968
 30
0.0
 40
21.954224
 50
3.2400030000004429
 51
4.5960020000013513
  0
ARC
  5
13F5
  8
0
 10
48.8487206987237172
 20
114.7480730308223968
 30
0.0
 40
21.954224
 50
3.2400030000004429
 51
4.5960020000013513
  0
LINE
  5
13F6
  8
0
 10
70.7323506987237351
 20
116.5072510308224025
 30
0.0
 11
70.7323506987237351
 21
115.9888950308224054
 31
0.0
  0
ARC
  5
13F7
  8
0
 10
73.9541226987237224
 20
114.7570340308223962
 30
0.0
 40
2.0055089999999991
 50
37.8966249999998368
 51
60.7745010000006971
  0
ARC
  5
13F8
  8
0
 10
73.1128766987236958
 20
114.7570340308223962
 30
0.0
 40
2.0055089999999991
 50
37.8966249999998368
 51
60.7745010000006971
  0
ARC
  5
13F9
  8
0
 10
73.9541226987237224
 20
114.7570340308223962
 30
0.0
 40
2.0055089999999991
 50
37.8966249999998368
 51
60.7745010000006971
  0
ARC
  5
13FA
  8
0
 10
73.1128766987236958
 20
114.7570340308223962
 30
0.0
 40
2.0055089999999991
 50
37.8966249999998368
 51
60.7745010000006971
  0
LINE
  5
13FB
  8
0
 10
76.5724106987237292
 20
116.5072510308224025
 30
0.0
 11
70.7323506987237351
 21
116.5072510308224025
 31
0.0
  0
LINE
  5
13FC
  8
0
 10
76.5724106987237292
 20
116.5072510308224025
 30
0.0
 11
76.9323506987237238
 21
116.5072510308224025
 31
0.0
  0
TEXT
  5
13FF
  8
0
 10
63.9590456987237417
 20
109.6496880308224036
 30
0.0
 40
2.0791059999999999
  1
OK-VISE
  0
TEXT
  5
1400
  8
0
 10
64.7281566987237227
 20
92.6455680308224316
 30
0.0
 40
2.0791059999999999
  1
BK2-VT
  0
LINE
  5
1401
  8
0
 10
82.0185316987237343
 20
88.470539030822394
 30
0.0
 11
70.7323506987237351
 21
88.470539030822394
 31
0.0
  0
ARC
  5
1402
  8
0
 10
73.1128766987236958
 20
90.2207570308223978
 30
0.0
 40
2.0055089999999991
 50
299.2254989999992745
 51
322.103375000000085
  0
ARC
  5
1403
  8
0
 10
73.9541226987237224
 20
90.2207570308223978
 30
0.0
 40
2.0055089999999991
 50
299.2254989999992745
 51
322.103375000000085
  0
ARC
  5
1404
  8
0
 10
73.1128766987236958
 20
90.2207570308223978
 30
0.0
 40
2.0055089999999991
 50
299.2254989999992745
 51
322.103375000000085
  0
ARC
  5
1405
  8
0
 10
73.9541226987237224
 20
90.2207570308223978
 30
0.0
 40
2.0055089999999991
 50
299.2254989999992745
 51
322.103375000000085
  0
LINE
  5
1406
  8
0
 10
70.7323506987237351
 20
88.470539030822394
 30
0.0
 11
70.7323506987237351
 21
88.9888950308224338
 31
0.0
  0
ARC
  5
1407
  8
0
 10
48.8487206987237172
 20
90.2297170308224281
 30
0.0
 40
21.954224
 50
355.4039979999985803
 51
356.7599969999994869
  0
ARC
  5
1408
  8
0
 10
49.4622586987237298
 20
90.2297170308224281
 30
0.0
 40
21.954224
 50
355.4039979999985803
 51
356.7599969999994869
  0
ARC
  5
1409
  8
0
 10
68.0621326987237012
 20
90.2297170308224281
 30
0.0
 40
4.3264969999999989
 50
336.0082139999993842
 51
343.3337669999991135
  0
ARC
  5
140A
  8
0
 10
68.7653066987237196
 20
90.2297170308224281
 30
0.0
 40
4.3264969999999989
 50
336.0082139999993842
 51
343.3337669999991135
  0
ARC
  5
140B
  8
0
 10
69.5275956987237294
 20
90.2297170308224281
 30
0.0
 40
4.3264969999999989
 50
336.0082139999993842
 51
343.3337669999991135
  0
ARC
  5
140C
  8
0
 10
74.7953676987237372
 20
90.2207570308223978
 30
0.0
 40
2.0055089999999991
 50
299.2254989999992745
 51
322.103375000000085
  0
ARC
  5
140D
  8
0
 10
71.9371056987237125
 20
90.2297170308224281
 30
0.0
 40
4.3264969999999989
 50
196.6662329999992949
 51
203.9917860000005021
  0
ARC
  5
140E
  8
0
 10
72.6993956987237198
 20
90.2297170308224281
 30
0.0
 40
4.3264969999999989
 50
196.6662329999992949
 51
203.9917860000005021
  0
ARC
  5
140F
  8
0
 10
73.4025686987237123
 20
90.2297170308224281
 30
0.0
 40
4.3264969999999989
 50
196.6662329999992949
 51
203.9917860000005021
  0
ARC
  5
1410
  8
0
 10
92.0024426987237121
 20
90.2297170308224281
 30
0.0
 40
21.954224
 50
183.2400029999988078
 51
184.5960019999996859
  0
ARC
  5
1411
  8
0
 10
92.6159806987237175
 20
90.2297170308224281
 30
0.0
 40
21.954224
 50
183.2400029999988078
 51
184.5960019999996859
  0
LINE
  5
1412
  8
0
 10
70.7323506987237351
 20
88.470539030822394
 30
0.0
 11
70.7323506987237351
 21
88.9888950308224338
 31
0.0
  0
LINE
  5
1413
  8
0
 10
64.5323506987237465
 20
88.470539030822394
 30
0.0
 11
64.9075446987237115
 21
88.470539030822394
 31
0.0
  0
ARC
  5
1414
  8
0
 10
66.6693336987237331
 20
90.2207570308223978
 30
0.0
 40
2.0055089999999991
 50
217.8966249999998013
 51
240.7745010000006971
  0
ARC
  5
1415
  8
0
 10
67.510579698723717
 20
90.2207570308223978
 30
0.0
 40
2.0055089999999991
 50
217.8966249999998013
 51
240.7745010000006971
  0
ARC
  5
1416
  8
0
 10
68.3518246987237319
 20
90.2207570308223978
 30
0.0
 40
2.0055089999999991
 50
217.8966249999998013
 51
240.7745010000006971
  0
LINE
  5
1417
  8
0
 10
64.8922906987237411
 20
88.470539030822394
 30
0.0
 11
70.7323506987237351
 21
88.470539030822394
 31
0.0
  0
ARC
  5
1418
  8
0
 10
67.510579698723717
 20
90.2207570308223978
 30
0.0
 40
2.0055089999999991
 50
217.8966249999998013
 51
240.7745010000006971
  0
ARC
  5
1419
  8
0
 10
68.3518246987237319
 20
90.2207570308223978
 30
0.0
 40
2.0055089999999991
 50
217.8966249999998013
 51
240.7745010000006971
  0
ARC
  5
141A
  8
0
 10
65.8867306987237384
 20
90.2207570308223978
 30
0.0
 40
2.0055089999999991
 50
221.5645609999999124
 51
240.7745010000006971
  0
ARC
  5
141B
  8
0
 10
79.7235156987237303
 20
90.2207570308223978
 30
0.0
 40
2.0055089999999991
 50
299.2254989999992745
 51
61.8409390000001267
  0
ARC
  5
141C
  8
0
 10
78.8822706987237154
 20
90.2207570308223978
 30
0.0
 40
2.0055089999999991
 50
299.2254989999992745
 51
61.8409390000001267
  0
ARC
  5
141D
  8
0
 10
78.0410246987237315
 20
90.2207570308223978
 30
0.0
 40
2.0055089999999991
 50
299.2254989999992745
 51
61.8409390000001267
  0
ARC
  5
141E
  8
0
 10
77.1997796987237166
 20
90.2207570308223978
 30
0.0
 40
2.0055089999999991
 50
299.2254989999992745
 51
61.8409390000001267
  0
ARC
  5
141F
  8
0
 10
76.3585346987237301
 20
90.2207570308223978
 30
0.0
 40
2.0055089999999991
 50
299.2254989999992745
 51
61.8409390000001267
  0
ARC
  5
1420
  8
0
 10
75.308195698723722
 20
90.2207570308223978
 30
0.0
 40
2.214602999999999
 50
307.7857158580948749
 51
42.8291009999997883
  0
ARC
  5
1421
  8
0
 10
74.169130698723734
 20
90.2207570308223978
 30
0.0
 40
2.933044999999999
 50
340.4072100000008732
 51
19.5927899999990913
  0
LINE
  5
1422
  8
0
 10
76.9323506987237238
 20
91.9888950308224054
 30
0.0
 11
76.9323506987237238
 21
88.9888950308224338
 31
0.0
  0
ARC
  5
1423
  8
0
 10
78.8822706987237154
 20
90.2207570308223978
 30
0.0
 40
2.0055089999999991
 50
299.2254989999992745
 51
61.8409390000001267
  0
ARC
  5
1424
  8
0
 10
78.0410246987237315
 20
90.2207570308223978
 30
0.0
 40
2.0055089999999991
 50
299.2254989999992745
 51
61.8409390000001267
  0
ARC
  5
1425
  8
0
 10
80.5061196987237224
 20
90.2207570308223978
 30
0.0
 40
2.0055089999999991
 50
299.2254989999992745
 51
61.8409390000001267
  0
ARC
  5
1426
  8
0
 10
60.9585816987237123
 20
90.2207570308223978
 30
0.0
 40
2.0055089999999991
 50
118.1590609999998946
 51
240.7745010000006971
  0
ARC
  5
1427
  8
0
 10
63.4236766987237317
 20
90.2207570308223978
 30
0.0
 40
2.0055089999999991
 50
118.1590609999998946
 51
240.7745010000006971
  0
ARC
  5
1428
  8
0
 10
62.5824306987237193
 20
90.2207570308223978
 30
0.0
 40
2.0055089999999991
 50
118.1590609999998946
 51
240.7745010000006971
  0
LINE
  5
1429
  8
0
 10
59.4461696987237431
 20
88.470539030822394
 30
0.0
 11
64.5323506987237465
 21
88.470539030822394
 31
0.0
  0
LINE
  5
142A
  8
0
 10
64.5323506987237465
 20
91.9888950308224054
 30
0.0
 11
64.5323506987237465
 21
88.9888950308224338
 31
0.0
  0
ARC
  5
142B
  8
0
 10
66.1565066987237174
 20
90.2207570308223978
 30
0.0
 40
2.214602999999999
 50
137.1708990000001904
 51
216.9287970000004009
  0
ARC
  5
142C
  8
0
 10
65.106167698723695
 20
90.2207570308223978
 30
0.0
 40
2.0055089999999991
 50
118.1590609999998946
 51
240.7745010000006971
  0
ARC
  5
142D
  8
0
 10
64.2649216987237253
 20
90.2207570308223978
 30
0.0
 40
2.0055089999999991
 50
118.1590609999998946
 51
240.7745010000006971
  0
ARC
  5
142E
  8
0
 10
63.4236766987237317
 20
90.2207570308223978
 30
0.0
 40
2.0055089999999991
 50
118.1590609999998946
 51
240.7745010000006971
  0
ARC
  5
142F
  8
0
 10
62.5824306987237193
 20
90.2207570308223978
 30
0.0
 40
2.0055089999999991
 50
118.1590609999998946
 51
240.7745010000006971
  0
ARC
  5
1430
  8
0
 10
61.7411856987237115
 20
90.2207570308223978
 30
0.0
 40
2.0055089999999991
 50
118.1590609999998946
 51
240.7745010000006971
  0
LINE
  5
1431
  8
0
 10
64.5323506987237465
 20
88.9888950308224338
 30
0.0
 11
76.9323506987237238
 21
88.9888950308224338
 31
0.0
  0
LINE
  5
1433
  8
1
 10
70.2323506987237351
 20
110.7388950308224054
 30
0.0
 11
70.2323506987237351
 21
94.2388950308224054
 31
0.0
  0
ARC
  5
1434
  8
0
 10
71.2323506987237351
 20
102.4888950308224054
 30
0.0
 40
6.75
 50
270.0
 51
90.0
  0
ARC
  5
1435
  8
0
 10
71.2323506987237351
 20
102.4888950308224054
 30
0.0
 40
4.25
 50
270.0
 51
90.0
  0
ARC
  5
1436
  8
0
 10
70.2323506987237351
 20
102.4888950308224054
 30
0.0
 40
4.25
 50
90.0
 51
270.0
  0
ARC
  5
1437
  8
0
 10
70.2323506987237351
 20
102.4888950308224054
 30
0.0
 40
6.75
 50
90.0
 51
270.0
  0
LINE
  5
1438
  8
0
 10
70.2323506987237351
 20
98.2388950308224054
 30
0.0
 11
71.2323506987237351
 21
98.2388950308224054
 31
0.0
  0
LINE
  5
1439
  8
0
 10
70.2323506987237351
 20
106.7388950308224054
 30
0.0
 11
71.2323506987237351
 21
106.7388950308224054
 31
0.0
  0
LINE
  5
143A
  8
0
 10
70.2323506987237351
 20
109.2388950308224054
 30
0.0
 11
71.2323506987237351
 21
109.2388950308224054
 31
0.0
  0
LINE
  5
143B
  8
0
 10
71.2323506987237351
 20
95.7388950308224054
 30
0.0
 11
70.2323506987237351
 21
95.7388950308224054
 31
0.0
  0
LINE
  5
143C
  8
0
 10
60.2326346987237287
 20
87.9888950308224054
 30
0.0
 11
64.2326346987237287
 21
87.9888950308224054
 31
0.0
  0
LINE
  5
143D
  8
0
 10
64.2326346987237287
 20
87.9888950308224054
 30
0.0
 11
64.2326346987237287
 21
88.470539030822394
 31
0.0
  0
ARC
  5
143E
  8
0
 10
60.4253561567761892
 20
90.2207567535571258
 30
0.0
 40
2.0055094606129491
 50
118.1590687991175059
 51
240.774491845156291
  0
ARC
  5
143F
  8
0
 10
60.2326346987237287
 20
88.4888950308224196
 30
0.0
 40
0.5
 50
182.1039399999989996
 51
270.0
  0
ARC
  5
1440
  8
0
 10
81.0393452406712669
 20
90.2207567535571258
 30
0.0
 40
2.0055094606129602
 50
299.2255081548436806
 51
61.840931200882487
  0
ARC
  5
1441
  8
0
 10
81.2320676987237107
 20
88.4888950308224196
 30
0.0
 40
0.5
 50
270.0
 51
357.8960599999992951
  0
LINE
  5
1442
  8
0
 10
77.2320676987237107
 20
87.9888950308224054
 30
0.0
 11
77.2320676987237107
 21
88.470539030822394
 31
0.0
  0
LINE
  5
1443
  8
0
 10
81.2320676987237107
 20
87.9888950308224054
 30
0.0
 11
77.2320676987237107
 21
87.9888950308224054
 31
0.0
  0
ARC
  5
1444
  8
0
 10
60.425355322132468
 20
114.757033802866701
 30
0.0
 40
2.0055086213036648
 50
119.2254942467098999
 51
241.8409454121049862
  0
ARC
  5
1445
  8
0
 10
81.0393460753149952
 20
114.757033802866701
 30
0.0
 40
2.0055086213036479
 50
298.1590545878950138
 51
60.7745057532900574
  0
ARC
  5
1446
  8
0
 10
60.2326346987237287
 20
116.4888950308224054
 30
0.0
 40
0.5
 50
90.0
 51
177.8960599999992951
  0
LINE
  5
1447
  8
0
 10
64.2326346987237287
 20
116.9888950308224054
 30
0.0
 11
64.2326346987237287
 21
116.5072510308224025
 31
0.0
  0
LINE
  5
1448
  8
0
 10
60.2326346987237287
 20
116.9888950308224054
 30
0.0
 11
64.2326346987237287
 21
116.9888950308224054
 31
0.0
  0
LINE
  5
1449
  8
0
 10
81.2320676987237107
 20
116.9888950308224054
 30
0.0
 11
77.2320676987237107
 21
116.9888950308224054
 31
0.0
  0
LINE
  5
144A
  8
0
 10
77.2320676987237107
 20
116.9888950308224054
 30
0.0
 11
77.2320676987237107
 21
116.5072510308224025
 31
0.0
  0
ARC
  5
144B
  8
0
 10
81.2320676987237107
 20
116.4888950308224054
 30
0.0
 40
0.5
 50
2.103940000000704
 51
90.0
  0
LINE
  5
1450
  8
0
 10
57.7323511047443034
 20
91.9888950308224054
 30
0.0
 11
83.7323511047442963
 21
91.9888950308224054
 31
0.0
  0
LINE
  5
1451
  8
0
 10
57.7323511047443034
 20
112.9888950308224054
 30
0.0
 11
83.7323511047442963
 21
112.9888950308224054
 31
0.0
  0
ARC
  5
1FD3
  8
0
 10
79.2320681047442434
 20
54.834749975410169
 30
0.0
 40
2.5
 50
270.0
 51
90.0
  0
LINE
  5
1FD4
  8
0
 10
64.4323511047442707
 20
49.0154439754101574
 30
0.0
 11
77.0323511047442935
 21
49.0154439754101574
 31
0.0
  0
LINE
  5
1FD5
  8
0
 10
77.0323511047442935
 20
49.0154439754101574
 30
0.0
 11
77.0323511047442935
 21
51.0447983198455901
 31
0.0
  0
LINE
  5
1FD6
  8
0
 10
64.4323511047442707
 20
49.0154439754101574
 30
0.0
 11
64.4323511047442707
 21
51.2681139848960399
 31
0.0
  0
LINE
  5
1FD7
  8
0
 10
77.0323511047442935
 20
60.4154439754101702
 30
0.0
 11
64.4323511047442707
 21
60.4154439754101702
 31
0.0
  0
LINE
  5
1FD8
  8
0
 10
65.2323511047442821
 20
62.0154439754101716
 30
0.0
 11
57.4323511047445123
 21
62.0154439754103421
 31
0.0
  0
LINE
  5
1FD9
  8
0
 10
81.7320671047442602
 20
54.8358119754101665
 30
0.0
 11
82.8963001047442845
 21
54.8358119754101665
 31
0.0
  0
LINE
  5
1FDA
  8
0
 10
80.6620276293090797
 20
56.8844805045404911
 30
0.0
 11
81.4140686293090994
 21
57.0318445045405014
 31
0.0
  0
LINE
  5
1FDB
  8
0
 10
81.721152716398251
 20
55.0681119175242983
 30
0.0
 11
82.2212987944609495
 21
54.8358119754101665
 31
0.0
  0
LINE
  5
1FDC
  8
0
 10
81.6615272000331487
 20
55.4244350645198267
 30
0.0
 11
82.9546748283912052
 21
54.8238123564695385
 31
0.0
  0
LINE
  5
1FDD
  8
0
 10
82.7323511047442963
 20
64.5154439754101645
 30
0.0
 11
58.7323511047442821
 21
64.5154439754101645
 31
0.0
  0
LINE
  5
1FDE
  8
0
 10
75.6499991047442535
 20
60.4154439754101702
 30
0.0
 11
77.1422771047442666
 21
64.5154439754101645
 31
0.0
  0
LINE
  5
1FDF
  8
0
 10
59.6422771047442666
 20
62.0154439754101716
 30
0.0
 11
58.7323511047442821
 21
64.5154439754101645
 31
0.0
  0
LINE
  5
1FE0
  8
0
 10
81.8224261047442951
 20
62.0154439754101716
 30
0.0
 11
82.7323511047442963
 21
64.5154439754101645
 31
0.0
  0
LINE
  5
1FE1
  8
0
 10
65.8147031047442965
 20
60.4154439754101702
 30
0.0
 11
64.3224261047442951
 21
64.5154439754101645
 31
0.0
  0
LINE
  5
1FE2
  8
0
 10
64.4323511047442707
 20
59.2154439754101816
 30
0.0
 11
77.0323511047442935
 21
59.2154439754101816
 31
0.0
  0
LINE
  5
1FE3
  8
0
 10
77.0163598404569711
 20
51.5894622587583171
 30
0.0
 11
77.4887982031787033
 21
50.9107704819170621
 31
0.0
  0
LINE
  5
1FE4
  8
0
 10
76.975813756530556
 20
51.1260183804278867
 30
0.0
 11
77.5544609442021624
 21
50.2947491199598389
 31
0.0
  0
ARC
  5
1FE5
  8
0
 10
76.7595900135804072
 20
50.3644312405284822
 30
0.0
 40
0.149024256163722
 50
175.0001109367231891
 51
354.9996351366492036
  0
ARC
  5
1FE6
  8
0
 10
76.9080085603307566
 20
52.0608664677475019
 30
0.0
 40
0.1490245531800441
 50
355.0003293164480169
 51
174.9999374611475957
  0
LINE
  5
1FE7
  8
0
 10
76.9080471047442984
 20
50.3514419754101823
 30
0.0
 11
77.0564661047442883
 21
52.0478789754101783
 31
0.0
  0
LINE
  5
1FE8
  8
0
 10
76.6111328145552193
 20
50.3774192728173915
 30
0.0
 11
76.7595511047442756
 21
52.0738549754101712
 31
0.0
  0
LINE
  5
1FE9
  8
0
 10
76.6699458688316895
 20
51.0496582867962374
 30
0.0
 11
76.1444538384848215
 21
50.2947499506737969
 31
0.0
  0
LINE
  5
1FEA
  8
0
 10
76.7221488245763226
 20
51.6463432222803576
 30
0.0
 11
76.2101160064536316
 21
50.9107704835604409
 31
0.0
  0
ARC
  5
1FEB
  8
0
 10
76.0127240135804527
 20
50.3644312405284893
 30
0.0
 40
0.1490242561637349
 50
175.000110936728106
 51
354.999635136641075
  0
ARC
  5
1FEC
  8
0
 10
76.1611425603307453
 20
52.0608664677475019
 30
0.0
 40
0.1490245531800306
 50
355.0003293164464253
 51
174.9999374611508927
  0
LINE
  5
1FED
  8
0
 10
76.161181104744287
 20
50.3514419754101823
 30
0.0
 11
76.3096001047442769
 21
52.0478789754101783
 31
0.0
  0
LINE
  5
1FEE
  8
0
 10
75.8642668145551937
 20
50.3774192728173986
 30
0.0
 11
76.0126851047442642
 21
52.0738549754101712
 31
0.0
  0
ARC
  5
1FEF
  8
0
 10
75.1286710999436878
 20
52.0608669205379897
 30
0.0
 40
0.149024055081727
 50
355.0001378121879725
 51
175.0000954572385865
  0
ARC
  5
1FF0
  8
0
 10
74.9802520204093526
 20
50.3644312323900323
 30
0.0
 40
0.1490242486514388
 50
175.0001075430820094
 51
354.9996380249033905
  0
LINE
  5
1FF1
  8
0
 10
75.9641358556586397
 20
51.5189322675821586
 30
0.0
 11
75.1119818434393096
 21
50.2947499550580019
 31
0.0
  0
LINE
  5
1FF2
  8
0
 10
76.0294129918222552
 20
52.1305488775154799
 30
0.0
 11
75.1772585330577954
 21
50.9063645023098275
 31
0.0
  0
LINE
  5
1FF3
  8
0
 10
75.1287091047443027
 20
50.3514419754101823
 30
0.0
 11
75.2771281047442926
 21
52.0478789754101783
 31
0.0
  0
LINE
  5
1FF4
  8
0
 10
74.8317948296371469
 20
50.3774192728173773
 30
0.0
 11
74.9802141047442774
 21
52.0738549754101712
 31
0.0
  0
ARC
  5
1FF5
  8
0
 10
74.0961990999437035
 20
52.060866920538011
 30
0.0
 40
0.1490240550817282
 50
355.0001378121830271
 51
175.0000954572435035
  0
ARC
  5
1FF6
  8
0
 10
73.947780560024114
 20
50.3644316851811809
 30
0.0
 40
0.1490247467512201
 50
175.0002990475013007
 51
354.9994800302338263
  0
LINE
  5
1FF7
  8
0
 10
74.9316646309192151
 20
51.5189333813013519
 30
0.0
 11
74.079513439851894
 21
50.2947551215708586
 31
0.0
  0
LINE
  5
1FF8
  8
0
 10
74.9969414615882215
 20
52.1305481330111391
 30
0.0
 11
74.1447873028580489
 21
50.9063656100133599
 31
0.0
  0
LINE
  5
1FF9
  8
0
 10
74.0962381047442591
 20
50.3514419754101823
 30
0.0
 11
74.2446561047442515
 21
52.0478789754101783
 31
0.0
  0
LINE
  5
1FFA
  8
0
 10
73.7993228296371058
 20
50.3774192728173915
 30
0.0
 11
73.9477421047442931
 21
52.0738549754101712
 31
0.0
  0
ARC
  5
1FFB
  8
0
 10
73.0637275527348606
 20
52.0608663809235281
 30
0.0
 40
0.1490245531803458
 50
355.0003628253405168
 51
174.999903952254698
  0
ARC
  5
1FFC
  8
0
 10
72.9153085600241866
 20
50.3644316851812235
 30
0.0
 40
0.1490247467512602
 50
175.0002990475144031
 51
354.999480030222287
  0
LINE
  5
1FFD
  8
0
 10
73.8991924871676247
 20
51.5189317382175105
 30
0.0
 11
73.0470382752862974
 21
50.2947491388640913
 31
0.0
  0
LINE
  5
1FFE
  8
0
 10
73.9644694615881235
 20
52.130548133010997
 30
0.0
 11
73.1123156769919547
 21
50.9063661474843627
 31
0.0
  0
LINE
  5
1FFF
  8
0
 10
73.0637661047442748
 20
50.3514419754101823
 30
0.0
 11
73.2121851047442647
 21
52.0478789754101783
 31
0.0
  0
LINE
  5
2000
  8
0
 10
72.7668508296371215
 20
50.3774192728173915
 30
0.0
 11
72.915270104744252
 21
52.0738549754101712
 31
0.0
  0
ARC
  5
2001
  8
0
 10
72.0312555603307487
 20
52.0608664677475019
 30
0.0
 40
0.1490245531800447
 50
355.0003293164464253
 51
174.9999374611491874
  0
ARC
  5
2002
  8
0
 10
71.8828370135804562
 20
50.3644312405284609
 30
0.0
 40
0.1490242561637226
 50
175.0001109367200058
 51
354.9996351366525005
  0
LINE
  5
2003
  8
0
 10
72.8667204871676404
 20
51.5189317382175105
 30
0.0
 11
72.0145668324628332
 21
50.2947499392894315
 31
0.0
  0
LINE
  5
2004
  8
0
 10
72.9319981894217335
 20
52.1305491785979029
 30
0.0
 11
72.0798436769919135
 21
50.9063661474843911
 31
0.0
  0
LINE
  5
2005
  8
0
 10
72.0312941047442905
 20
50.3514419754101823
 30
0.0
 11
72.1797131047442804
 21
52.0478789754101783
 31
0.0
  0
LINE
  5
2006
  8
0
 10
71.7343798145552114
 20
50.3774192728173915
 30
0.0
 11
71.8827981047442535
 21
52.0738549754101712
 31
0.0
  0
ARC
  5
2007
  8
0
 10
70.9987835603306934
 20
52.0608664677474735
 30
0.0
 40
0.1490245531800564
 50
355.0003293164579077
 51
174.9999374611377903
  0
ARC
  5
2008
  8
0
 10
70.8503650135804151
 20
50.3644312405284893
 30
0.0
 40
0.1490242561636937
 50
175.0001109367215975
 51
354.9996351366460203
  0
LINE
  5
2009
  8
0
 10
71.8342488556586432
 20
51.5189322675821586
 30
0.0
 11
70.9820948324625647
 21
50.294749939289062
 31
0.0
  0
LINE
  5
200A
  8
0
 10
71.8995260297554069
 20
52.1305489492254068
 30
0.0
 11
71.0473716769919292
 21
50.9063661474843627
 31
0.0
  0
LINE
  5
200B
  8
0
 10
70.9988221047442494
 20
50.3514419754101823
 30
0.0
 11
71.1472411047442961
 21
52.0478789754101783
 31
0.0
  0
LINE
  5
200C
  8
0
 10
70.7019078145552271
 20
50.3774192728173986
 30
0.0
 11
70.8503261047442834
 21
52.0738549754101712
 31
0.0
  0
ARC
  5
200D
  8
0
 10
69.9663120999437069
 20
52.060866920538011
 30
0.0
 40
0.1490240550817288
 50
355.000137812179787
 51
175.0000954572468004
  0
ARC
  5
200E
  8
0
 10
69.8178930204093717
 20
50.3644312323900181
 30
0.0
 40
0.1490242486514412
 50
175.0001075430706976
 51
354.9996380249083927
  0
LINE
  5
200F
  8
0
 10
70.8017768556586589
 20
51.5189322675821586
 30
0.0
 11
69.9496228434393288
 21
50.2947499550579735
 31
0.0
  0
LINE
  5
2010
  8
0
 10
70.8670508651832733
 20
52.1305429665092319
 30
0.0
 11
70.0148995332407935
 21
50.9063645044011892
 31
0.0
  0
LINE
  5
2011
  8
0
 10
69.9663501047442651
 20
50.3514419754101823
 30
0.0
 11
70.1147691047442549
 21
52.0478789754101783
 31
0.0
  0
LINE
  5
2012
  8
0
 10
69.6694358296371092
 20
50.3774192728173986
 30
0.0
 11
69.8178551047442966
 21
52.0738549754101712
 31
0.0
  0
ARC
  5
2013
  8
0
 10
68.9338405527348073
 20
52.0608663809235281
 30
0.0
 40
0.1490245531803593
 50
355.0003628253437
 51
174.9999039522514011
  0
ARC
  5
2014
  8
0
 10
68.7854215600241332
 20
50.3644316851811809
 30
0.0
 40
0.1490247467512349
 50
175.0002990474997091
 51
354.9994800302338263
  0
LINE
  5
2015
  8
0
 10
69.7693056309191775
 20
51.5189333813013306
 30
0.0
 11
68.9171544398521405
 21
50.2947551215711925
 31
0.0
  0
LINE
  5
2016
  8
0
 10
69.8345824615880701
 20
52.1305481330108975
 30
0.0
 11
68.9824286769919439
 21
50.9063661474843627
 31
0.0
  0
LINE
  5
2017
  8
0
 10
68.9338791047442783
 20
50.3514419754101823
 30
0.0
 11
69.0822981047442681
 21
52.0478789754101783
 31
0.0
  0
LINE
  5
2018
  8
0
 10
68.6369638296371249
 20
50.3774192728173986
 30
0.0
 11
68.7853831047442554
 21
52.0738549754101712
 31
0.0
  0
ARC
  5
2019
  8
0
 10
67.901368552734823
 20
52.0608663809235424
 30
0.0
 40
0.1490245531803747
 50
355.0003628253386978
 51
174.9999039522562896
  0
ARC
  5
201A
  8
0
 10
67.7529495600241489
 20
50.3644316851812022
 30
0.0
 40
0.1490247467512485
 50
175.0002990475028923
 51
354.9994800302288809
  0
LINE
  5
201B
  8
0
 10
68.7368334871676439
 20
51.5189317382175105
 30
0.0
 11
67.8846792752862598
 21
50.2947491388640273
 31
0.0
  0
LINE
  5
201C
  8
0
 10
68.8021111894216233
 20
52.1305491785977608
 30
0.0
 11
67.949956676991917
 21
50.9063661474843627
 31
0.0
  0
LINE
  5
201D
  8
0
 10
67.901407104744294
 20
50.3514419754101823
 30
0.0
 11
68.0498261047442838
 21
52.0478789754101783
 31
0.0
  0
LINE
  5
201E
  8
0
 10
67.6044918296371407
 20
50.3774192728173986
 30
0.0
 11
67.7529111047442711
 21
52.0738549754101712
 31
0.0
  0
ARC
  5
201F
  8
0
 10
66.8688965603308247
 20
52.060866467748717
 30
0.0
 40
0.1490245531800374
 50
355.0003293159771829
 51
174.9999374616184014
  0
ARC
  5
2020
  8
0
 10
66.7204780135804185
 20
50.3644312405284609
 30
0.0
 40
0.1490242561637085
 50
175.0001109367200058
 51
354.9996351366525005
  0
LINE
  5
2021
  8
0
 10
67.7043614871676596
 20
51.5189317382175318
 30
0.0
 11
66.8522078324627387
 21
50.2947499392892823
 31
0.0
  0
LINE
  5
2022
  8
0
 10
67.7696391894214685
 20
52.1305491785975406
 30
0.0
 11
66.9174846769919327
 21
50.9063661474843627
 31
0.0
  0
LINE
  5
2023
  8
0
 10
66.8689351047442528
 20
50.3514419754101823
 30
0.0
 11
67.0173541047442995
 21
52.0478789754101783
 31
0.0
  0
LINE
  5
2024
  8
0
 10
66.5720208145552306
 20
50.3774192728173986
 30
0.0
 11
66.7204391047442869
 21
52.0738549754101712
 31
0.0
  0
ARC
  5
2025
  8
0
 10
65.8364245603307268
 20
52.0608664677474735
 30
0.0
 40
0.1490245531800416
 50
355.0003293164594993
 51
174.9999374611361986
  0
ARC
  5
2026
  8
0
 10
65.6880060135804342
 20
50.3644312405284609
 30
0.0
 40
0.1490242561637097
 50
175.0001109367150889
 51
354.9996351366559111
  0
LINE
  5
2027
  8
0
 10
66.6718898556586623
 20
51.5189322675821586
 30
0.0
 11
65.8197358324626975
 21
50.294749939289261
 31
0.0
  0
LINE
  5
2028
  8
0
 10
66.7371670297532091
 20
52.1305489492222023
 30
0.0
 11
65.8850126769918916
 21
50.9063661474843272
 31
0.0
  0
LINE
  5
2029
  8
0
 10
65.8364631047442685
 20
50.3514419754101823
 30
0.0
 11
65.9848821047442584
 21
52.0478789754101783
 31
0.0
  0
LINE
  5
202A
  8
0
 10
65.5395488145552463
 20
50.3774192728173986
 30
0.0
 11
65.6879671047442457
 21
52.0738549754101712
 31
0.0
  0
ARC
  5
202B
  8
0
 10
64.8039530999436693
 20
52.060866920538011
 30
0.0
 40
0.1490240550817572
 50
355.0001378121813786
 51
175.0000954572450951
  0
ARC
  5
202C
  8
0
 10
64.6555340204093341
 20
50.3644312323900181
 30
0.0
 40
0.1490242486513994
 50
175.0001075430674007
 51
354.9996380249132812
  0
LINE
  5
202D
  8
0
 10
65.6394178556586212
 20
51.5189322675821586
 30
0.0
 11
64.7872638434390637
 21
50.2947499550575969
 31
0.0
  0
LINE
  5
202E
  8
0
 10
65.7046918651833494
 20
52.1305429665093527
 30
0.0
 11
64.8525405332407558
 21
50.9063645044011821
 31
0.0
  0
LINE
  5
202F
  8
0
 10
64.8039911047442843
 20
50.3514419754101823
 30
0.0
 11
64.9524101047442741
 21
52.0478789754101783
 31
0.0
  0
LINE
  5
2030
  8
0
 10
64.5070768296371284
 20
50.3774192728173986
 30
0.0
 11
64.6554961047442447
 21
52.0738549754101712
 31
0.0
  0
ARC
  5
2031
  8
0
 10
63.7714815527348193
 20
52.0608663809235495
 30
0.0
 40
0.149024553180376
 50
355.000362825333923
 51
174.9999039522629118
  0
ARC
  5
2032
  8
0
 10
63.6230625600241524
 20
50.3644316851812022
 30
0.0
 40
0.1490247467512266
 50
175.0002990475045976
 51
354.9994800302304725
  0
LINE
  5
2033
  8
0
 10
64.6069466309191967
 20
51.5189333813013306
 30
0.0
 11
63.7547954398520389
 21
50.2947551215710433
 31
0.0
  0
LINE
  5
2034
  8
0
 10
64.6722234615879046
 20
52.1305481330107199
 30
0.0
 11
63.8200696769919205
 21
50.9063661474843485
 31
0.0
  0
LINE
  5
2035
  8
0
 10
63.7715201047442903
 20
50.3514419754101823
 30
0.0
 11
63.9199391047442873
 21
52.0478789754101783
 31
0.0
  0
LINE
  5
2036
  8
0
 10
63.4746048296371512
 20
50.3774192728173986
 30
0.0
 11
63.6230241047442675
 21
52.0738549754101712
 31
0.0
  0
ARC
  5
2037
  8
0
 10
62.7390095527348421
 20
52.0608663809235708
 30
0.0
 40
0.1490245531803489
 50
355.0003628253272723
 51
174.9999039522678004
  0
ARC
  5
2038
  8
0
 10
62.5905905600241681
 20
50.3644316851812022
 30
0.0
 40
0.1490247467512414
 50
175.0002990475028923
 51
354.9994800302304725
  0
LINE
  5
2039
  8
0
 10
63.574474487167663
 20
51.5189317382175389
 30
0.0
 11
62.7223202752861582
 21
50.2947491388639207
 31
0.0
  0
LINE
  5
203A
  8
0
 10
63.639752189421408
 20
52.1305491785974482
 30
0.0
 11
62.7875976769919291
 21
50.9063661474843485
 31
0.0
  0
LINE
  5
203B
  8
0
 10
62.7390481047442634
 20
50.3514419754101823
 30
0.0
 11
62.8874671047442391
 21
52.0478789754101783
 31
0.0
  0
LINE
  5
203C
  8
0
 10
62.442132829637103
 20
50.3774192728173986
 30
0.0
 11
62.5905521047442903
 21
52.0738549754101712
 31
0.0
  0
LINE
  5
203D
  8
0
 10
81.714612310313214
 20
54.5398359754101705
 30
0.0
 11
82.8963001047442845
 21
54.5398359754101705
 31
0.0
  0
LINE
  5
203E
  8
0
 10
81.5506198036213164
 20
53.8997002336132667
 30
0.0
 11
82.9546748261716402
 21
54.5518355933980388
 31
0.0
  0
LINE
  5
203F
  8
0
 10
81.6706680970601155
 20
54.2840866685907883
 30
0.0
 11
82.2212988033872989
 21
54.5398359754101776
 31
0.0
  0
LINE
  5
2040
  8
0
 10
81.0609012296075662
 20
52.9650064303981978
 30
0.0
 11
82.6915973330287102
 21
53.1627249309121623
 31
0.0
  0
LINE
  5
2041
  8
0
 10
81.1905718755865138
 20
53.2809600991409127
 30
0.0
 11
81.9903951566076188
 21
53.3779369792802569
 31
0.0
  0
LINE
  5
2042
  8
0
 10
80.4001419343813382
 20
52.2387668867718276
 30
0.0
 11
82.0121305056559322
 21
51.9228945029401388
 31
0.0
  0
LINE
  5
2043
  8
0
 10
80.2815847203634689
 20
52.5657160678761102
 30
0.0
 11
81.4117447303867721
 21
52.3442588191978189
 31
0.0
  0
LINE
  5
2044
  8
0
 10
79.6691092566983912
 20
51.7980496599156197
 30
0.0
 11
80.9821398027747819
 21
50.9540993213385818
 31
0.0
  0
LINE
  5
2045
  8
0
 10
79.5236004838517232
 20
52.2458798701401292
 30
0.0
 11
80.4720308876726449
 21
51.6362771186636493
 31
0.0
  0
LINE
  5
2046
  8
0
 10
78.7579100901095899
 20
51.6256984159264789
 30
0.0
 11
79.8119650877757749
 21
50.4349802617661425
 31
0.0
  0
LINE
  5
2047
  8
0
 10
78.7142553654364292
 20
52.1246741052368634
 30
0.0
 11
79.5634814216510335
 21
51.1653416333479711
 31
0.0
  0
LINE
  5
2048
  8
0
 10
77.7347787223209252
 20
51.5189317382175602
 30
0.0
 11
78.5869330978123344
 21
50.2947489038261892
 31
0.0
  0
LINE
  5
2049
  8
0
 10
77.6609839106497475
 20
52.1446939297398586
 30
0.0
 11
78.5214644655559368
 21
50.9085499223395175
 31
0.0
  0
ARC
  5
204A
  8
0
 10
77.6861906494644359
 20
50.3644316851808966
 30
0.0
 40
0.1490247467512226
 50
185.0005199696566933
 51
4.9997009526082152
  0
ARC
  5
204B
  8
0
 10
78.7186626443216824
 20
50.3644317749309565
 30
0.0
 40
0.1490247494511012
 50
185.0005545170124037
 51
4.9996662236601317
  0
ARC
  5
204C
  8
0
 10
79.925584671326817
 20
50.529800770491839
 30
0.0
 40
0.1479876300280172
 50
198.0000417046867938
 51
18.0002085453923897
  0
LINE
  5
204D
  8
0
 10
79.4903771047442547
 20
52.3481309754101574
 30
0.0
 11
80.066329104744284
 21
50.575531975410172
 31
0.0
  0
LINE
  5
204E
  8
0
 10
79.1835174416717678
 20
52.334749975410169
 30
0.0
 11
79.7848401047442621
 21
50.4840699754101578
 31
0.0
  0
ARC
  5
204F
  8
0
 10
81.0584719800909852
 20
51.0808814587901026
 30
0.0
 40
0.1479876553150878
 50
215.9997712778273069
 51
36.0002657488792366
  0
LINE
  5
2050
  8
0
 10
80.1913641047442951
 20
52.5261249754101698
 30
0.0
 11
81.1781961047443019
 21
51.1678669754101918
 31
0.0
  0
LINE
  5
2051
  8
0
 10
79.8987791047442784
 20
52.4252909754101779
 30
0.0
 11
80.9387471047442659
 21
50.9938969754101734
 31
0.0
  0
ARC
  5
2052
  8
0
 10
82.0448176213646434
 20
52.0672271000632421
 30
0.0
 40
0.1479876553150941
 50
233.9997342509716134
 51
54.0002287223195765
  0
LINE
  5
2053
  8
0
 10
80.9661021047442659
 20
53.0338819754101678
 30
0.0
 11
82.1318021047442812
 21
52.1869519754101816
 31
0.0
  0
LINE
  5
2054
  8
0
 10
80.7343171047442638
 20
52.8364389754101822
 30
0.0
 11
81.9578321047442842
 21
51.9475029754101669
 31
0.0
  0
ARC
  5
2055
  8
0
 10
82.6780895043563646
 20
53.3100945080280866
 30
0.0
 40
0.1479874755190892
 50
252.0000998503927008
 51
72.0000181164022592
  0
LINE
  5
2056
  8
0
 10
81.5256976843968459
 20
53.840132787069507
 30
0.0
 11
82.7238201047442772
 21
53.4508389754101572
 31
0.0
  0
LINE
  5
2057
  8
0
 10
81.390264980343261
 20
53.5729313489210881
 30
0.0
 11
82.632359104744296
 21
53.1693499754101708
 31
0.0
  0
ARC
  5
2058
  8
0
 10
82.8963001047442845
 20
54.6878239754101685
 30
0.0
 40
0.147988
 50
270.0
 51
90.0
  0
LINE
  5
2059
  8
0
 10
78.8671203852704252
 20
50.3774192728173915
 30
0.0
 11
78.6958761047442863
 21
52.334749975410169
 31
0.0
  0
LINE
  5
205A
  8
0
 10
78.5702051047442751
 20
50.3514419754101823
 30
0.0
 11
78.3966881047442712
 21
52.334749975410169
 31
0.0
  0
LINE
  5
205B
  8
0
 10
77.8346483798513873
 20
50.3774192728173773
 30
0.0
 11
77.6862291047442568
 21
52.0738549754101712
 31
0.0
  0
LINE
  5
205C
  8
0
 10
77.5377331047442908
 20
50.3514419754101823
 30
0.0
 11
77.3893141047443009
 21
52.0478789754101783
 31
0.0
  0
ARC
  5
205D
  8
0
 10
77.537771656753705
 20
52.0608663809241179
 30
0.0
 40
0.1490245531803514
 50
5.0000960475213718
 51
184.9996371748817978
  0
ARC
  5
205E
  8
0
 10
58.5678351047442902
 20
54.6878239754101685
 30
0.0
 40
0.147988
 50
90.0
 51
270.0
  0
LINE
  5
205F
  8
0
 10
59.7320681047442577
 20
54.5398359754101705
 30
0.0
 11
58.5678351047442902
 21
54.5398359754101705
 31
0.0
  0
LINE
  5
2060
  8
0
 10
60.0743475588326419
 20
53.5730864429409692
 30
0.0
 11
58.8317761047442787
 21
53.1693499754101708
 31
0.0
  0
LINE
  5
2061
  8
0
 10
59.9389353838885697
 20
53.840294551297788
 30
0.0
 11
58.7403151047442975
 21
53.4508389754101572
 31
0.0
  0
ARC
  5
2062
  8
0
 10
58.7860457051331196
 20
53.3100945080283495
 30
0.0
 40
0.1479874755190884
 50
107.9999818839689993
 51
287.9999001492412276
  0
LINE
  5
2063
  8
0
 10
60.7301072769558914
 20
52.8366483446812794
 30
0.0
 11
59.5063031047442905
 21
51.9475029754101669
 31
0.0
  0
LINE
  5
2064
  8
0
 10
60.4983567666829387
 20
53.0341171293998315
 30
0.0
 11
59.3323331047442935
 21
52.1869519754101816
 31
0.0
  0
ARC
  5
2065
  8
0
 10
59.4193175881242226
 20
52.0672271000634623
 30
0.0
 40
0.1479876553150951
 50
125.9997712778213952
 51
306.0002657488873865
  0
LINE
  5
2066
  8
0
 10
61.5654507376478293
 20
52.4254212265047599
 30
0.0
 11
60.5253881047443016
 21
50.9938969754101734
 31
0.0
  0
LINE
  5
2067
  8
0
 10
61.27290262881899
 20
52.5263060028056117
 30
0.0
 11
60.2859391047442728
 21
51.1678669754101918
 31
0.0
  0
ARC
  5
2068
  8
0
 10
60.4056632293973621
 20
51.0808814587897899
 30
0.0
 40
0.1479876553150925
 50
143.9997342509680038
 51
324.0002287223254029
  0
LINE
  5
2069
  8
0
 10
61.9737591047442606
 20
52.3481309754101574
 30
0.0
 11
61.3978061047442907
 21
50.575531975410172
 31
0.0
  0
ARC
  5
206A
  8
0
 10
61.5385505381617577
 20
50.5298007704918106
 30
0.0
 40
0.1479876300279689
 50
161.999791454604491
 51
341.9999582953183221
  0
LINE
  5
206B
  8
0
 10
61.940535916695751
 20
52.2458806356921102
 30
0.0
 11
60.9921043218159227
 21
51.6362771186636493
 31
0.0
  0
LINE
  5
206C
  8
0
 10
61.7950268245194323
 20
51.7980502202195865
 30
0.0
 11
60.4892975027900022
 21
50.9587927433418173
 31
0.0
  0
LINE
  5
206D
  8
0
 10
61.1829494767220012
 20
52.5657942503411491
 30
0.0
 11
60.0523910902612101
 21
52.3442589389557895
 31
0.0
  0
LINE
  5
206E
  8
0
 10
61.0639932751072365
 20
52.2387668867718418
 30
0.0
 11
59.4520047038281518
 21
51.9228945029392719
 31
0.0
  0
LINE
  5
206F
  8
0
 10
60.2741917891107093
 20
53.2808839002768906
 30
0.0
 11
59.4737400528808919
 21
53.3779369792802711
 31
0.0
  0
LINE
  5
2070
  8
0
 10
60.4032339798810085
 20
52.9650064303981907
 30
0.0
 11
58.7725423708770265
 21
53.1627243859734406
 31
0.0
  0
LINE
  5
2071
  8
0
 10
59.7941015610812201
 20
54.2837924848266269
 30
0.0
 11
59.2428364102472571
 21
54.5398359754101705
 31
0.0
  0
LINE
  5
2072
  8
0
 10
59.9142143557957567
 20
53.8993755953649085
 30
0.0
 11
58.5094603833163589
 21
54.5518355933982804
 31
0.0
  0
LINE
  5
2073
  8
0
 10
59.7500908991753406
 20
54.5398359754101705
 30
0.0
 11
58.5678351047442902
 21
54.5398359754101705
 31
0.0
  0
LINE
  5
2074
  8
0
 10
59.7320681047442577
 20
54.8358119754101665
 30
0.0
 11
58.5678351047442902
 21
54.8358119754101665
 31
0.0
  0
LINE
  5
2075
  8
0
 10
59.803248077275903
 20
55.4247318995133185
 30
0.0
 11
58.5094604202794173
 21
54.8238123732889093
 31
0.0
  0
LINE
  5
2076
  8
0
 10
59.7435763248480498
 20
55.0683872802688086
 30
0.0
 11
59.2428364191735
 21
54.8358119754101665
 31
0.0
  0
LINE
  5
2077
  8
0
 10
59.7326353303130873
 20
54.8358119754101665
 30
0.0
 11
58.5678351047442902
 21
54.8358119754101665
 31
0.0
  0
LINE
  5
2078
  8
0
 10
62.280772104744301
 20
52.3352249754101706
 30
0.0
 11
61.6792951047442628
 21
50.4840699754101578
 31
0.0
  0
LINE
  5
2079
  8
0
 10
61.923638061484148
 20
51.2360799210669597
 30
0.0
 11
62.5905521047442903
 21
52.0738549754101712
 31
0.0
  0
LINE
  5
207A
  8
0
 10
61.6792951047442628
 20
50.4840699754101578
 30
0.0
 11
62.5500722353798366
 21
51.6111691444996623
 31
0.0
  0
LINE
  5
207B
  8
0
 10
64.4323511047442707
 20
50.2154439754101816
 30
0.0
 11
77.0323511047442935
 21
50.2154439754101816
 31
0.0
  0
LINE
  5
207C
  8
0
 10
77.2320681047442577
 20
57.334749975410169
 30
0.0
 11
77.2320681047442577
 21
52.334749975410169
 31
0.0
  0
LINE
  5
207D
  8
0
 10
79.2320681047442434
 20
57.334749975410169
 30
0.0
 11
77.2320681047442577
 21
57.334749975410169
 31
0.0
  0
LINE
  5
207E
  8
0
 10
79.2320681047442434
 20
52.334749975410169
 30
0.0
 11
77.2320681047442577
 21
52.334749975410169
 31
0.0
  0
LINE
  5
207F
  8
0
 10
62.2326351047442969
 20
57.334749975410169
 30
0.0
 11
64.232635104744304
 21
57.334749975410169
 31
0.0
  0
LINE
  5
2080
  8
0
 10
64.232635104744304
 20
57.334749975410169
 30
0.0
 11
64.232635104744304
 21
52.334749975410169
 31
0.0
  0
ARC
  5
2081
  8
0
 10
62.2326351047442969
 20
54.834749975410169
 30
0.0
 40
2.5
 50
90.0
 51
270.0
  0
LINE
  5
2082
  8
0
 10
62.2326351047442969
 20
52.334749975410169
 30
0.0
 11
64.232635104744304
 21
52.334749975410169
 31
0.0
  0
LINE
  5
2083
  8
0
 10
64.4323511047442707
 20
58.107533965924361
 30
0.0
 11
64.4323511047442707
 21
60.4154439754101702
 31
0.0
  0
LINE
  5
2084
  8
0
 10
64.4323511047442707
 20
51.7859537377479668
 30
0.0
 11
64.4323511047442707
 21
57.5896942130723914
 31
0.0
  0
LINE
  5
2085
  8
0
 10
77.0323511047442935
 20
58.3308496309747611
 30
0.0
 11
77.0323511047442935
 21
60.4154439754101702
 31
0.0
  0
LINE
  5
2086
  8
0
 10
77.0323511047442935
 20
52.143008108218531
 30
0.0
 11
77.0323511047442935
 21
57.2326398426017988
 31
0.0
  0
LINE
  5
2087
  8
0
 10
77.0323511047442935
 20
51.5664896544368503
 30
0.0
 11
77.0323511047442935
 21
51.7722432531979777
 31
0.0
  0
ARC
  5
2088
  8
0
 10
62.2326351047442969
 20
54.834749975410169
 30
0.0
 40
2.0
 50
90.0
 51
270.0
  0
LINE
  5
2089
  8
0
 10
62.2326351047442969
 20
56.8347499754101833
 30
0.0
 11
64.232635104744304
 21
56.8347499754101833
 31
0.0
  0
LINE
  5
208A
  8
0
 10
62.2326351047442969
 20
52.834749975410169
 30
0.0
 11
64.232635104744304
 21
52.834749975410169
 31
0.0
  0
LINE
  5
208B
  8
0
 10
79.2320681047442434
 20
56.8347499754101833
 30
0.0
 11
77.2320681047442577
 21
56.8347499754101833
 31
0.0
  0
ARC
  5
208C
  8
0
 10
79.2320681047442434
 20
54.834749975410169
 30
0.0
 40
2.0
 50
270.0
 51
90.0
  0
LINE
  5
208D
  8
0
 10
79.2320681047442434
 20
52.834749975410169
 30
0.0
 11
77.2320681047442577
 21
52.834749975410169
 31
0.0
  0
LINE
  5
2090
  8
0
 10
77.0163598404569711
 20
57.7861856920620269
 30
0.0
 11
77.4887982031787033
 21
58.464877468903282
 31
0.0
  0
LINE
  5
2091
  8
0
 10
76.975813756530556
 20
58.2496295703924432
 30
0.0
 11
77.5544609442021624
 21
59.080898830860491
 31
0.0
  0
ARC
  5
2092
  8
0
 10
76.7595900135804072
 20
59.011216710291869
 30
0.0
 40
0.149024256163722
 50
5.0003648633507467
 51
184.9998890632766972
  0
ARC
  5
2093
  8
0
 10
76.9080085603307566
 20
57.3147814830728635
 30
0.0
 40
0.1490245531800441
 50
185.0000625388522906
 51
4.9996706835520257
  0
LINE
  5
2094
  8
0
 10
76.9080471047442984
 20
59.0242059754101831
 30
0.0
 11
77.0564661047442883
 21
57.32776897541018
 31
0.0
  0
LINE
  5
2095
  8
0
 10
76.6111328145552193
 20
58.9982286780029526
 30
0.0
 11
76.7595511047442756
 21
57.3017929754101729
 31
0.0
  0
LINE
  5
2096
  8
0
 10
76.6699458688316895
 20
58.3259896640241209
 30
0.0
 11
76.1444538384848215
 21
59.08089800014654
 31
0.0
  0
LINE
  5
2097
  8
0
 10
76.7221488245763226
 20
57.7293047285400007
 30
0.0
 11
76.2101160064536316
 21
58.4648774672599174
 31
0.0
  0
ARC
  5
2098
  8
0
 10
76.0127240135804527
 20
59.0112167102918406
 30
0.0
 40
0.1490242561637349
 50
5.0003648633572357
 51
184.9998890632701887
  0
ARC
  5
2099
  8
0
 10
76.1611425603307453
 20
57.3147814830728493
 30
0.0
 40
0.1490245531800306
 50
185.0000625388491073
 51
4.9996706835552711
  0
LINE
  5
209A
  8
0
 10
76.161181104744287
 20
59.0242059754101831
 30
0.0
 11
76.3096001047442769
 21
57.32776897541018
 31
0.0
  0
LINE
  5
209B
  8
0
 10
75.8642668145551937
 20
58.9982286780029526
 30
0.0
 11
76.0126851047442642
 21
57.3017929754101729
 31
0.0
  0
ARC
  5
209C
  8
0
 10
75.1286710999436878
 20
57.3147810302823402
 30
0.0
 40
0.149024055081727
 50
184.9999045427612998
 51
4.9998621878119707
  0
ARC
  5
209D
  8
0
 10
74.9802520204093526
 20
59.0112167184303189
 30
0.0
 40
0.1490242486514388
 50
5.0003619750966113
 51
184.9998924569179053
  0
LINE
  5
209E
  8
0
 10
75.9641358556586397
 20
57.8567156832381997
 30
0.0
 11
75.1119818434393096
 21
59.0808979957623706
 31
0.0
  0
LINE
  5
209F
  8
0
 10
76.0294129918222552
 20
57.2450990733048926
 30
0.0
 11
75.1772585330577954
 21
58.4692834485105379
 31
0.0
  0
LINE
  5
20A0
  8
0
 10
75.1287091047443027
 20
59.0242059754101831
 30
0.0
 11
75.2771281047442926
 21
57.32776897541018
 31
0.0
  0
LINE
  5
20A1
  8
0
 10
74.8317948296371469
 20
58.9982286780029668
 30
0.0
 11
74.9802141047442774
 21
57.3017929754101729
 31
0.0
  0
ARC
  5
20A2
  8
0
 10
74.0961990999437035
 20
57.3147810302823402
 30
0.0
 40
0.1490240550817282
 50
184.9999045427547912
 51
4.9998621878169791
  0
ARC
  5
20A3
  8
0
 10
73.947780560024114
 20
59.011216265639149
 30
0.0
 40
0.1490247467512201
 50
5.0005199697662182
 51
184.999700952498614
  0
LINE
  5
20A4
  8
0
 10
74.9316646309192151
 20
57.8567145695189993
 30
0.0
 11
74.079513439851894
 21
59.0808928292494926
 31
0.0
  0
LINE
  5
20A5
  8
0
 10
74.9969414615882215
 20
57.2450998178091979
 30
0.0
 11
74.1447873028580489
 21
58.4692823408069771
 31
0.0
  0
LINE
  5
20A6
  8
0
 10
74.0962381047442591
 20
59.0242059754101831
 30
0.0
 11
74.2446561047442515
 21
57.32776897541018
 31
0.0
  0
LINE
  5
20A7
  8
0
 10
73.7993228296371058
 20
58.9982286780029526
 30
0.0
 11
73.9477421047442931
 21
57.3017929754101729
 31
0.0
  0
ARC
  5
20A8
  8
0
 10
73.0637275527348606
 20
57.3147815698968017
 30
0.0
 40
0.1490245531803458
 50
185.000096047745302
 51
4.9996371746595338
  0
ARC
  5
20A9
  8
0
 10
72.9153085600241866
 20
59.0112162656391206
 30
0.0
 40
0.1490247467512602
 50
5.0005199697777147
 51
184.9997009524838916
  0
LINE
  5
20AA
  8
0
 10
73.8991924871676247
 20
57.8567162126028265
 30
0.0
 11
73.0470382752862974
 21
59.0808988119562528
 31
0.0
  0
LINE
  5
20AB
  8
0
 10
73.9644694615881235
 20
57.2450998178093471
 30
0.0
 11
73.1123156769919547
 21
58.4692818033359814
 31
0.0
  0
LINE
  5
20AC
  8
0
 10
73.0637661047442748
 20
59.0242059754101831
 30
0.0
 11
73.2121851047442647
 21
57.32776897541018
 31
0.0
  0
LINE
  5
20AD
  8
0
 10
72.7668508296371215
 20
58.9982286780029526
 30
0.0
 11
72.915270104744252
 21
57.3017929754101729
 31
0.0
  0
ARC
  5
20AE
  8
0
 10
72.0312555603307487
 20
57.3147814830728493
 30
0.0
 40
0.1490245531800447
 50
185.0000625388491073
 51
4.9996706835536493
  0
ARC
  5
20AF
  8
0
 10
71.8828370135804562
 20
59.011216710291869
 30
0.0
 40
0.1490242561637226
 50
5.0003648633475031
 51
184.9998890632782889
  0
LINE
  5
20B0
  8
0
 10
72.8667204871676404
 20
57.8567162126028407
 30
0.0
 11
72.0145668324628332
 21
59.0808980115309268
 31
0.0
  0
LINE
  5
20B1
  8
0
 10
72.9319981894217335
 20
57.2450987722224625
 30
0.0
 11
72.0798436769919135
 21
58.4692818033359671
 31
0.0
  0
LINE
  5
20B2
  8
0
 10
72.0312941047442905
 20
59.0242059754101831
 30
0.0
 11
72.1797131047442804
 21
57.32776897541018
 31
0.0
  0
LINE
  5
20B3
  8
0
 10
71.7343798145552114
 20
58.9982286780029526
 30
0.0
 11
71.8827981047442535
 21
57.3017929754101729
 31
0.0
  0
ARC
  5
20B4
  8
0
 10
70.9987835603306934
 20
57.3147814830728777
 30
0.0
 40
0.1490245531800564
 50
185.0000625388605897
 51
4.9996706835421501
  0
ARC
  5
20B5
  8
0
 10
70.8503650135804151
 20
59.011216710291869
 30
0.0
 40
0.1490242561636937
 50
5.0003648633539921
 51
184.9998890632766972
  0
LINE
  5
20B6
  8
0
 10
71.8342488556586432
 20
57.8567156832381926
 30
0.0
 11
70.9820948324625647
 21
59.0808980115312821
 31
0.0
  0
LINE
  5
20B7
  8
0
 10
71.8995260297554069
 20
57.2450990015949301
 30
0.0
 11
71.0473716769919292
 21
58.4692818033359814
 31
0.0
  0
LINE
  5
20B8
  8
0
 10
70.9988221047442494
 20
59.0242059754101831
 30
0.0
 11
71.1472411047442961
 21
57.32776897541018
 31
0.0
  0
LINE
  5
20B9
  8
0
 10
70.7019078145552271
 20
58.9982286780029526
 30
0.0
 11
70.8503261047442834
 21
57.3017929754101729
 31
0.0
  0
ARC
  5
20BA
  8
0
 10
69.9663120999437069
 20
57.3147810302823402
 30
0.0
 40
0.1490240550817288
 50
184.9999045427531996
 51
4.9998621878202254
  0
ARC
  5
20BB
  8
0
 10
69.8178930204093717
 20
59.0112167184303189
 30
0.0
 40
0.1490242486514412
 50
5.000361975091602
 51
184.9998924569293024
  0
LINE
  5
20BC
  8
0
 10
70.8017768556586589
 20
57.8567156832381997
 30
0.0
 11
69.9496228434393288
 21
59.0808979957623706
 31
0.0
  0
LINE
  5
20BD
  8
0
 10
70.8670508651832733
 20
57.245104984311098
 30
0.0
 11
70.0148995332407935
 21
58.469283446419162
 31
0.0
  0
LINE
  5
20BE
  8
0
 10
69.9663501047442651
 20
59.0242059754101831
 30
0.0
 11
70.1147691047442549
 21
57.32776897541018
 31
0.0
  0
LINE
  5
20BF
  8
0
 10
69.6694358296371092
 20
58.9982286780029526
 30
0.0
 11
69.8178551047442966
 21
57.3017929754101729
 31
0.0
  0
ARC
  5
20C0
  8
0
 10
68.9338405527348073
 20
57.314781569896823
 30
0.0
 40
0.1490245531803593
 50
185.0000960477485137
 51
4.9996371746562902
  0
ARC
  5
20C1
  8
0
 10
68.7854215600241332
 20
59.011216265639149
 30
0.0
 40
0.1490247467512349
 50
5.0005199697662182
 51
184.9997009525002909
  0
LINE
  5
20C2
  8
0
 10
69.7693056309191775
 20
57.8567145695190206
 30
0.0
 11
68.9171544398521405
 21
59.0808928292491586
 31
0.0
  0
LINE
  5
20C3
  8
0
 10
69.8345824615880701
 20
57.2450998178094324
 30
0.0
 11
68.9824286769919439
 21
58.4692818033359814
 31
0.0
  0
LINE
  5
20C4
  8
0
 10
68.9338791047442783
 20
59.0242059754101831
 30
0.0
 11
69.0822981047442681
 21
57.32776897541018
 31
0.0
  0
LINE
  5
20C5
  8
0
 10
68.6369638296371249
 20
58.9982286780029526
 30
0.0
 11
68.7853831047442554
 21
57.3017929754101729
 31
0.0
  0
ARC
  5
20C6
  8
0
 10
67.901368552734823
 20
57.3147815698968017
 30
0.0
 40
0.1490245531803747
 50
185.0000960477437104
 51
4.9996371746612978
  0
ARC
  5
20C7
  8
0
 10
67.7529495600241489
 20
59.011216265639149
 30
0.0
 40
0.1490247467512485
 50
5.0005199697710836
 51
184.999700952496994
  0
LINE
  5
20C8
  8
0
 10
68.7368334871676439
 20
57.8567162126028265
 30
0.0
 11
67.8846792752862598
 21
59.0808988119563026
 31
0.0
  0
LINE
  5
20C9
  8
0
 10
68.8021111894216233
 20
57.2450987722225975
 30
0.0
 11
67.949956676991917
 21
58.4692818033359671
 31
0.0
  0
LINE
  5
20CA
  8
0
 10
67.901407104744294
 20
59.0242059754101831
 30
0.0
 11
68.0498261047442838
 21
57.32776897541018
 31
0.0
  0
LINE
  5
20CB
  8
0
 10
67.6044918296371407
 20
58.9982286780029526
 30
0.0
 11
67.7529111047442711
 21
57.3017929754101729
 31
0.0
  0
ARC
  5
20CC
  8
0
 10
66.8688965603308247
 20
57.3147814830716413
 30
0.0
 40
0.1490245531800374
 50
185.0000625383798933
 51
4.9996706840227816
  0
ARC
  5
20CD
  8
0
 10
66.7204780135804185
 20
59.011216710291869
 30
0.0
 40
0.1490242561637085
 50
5.0003648633475031
 51
184.9998890632782889
  0
LINE
  5
20CE
  8
0
 10
67.7043614871676596
 20
57.8567162126028194
 30
0.0
 11
66.8522078324627387
 21
59.0808980115310689
 31
0.0
  0
LINE
  5
20CF
  8
0
 10
67.7696391894214685
 20
57.2450987722228319
 30
0.0
 11
66.9174846769919327
 21
58.4692818033359671
 31
0.0
  0
LINE
  5
20D0
  8
0
 10
66.8689351047442528
 20
59.0242059754101831
 30
0.0
 11
67.0173541047442995
 21
57.32776897541018
 31
0.0
  0
LINE
  5
20D1
  8
0
 10
66.5720208145552306
 20
58.9982286780029526
 30
0.0
 11
66.7204391047442869
 21
57.3017929754101729
 31
0.0
  0
ARC
  5
20D2
  8
0
 10
65.8364245603307268
 20
57.3147814830728919
 30
0.0
 40
0.1490245531800416
 50
185.0000625388638014
 51
4.9996706835389073
  0
ARC
  5
20D3
  8
0
 10
65.6880060135804342
 20
59.0112167102918903
 30
0.0
 40
0.1490242561637097
 50
5.0003648633441156
 51
184.9998890632847974
  0
LINE
  5
20D4
  8
0
 10
66.6718898556586623
 20
57.8567156832381997
 30
0.0
 11
65.8197358324626975
 21
59.0808980115310973
 31
0.0
  0
LINE
  5
20D5
  8
0
 10
66.7371670297532091
 20
57.2450990015981489
 30
0.0
 11
65.8850126769918916
 21
58.4692818033360027
 31
0.0
  0
LINE
  5
20D6
  8
0
 10
65.8364631047442685
 20
59.0242059754101831
 30
0.0
 11
65.9848821047442584
 21
57.32776897541018
 31
0.0
  0
LINE
  5
20D7
  8
0
 10
65.5395488145552463
 20
58.9982286780029526
 30
0.0
 11
65.6879671047442457
 21
57.3017929754101729
 31
0.0
  0
ARC
  5
20D8
  8
0
 10
64.8039530999436693
 20
57.3147810302823402
 30
0.0
 40
0.1490240550817572
 50
184.9999045427547912
 51
4.9998621878186009
  0
ARC
  5
20D9
  8
0
 10
64.6555340204093341
 20
59.0112167184303473
 30
0.0
 40
0.1490242486513994
 50
5.0003619750867356
 51
184.9998924569325141
  0
LINE
  5
20DA
  8
0
 10
65.6394178556586212
 20
57.8567156832381997
 30
0.0
 11
64.7872638434390637
 21
59.08089799576274
 31
0.0
  0
LINE
  5
20DB
  8
0
 10
65.7046918651833494
 20
57.2451049843110127
 30
0.0
 11
64.8525405332407558
 21
58.4692834464191833
 31
0.0
  0
LINE
  5
20DC
  8
0
 10
64.8039911047442843
 20
59.0242059754101831
 30
0.0
 11
64.9524101047442741
 21
57.32776897541018
 31
0.0
  0
LINE
  5
20DD
  8
0
 10
64.5070768296371284
 20
58.9982286780029526
 30
0.0
 11
64.6554961047442447
 21
57.3017929754101729
 31
0.0
  0
ARC
  5
20DE
  8
0
 10
63.6230625600241524
 20
59.011216265639149
 30
0.0
 40
0.1490247467512266
 50
5.0005199697694618
 51
184.9997009524954024
  0
LINE
  5
20DF
  8
0
 10
64.6069466309191967
 20
57.8567145695189993
 30
0.0
 11
63.7547954398520389
 21
59.0808928292493007
 31
0.0
  0
LINE
  5
20E0
  8
0
 10
64.6722234615879046
 20
57.2450998178096313
 30
0.0
 11
63.8200696769919205
 21
58.4692818033360027
 31
0.0
  0
LINE
  5
20E1
  8
0
 10
63.7715201047442903
 20
59.0242059754101831
 30
0.0
 11
63.919328346408399
 21
57.334749975410169
 31
0.0
  0
LINE
  5
20E2
  8
0
 10
63.4746048296371512
 20
58.9982286780029526
 30
0.0
 11
63.6201407334250391
 21
57.334749975410169
 31
0.0
  0
ARC
  5
20E3
  8
0
 10
62.5905905600241681
 20
59.011216265639149
 30
0.0
 40
0.1490247467512414
 50
5.0005199697678391
 51
184.999700952496994
  0
LINE
  5
20E4
  8
0
 10
63.574474487167663
 20
57.8567162126028123
 30
0.0
 11
62.7223202752861582
 21
59.0808988119564376
 31
0.0
  0
LINE
  5
20E5
  8
0
 10
63.5773459352918735
 20
57.334749975410169
 30
0.0
 11
62.7875976769919291
 21
58.4692818033360027
 31
0.0
  0
LINE
  5
20E6
  8
0
 10
62.7390481047442634
 20
59.0242059754101831
 30
0.0
 11
62.8874671047442391
 21
57.32776897541018
 31
0.0
  0
LINE
  5
20E7
  8
0
 10
62.442132829637103
 20
58.9982286780029526
 30
0.0
 11
62.5876687334251187
 21
57.334749975410169
 31
0.0
  0
LINE
  5
20E8
  8
0
 10
81.1849490931006699
 20
56.3956009757674011
 30
0.0
 11
82.6915973330287102
 21
56.2129230199081888
 31
0.0
  0
LINE
  5
20E9
  8
0
 10
81.4064233206756853
 20
56.0685163207737602
 30
0.0
 11
81.9903951566076188
 21
55.99771097154008
 31
0.0
  0
LINE
  5
20EA
  8
0
 10
80.4001419343813382
 20
57.1368810640485094
 30
0.0
 11
82.0121305056559322
 21
57.4527534478802124
 31
0.0
  0
LINE
  5
20EB
  8
0
 10
80.6630702919804321
 20
56.8846847890384879
 30
0.0
 11
81.4117447303867721
 21
57.0313891316225465
 31
0.0
  0
LINE
  5
20EC
  8
0
 10
79.6691092566983912
 20
57.5775982909047386
 30
0.0
 11
80.9821398027747819
 21
58.4215486294817694
 31
0.0
  0
LINE
  5
20ED
  8
0
 10
79.7561049607668906
 20
57.2792101148949371
 30
0.0
 11
80.4720308876726449
 21
57.7393708321566805
 31
0.0
  0
LINE
  5
20EE
  8
0
 10
78.7579100901095899
 20
57.7499495348938865
 30
0.0
 11
79.8119650877757749
 21
58.9406676890542087
 31
0.0
  0
LINE
  5
20EF
  8
0
 10
78.7884161745639631
 20
57.334749975410169
 30
0.0
 11
79.5634814216510335
 21
58.21030631747238
 31
0.0
  0
LINE
  5
20F0
  8
0
 10
77.7347787223209252
 20
57.8567162126028123
 30
0.0
 11
78.5869330978123344
 21
59.0808990469941619
 31
0.0
  0
LINE
  5
20F1
  8
0
 10
77.7332363341893711
 20
57.334749975410169
 30
0.0
 11
78.5214644655559368
 21
58.4670980284808479
 31
0.0
  0
ARC
  5
20F2
  8
0
 10
77.6861906494644359
 20
59.0112162656394332
 30
0.0
 40
0.1490247467512226
 50
355.0002990473918203
 51
174.9994800303433067
  0
ARC
  5
20F3
  8
0
 10
78.7186626443216824
 20
59.0112161758893805
 30
0.0
 40
0.1490247494511012
 50
355.0003337763399145
 51
174.9994454829875963
  0
ARC
  5
20F4
  8
0
 10
79.925584671326817
 20
58.8458471803285121
 30
0.0
 40
0.1479876300280172
 50
341.999791454607589
 51
161.9999582953130925
  0
LINE
  5
20F5
  8
0
 10
79.5821972452208684
 20
57.3101104713761913
 30
0.0
 11
80.066329104744284
 21
58.8001159754101934
 31
0.0
  0
LINE
  5
20F6
  8
0
 10
79.2788535343172498
 20
57.3343121617899527
 30
0.0
 11
79.7848401047442621
 21
58.891577975410172
 31
0.0
  0
ARC
  5
20F7
  8
0
 10
81.0584719800909852
 20
58.2947664920302486
 30
0.0
 40
0.1479876553150878
 50
323.9997342511207989
 51
144.0002287221726931
  0
LINE
  5
20F8
  8
0
 10
80.3515997670673983
 20
57.07006848896836
 30
0.0
 11
81.1781961047443019
 21
58.2077809754101665
 31
0.0
  0
LINE
  5
20F9
  8
0
 10
80.072377346216058
 20
57.1892945977728715
 30
0.0
 11
80.9387471047442659
 21
58.3817509754101707
 31
0.0
  0
ARC
  5
20FA
  8
0
 10
82.0448176213646434
 20
57.308420850757102
 30
0.0
 40
0.1479876553150941
 50
305.9997712776803951
 51
126.0002657490284008
  0
LINE
  5
20FB
  8
0
 10
81.130595902518067
 20
56.4612776269058827
 30
0.0
 11
82.1318021047442812
 21
57.1886959754101909
 31
0.0
  0
LINE
  5
20FC
  8
0
 10
80.922910957796546
 20
56.6762304793205303
 30
0.0
 11
81.9578321047442842
 21
57.4281449754101629
 31
0.0
  0
ARC
  5
20FD
  8
0
 10
82.6780895043563646
 20
56.0655534427922575
 30
0.0
 40
0.1479874755190892
 50
287.9999818835976839
 51
107.9999001496072992
  0
LINE
  5
20FE
  8
0
 10
81.6224413846808261
 20
55.566949116740922
 30
0.0
 11
82.7238201047442772
 21
55.9248089754101727
 31
0.0
  0
LINE
  5
20FF
  8
0
 10
81.5190489683778168
 20
55.8445611109072217
 30
0.0
 11
82.632359104744296
 21
56.2062979754101733
 31
0.0
  0
LINE
  5
2100
  8
0
 10
78.8671203852704252
 20
58.9982286780029526
 30
0.0
 11
78.7215848284947128
 21
57.334749975410169
 31
0.0
  0
LINE
  5
2101
  8
0
 10
78.5702051047442751
 20
59.0242059754101831
 30
0.0
 11
78.4223968284946409
 21
57.334749975410169
 31
0.0
  0
LINE
  5
2102
  8
0
 10
77.8346483798513873
 20
58.9982286780029526
 30
0.0
 11
77.6891124760634852
 21
57.334749975410169
 31
0.0
  0
LINE
  5
2103
  8
0
 10
77.5377331047442908
 20
59.0242059754101831
 30
0.0
 11
77.3899248630801253
 21
57.334749975410169
 31
0.0
  0
LINE
  5
2104
  8
0
 10
59.9455829816744199
 20
55.8443997099030227
 30
0.0
 11
58.8317761047442787
 21
56.2062979754101733
 31
0.0
  0
LINE
  5
2105
  8
0
 10
59.8422104165589914
 20
55.5667812658030584
 30
0.0
 11
58.7403151047442975
 21
55.9248089754101727
 31
0.0
  0
ARC
  5
2106
  8
0
 10
58.7860457051331196
 20
56.0655534427919804
 30
0.0
 40
0.1479874755190884
 50
72.0000998507572518
 51
252.0000181160324075
  0
LINE
  5
2107
  8
0
 10
60.5415417378885081
 20
56.6760004267547117
 30
0.0
 11
59.5063031047442905
 21
57.4281449754101629
 31
0.0
  0
LINE
  5
2108
  8
0
 10
60.3338894127814385
 20
56.4610232603326097
 30
0.0
 11
59.3323331047442935
 21
57.1886959754101909
 31
0.0
  0
ARC
  5
2109
  8
0
 10
59.4193175881242226
 20
57.3084208507569031
 30
0.0
 40
0.1479876553150951
 50
53.9997342511126206
 51
234.0002287221786048
  0
LINE
  5
210A
  8
0
 10
61.3918748451043328
 20
57.1891335859991869
 30
0.0
 11
60.5253881047443016
 21
58.3817509754101707
 31
0.0
  0
LINE
  5
210B
  8
0
 10
61.1126870092757599
 20
57.0698598750474133
 30
0.0
 11
60.2859391047442728
 21
58.2077809754101665
 31
0.0
  0
ARC
  5
210C
  8
0
 10
60.4056632293973621
 20
58.2947664920305613
 30
0.0
 40
0.1479876553150925
 50
35.9997712776745615
 51
216.0002657490319962
  0
LINE
  5
210D
  8
0
 10
61.8819637441775399
 20
57.3100337160908708
 30
0.0
 11
61.3978061047442907
 21
58.8001159754101934
 31
0.0
  0
ARC
  5
210E
  8
0
 10
61.5385505381617577
 20
58.8458471803285192
 30
0.0
 40
0.1479876300279689
 50
18.0000417046816885
 51
198.000208545395509
  0
LINE
  5
210F
  8
0
 10
61.708172357441299
 20
57.279118774648822
 30
0.0
 11
60.9921043218159227
 21
57.7393708321567019
 31
0.0
  0
LINE
  5
2110
  8
0
 10
61.7950268245194323
 20
57.5775977306007576
 30
0.0
 11
60.4892975027900022
 21
58.4168552074785268
 31
0.0
  0
LINE
  5
2111
  8
0
 10
60.8015084296185293
 20
56.8845978819006888
 30
0.0
 11
60.0523910902612101
 21
57.0313890118645475
 31
0.0
  0
LINE
  5
2112
  8
0
 10
61.0639932751072365
 20
57.1368810640485094
 30
0.0
 11
59.4520047038281518
 21
57.4527534478810935
 31
0.0
  0
LINE
  5
2113
  8
0
 10
60.0583218550049196
 20
56.0685902778836578
 30
0.0
 11
59.4737400528808919
 21
55.99771097154008
 31
0.0
  0
LINE
  5
2114
  8
0
 10
60.2798150694560491
 20
56.3956772350147801
 30
0.0
 11
58.7725423708770265
 21
56.2129235648469106
 31
0.0
  0
LINE
  5
2115
  8
0
 10
62.1852851292758331
 20
57.3343015311543525
 30
0.0
 11
61.6792951047442628
 21
58.891577975410172
 31
0.0
  0
LINE
  5
2116
  8
0
 10
61.923638061484148
 20
58.1395680297533914
 30
0.0
 11
62.5643165585678389
 21
57.334749975410169
 31
0.0
  0
LINE
  5
2117
  8
0
 10
61.6792951047442628
 20
58.891577975410172
 30
0.0
 11
62.5500722353798366
 21
57.7644788063206889
 31
0.0
  0
LINE
  5
2119
  8
0
 10
84.0323511047442793
 20
62.0154439754101432
 30
0.0
 11
76.2323511047442821
 21
62.0154439754101716
 31
0.0
  0
LINE
  5
211C
  8
0
 10
57.4323511047442707
 20
47.0154439754101574
 30
0.0
 11
84.0323511047442935
 21
47.0154439754101574
 31
0.0
  0
LINE
  5
211D
  8
0
 10
70.9323511047442707
 20
47.0154439754101574
 30
0.0
 11
70.9323511047442707
 21
49.0154439754101574
 31
0.0
  0
LINE
  5
211E
  8
0
 10
70.5323511047442935
 20
47.0154439754101574
 30
0.0
 11
70.5323511047442935
 21
49.0154439754101574
 31
0.0
  0
LINE
  5
2149
  8
1
 10
71.2323506987237351
 20
94.2388950308224054
 30
0.0
 11
71.2323506987237351
 21
110.7388950308224054
 31
0.0
  0
ENDSEC
  0
EOF
