  0
SECTION
  2
HEADER
  9
$ACADVER
  1
AC1009
  9
$INSBASE
 10
0.0
 20
0.0
 30
0.0
  9
$EXTMIN
 10
0.0
 20
-2.960436562073669
 30
0.0
  9
$EXTMAX
 10
306.1337348665885
 20
253.10143324454151
 30
0.0
  9
$LIMMIN
 10
0.0
 20
0.0
  9
$LIMMAX
 10
375.0
 20
270.0
  9
$ORTHOMODE
 70
     1
  9
$REGENMODE
 70
     1
  9
$FILLMODE
 70
     1
  9
$QTEXTMODE
 70
     0
  9
$MIRRTEXT
 70
     0
  9
$DRAGMODE
 70
     2
  9
$LTSCALE
 40
10.0
  9
$OSMODE
 70
  3071
  9
$ATTMODE
 70
     1
  9
$TEXTSIZE
 40
0.2
  9
$TRACEWID
 40
0.05
  9
$TEXTSTYLE
  7
STANDARD
  9
$CLAYER
  8
0
  9
$CELTYPE
  6
BYLAYER
  9
$CECOLOR
 62
   256
  9
$DIMSCALE
 40
1.0
  9
$DIMASZ
 40
3.0
  9
$DIMEXO
 40
2.0
  9
$DIMDLI
 40
0.38
  9
$DIMRND
 40
0.0
  9
$DIMDLE
 40
0.0
  9
$DIMEXE
 40
2.0
  9
$DIMTP
 40
0.0
  9
$DIMTM
 40
0.0
  9
$DIMTXT
 40
3.2000000000000002
  9
$DIMCEN
 40
0.09
  9
$DIMTSZ
 40
0.0
  9
$DIMTOL
 70
     0
  9
$DIMLIM
 70
     0
  9
$DIMTIH
 70
     0
  9
$DIMTOH
 70
     0
  9
$DIMSE1
 70
     0
  9
$DIMSE2
 70
     0
  9
$DIMTAD
 70
     1
  9
$DIMZIN
 70
     0
  9
$DIMBLK
  1

  9
$DIMASO
 70
     1
  9
$DIMSHO
 70
     0
  9
$DIMPOST
  1

  9
$DIMAPOST
  1

  9
$DIMALT
 70
     0
  9
$DIMALTD
 70
     2
  9
$DIMALTF
 40
25.399999999999999
  9
$DIMLFAC
 40
1.0
  9
$DIMTOFL
 70
     0
  9
$DIMTVP
 40
1.6000000000000001
  9
$DIMTIX
 70
     1
  9
$DIMSOXD
 70
     0
  9
$DIMSAH
 70
     0
  9
$DIMBLK1
  1

  9
$DIMBLK2
  1

  9
$DIMSTYLE
  2
STANDARD
  9
$DIMCLRD
 70
     0
  9
$DIMCLRE
 70
     0
  9
$DIMCLRT
 70
     0
  9
$DIMTFAC
 40
1.0
  9
$DIMGAP
 40
0.09
  9
$LUNITS
 70
     2
  9
$LUPREC
 70
     4
  9
$SKETCHINC
 40
0.1
  9
$FILLETRAD
 40
0.0
  9
$AUNITS
 70
     0
  9
$AUPREC
 70
     0
  9
$MENU
  1
E:\r13\win\SUPPORT\ACAD
  9
$ELEVATION
 40
0.0
  9
$PELEVATION
 40
0.0
  9
$THICKNESS
 40
0.0
  9
$LIMCHECK
 70
     0
  9
$BLIPMODE
 70
     0
  9
$CHAMFERA
 40
0.0
  9
$CHAMFERB
 40
0.0
  9
$SKPOLY
 70
     0
  9
$TDCREATE
 40
2449839.7818287038
  9
$TDUPDATE
 40
2456598.4622164578
  9
$TDINDWG
 40
0.0007815972
  9
$TDUSRTIMER
 40
0.0007815972
  9
$USRTIMER
 70
     1
  9
$ANGBASE
 50
0.0
  9
$ANGDIR
 70
     0
  9
$PDMODE
 70
     0
  9
$PDSIZE
 40
0.0
  9
$PLINEWID
 40
0.0
  9
$COORDS
 70
     1
  9
$SPLFRAME
 70
     0
  9
$SPLINETYPE
 70
     6
  9
$SPLINESEGS
 70
     8
  9
$ATTDIA
 70
     0
  9
$ATTREQ
 70
     1
  9
$HANDLING
 70
     1
  9
$HANDSEED
  5
374
  9
$SURFTAB1
 70
     6
  9
$SURFTAB2
 70
     6
  9
$SURFTYPE
 70
     6
  9
$SURFU
 70
     6
  9
$SURFV
 70
     6
  9
$UCSNAME
  2

  9
$UCSORG
 10
0.0
 20
0.0
 30
0.0
  9
$UCSXDIR
 10
1.0
 20
0.0
 30
0.0
  9
$UCSYDIR
 10
0.0
 20
1.0
 30
0.0
  9
$PUCSNAME
  2

  9
$PUCSORG
 10
0.0
 20
0.0
 30
0.0
  9
$PUCSXDIR
 10
1.0
 20
0.0
 30
0.0
  9
$PUCSYDIR
 10
0.0
 20
1.0
 30
0.0
  9
$USERI1
 70
     0
  9
$USERI2
 70
     1
  9
$USERI3
 70
     1
  9
$USERI4
 70
     0
  9
$USERI5
 70
     0
  9
$USERR1
 40
0.0
  9
$USERR2
 40
0.0
  9
$USERR3
 40
0.0
  9
$USERR4
 40
0.0
  9
$USERR5
 40
0.0
  9
$WORLDVIEW
 70
     1
  9
$SHADEDGE
 70
     3
  9
$SHADEDIF
 70
    70
  9
$TILEMODE
 70
     1
  9
$MAXACTVP
 70
    16
  9
$PLIMCHECK
 70
     0
  9
$PEXTMIN
 10
1.0000000000000000E+020
 20
1.0000000000000000E+020
 30
1.0000000000000000E+020
  9
$PEXTMAX
 10
-1.0000000000000000E+020
 20
-1.0000000000000000E+020
 30
-1.0000000000000000E+020
  9
$PLIMMIN
 10
0.0
 20
0.0
  9
$PLIMMAX
 10
12.0
 20
9.0
  9
$UNITMODE
 70
     0
  9
$VISRETAIN
 70
     0
  9
$PLINEGEN
 70
     0
  9
$PSLTSCALE
 70
     0
  0
ENDSEC
  0
SECTION
  2
TABLES
  0
TABLE
  2
VPORT
 70
     1
  0
VPORT
  2
*ACTIVE
 70
     0
 10
0.0
 20
0.0
 11
1.0
 21
1.0
 12
195.0581083320873
 22
133.5127261426681
 13
0.0
 23
0.0
 14
10.0
 24
10.0
 15
10.0
 25
10.0
 16
0.0
 26
0.0
 36
1.0
 17
0.0
 27
0.0
 37
0.0
 40
275.42274993631997
 41
1.831871345029239
 42
50.0
 43
0.0
 44
0.0
 50
0.0
 51
0.0
 71
     0
 72
   500
 73
     1
 74
     0
 75
     0
 76
     0
 77
     0
 78
     2
  0
ENDTAB
  0
TABLE
  2
LTYPE
 70
     4
  0
LTYPE
  2
CONTINUOUS
 70
     0
  3
Solid Line
 72
    65
 73
     0
 40
0.0
  0
LTYPE
  2
CENTER
 70
     0
  3
____ _ ____ _ ____ _ ____ _ ____ _ ____ _ ____
 72
    65
 73
     4
 40
2.0
 49
1.25
 49
-0.25
 49
0.25
 49
-0.25
  0
LTYPE
  2
HIDDEN
 70
     0
  3
_ _ _ _ _ _ _ _ _ _ _ _ _ _ _ _ _ _ _ _ _ _ _
 72
    65
 73
     2
 40
0.375
 49
0.25
 49
-0.125
  0
LTYPE
  2
PHANTOM2
 70
     0
  3
___ _ _ ___ _ _ ___ _ _ ___ _ _
 72
    65
 73
     6
 40
1.25
 49
0.625
 49
-0.125
 49
0.125
 49
-0.125
 49
0.125
 49
-0.125
  0
ENDTAB
  0
TABLE
  2
LAYER
 70
     3
  0
LAYER
  2
0
 70
     0
 62
     7
  6
CONTINUOUS
  0
LAYER
  2
1
 70
     0
 62
     1
  6
CENTER
  0
LAYER
  2
2
 70
     0
 62
     2
  6
HIDDEN
  0
ENDTAB
  0
TABLE
  2
STYLE
 70
     2
  0
STYLE
  2
STANDARD
 70
     0
 40
0.0
 41
1.0
 50
0.0
 71
     0
 42
0.2
  3
TXT
  4
BIGFONT
  0
STYLE
  2
STANDARD1
 70
     0
 40
0.0
 41
1.0
 50
0.0
 71
     0
 42
3.0
  3
txt
  4

  0
ENDTAB
  0
TABLE
  2
VIEW
 70
     1
  0
VIEW
  2
ALL
 70
     0
 40
270.0
 10
220.99159663865549
 20
135.0
 41
0.0
 11
0.0
 21
0.0
 31
1.0
 12
0.0
 22
0.0
 32
0.0
 42
0.0
 43
0.0
 44
0.0
 50
0.0
 71
     0
  0
ENDTAB
  0
TABLE
  2
UCS
 70
     0
  0
ENDTAB
  0
TABLE
  2
APPID
 70
     3
  0
APPID
  2
ACAD
 70
     0
  0
APPID
  2
ACAD_MLEADERVER
 70
     0
  0
APPID
  2
ACAD_NAV_VCDISPLAY
 70
     0
  0
ENDTAB
  0
TABLE
  2
DIMSTYLE
 70
     1
  0
DIMSTYLE
  2
STANDARD
 70
     0
  3

  4

  5

  6

  7

 40
1.0
 41
0.18
 42
0.0625
 43
0.38
 44
0.18
 45
0.0
 46
0.0
 47
0.0
 48
0.0
140
0.18
141
0.09
142
0.0
143
25.399999999999999
144
1.0
145
0.0
146
1.0
147
0.09
 71
     0
 72
     0
 73
     1
 74
     1
 75
     0
 76
     0
 77
     0
 78
     0
170
     0
171
     2
172
     0
173
     0
174
     0
175
     0
176
     0
177
     0
178
     0
  0
ENDTAB
  0
ENDSEC
  0
SECTION
  2
BLOCKS
  0
BLOCK
  8
0
  2
$MODEL_SPACE
 70
     0
 10
0.0
 20
0.0
 30
0.0
  3
$MODEL_SPACE
  1

  0
ENDBLK
  5
1F5
  8
0
  0
BLOCK
 67
     1
  8
0
  2
$PAPER_SPACE
 70
     0
 10
0.0
 20
0.0
 30
0.0
  3
$PAPER_SPACE
  1

  0
ENDBLK
  5
1F3
 67
     1
  8
0
  0
ENDSEC
  0
SECTION
  2
ENTITIES
  0
LINE
  5
151
  8
1
 10
306.1337348665885
 20
140.6014332445414
 30
0.0
 11
251.13373486658841
 21
140.6014332445414
 31
0.0
  0
LINE
  5
154
  8
2
 10
192.0837348665884
 20
133.6014332445414
 30
0.0
 11
192.0837348665884
 21
140.6014332445414
 31
0.0
  0
LINE
  5
155
  8
2
 10
188.5837348665884
 20
134.40143324454141
 30
0.0
 11
188.5837348665884
 21
140.6014332445414
 31
0.0
  0
LINE
  5
156
  8
0
 10
182.38434536723531
 20
140.6014332445414
 30
0.0
 11
182.38434536723531
 21
118.10579833177439
 31
0.0
  0
LINE
  5
157
  8
0
 10
184.8831243659414
 20
140.6014332445414
 30
0.0
 11
184.8831243659414
 21
118.10579833177469
 31
0.0
  0
LINE
  5
158
  8
1
 10
183.63373486658841
 20
168.1014332445414
 30
0.0
 11
183.63373486658841
 21
113.1014332445414
 31
0.0
  0
CIRCLE
  5
159
  8
0
 10
88.633734866588441
 20
140.6014332445414
 30
0.0
 40
22.5
  0
LINE
  5
15A
  8
1
 10
88.633734866588441
 20
168.1014332445414
 30
0.0
 11
88.633734866588441
 21
113.1014332445414
 31
0.0
  0
ARC
  5
15B
  8
0
 10
183.63373486658841
 20
140.6014332445414
 30
0.0
 40
22.5
 50
273.17982984567129
 51
86.820170154328665
  0
CIRCLE
  5
15C
  8
0
 10
88.633734866588441
 20
140.6014332445414
 30
0.0
 40
7.0
  0
CIRCLE
  5
15D
  8
0
 10
88.633734866588441
 20
140.6014332445414
 30
0.0
 40
10.5
  0
CIRCLE
  5
15E
  8
0
 10
88.633734866588441
 20
140.6014332445414
 30
0.0
 40
10.0
  0
LINE
  5
15F
  8
0
 10
164.5837348665884
 20
130.1014332445414
 30
0.0
 11
164.5837348665884
 21
151.1014332445414
 31
0.0
  0
LINE
  5
161
  8
2
 10
188.5837348665884
 20
49.401433244541472
 30
0.0
 11
188.5837348665884
 21
55.601433244541447
 31
0.0
  0
LINE
  5
162
  8
2
 10
192.0837348665884
 20
48.601433244541461
 30
0.0
 11
192.0837348665884
 21
55.601433244541447
 31
0.0
  0
LINE
  5
163
  8
0
 10
182.38434536723531
 20
55.601433244541447
 30
0.0
 11
182.38434536723531
 21
33.105798331774452
 31
0.0
  0
LINE
  5
164
  8
0
 10
184.8831243659414
 20
55.601433244541447
 30
0.0
 11
184.8831243659414
 21
33.105798331774679
 31
0.0
  0
LINE
  5
165
  8
1
 10
183.63373486658841
 20
28.10143324454145
 30
0.0
 11
183.63373486658841
 21
83.101433244541454
 31
0.0
  0
ARC
  5
166
  8
0
 10
183.63373486658841
 20
55.601433244541447
 30
0.0
 40
22.5
 50
273.17982984567129
 51
86.820170154328665
  0
LINE
  5
167
  8
0
 10
164.5837348665884
 20
66.101433244541454
 30
0.0
 11
164.5837348665884
 21
45.101433244541447
 31
0.0
  0
LINE
  5
168
  8
2
 10
164.5837348665884
 20
45.601433244541447
 30
0.0
 11
176.5837348665884
 21
45.601433244541447
 31
0.0
  0
ARC
  5
169
  8
0
 10
183.92164951232189
 20
54.592234836393203
 30
0.0
 40
21.541361556354111
 50
206.14121479461721
 51
265.90759492888509
  0
LINE
  5
16A
  8
2
 10
164.5837348665884
 20
48.601433244541461
 30
0.0
 11
187.78373486658839
 21
48.601433244541461
 31
0.0
  0
ARC
  5
16B
  8
0
 10
183.63373486658841
 20
33.066735831774558
 30
0.0
 40
1.25
 50
1.790784659329022
 51
178.20921534067099
  0
ARC
  5
16C
  8
0
 10
183.63373486658841
 20
55.601433244541447
 30
0.0
 40
22.5
 50
262.4598396158226
 51
266.82017015432859
  0
LINE
  5
16D
  8
2
 10
176.5837348665884
 20
45.101433244541447
 30
0.0
 11
188.5837348665884
 21
45.101433244541447
 31
0.0
  0
LINE
  5
16E
  8
2
 10
176.5837348665884
 20
45.601433244541447
 30
0.0
 11
176.5837348665884
 21
45.101433244541447
 31
0.0
  0
LINE
  5
16F
  8
2
 10
192.0837348665884
 20
48.601433244541461
 30
0.0
 11
188.5837348665884
 21
45.101433244541447
 31
0.0
  0
ARC
  5
170
  8
2
 10
187.78373486658839
 20
49.401433244541472
 30
0.0
 40
0.8
 50
270.0
 51
0.0
  0
ARC
  5
171
  8
0
 10
183.92164951232189
 20
56.610631652689698
 30
0.0
 40
21.541361556354111
 50
94.092405071114939
 51
153.85878520538279
  0
LINE
  5
172
  8
2
 10
164.5837348665884
 20
65.601433244541454
 30
0.0
 11
176.5837348665884
 21
65.601433244541454
 31
0.0
  0
LINE
  5
173
  8
2
 10
164.5837348665884
 20
62.601433244541447
 30
0.0
 11
187.78373486658839
 21
62.601433244541447
 31
0.0
  0
LINE
  5
174
  8
1
 10
211.13373486658841
 20
55.601433244541447
 30
0.0
 11
159.5837348665884
 21
55.601433244541447
 31
0.0
  0
LINE
  5
175
  8
2
 10
164.5837348665884
 20
130.6014332445414
 30
0.0
 11
176.5837348665884
 21
130.6014332445414
 31
0.0
  0
ARC
  5
176
  8
0
 10
183.92164951232189
 20
139.5922348363932
 30
0.0
 40
21.541361556354111
 50
206.1412147946256
 51
265.90759492888509
  0
LINE
  5
177
  8
2
 10
164.5837348665884
 20
133.6014332445414
 30
0.0
 11
187.78373486658839
 21
133.6014332445414
 31
0.0
  0
LINE
  5
178
  8
0
 10
184.8831243659414
 20
55.601433244541447
 30
0.0
 11
184.8831243659414
 21
78.097068157308229
 31
0.0
  0
LINE
  5
179
  8
0
 10
182.38434536723531
 20
55.601433244541447
 30
0.0
 11
182.38434536723531
 21
78.097068157308456
 31
0.0
  0
LINE
  5
17A
  8
2
 10
192.0837348665884
 20
62.601433244541447
 30
0.0
 11
188.5837348665884
 21
66.101433244541454
 31
0.0
  0
LINE
  5
17B
  8
2
 10
188.5837348665884
 20
61.801433244541442
 30
0.0
 11
188.5837348665884
 21
55.601433244541447
 31
0.0
  0
LINE
  5
17C
  8
2
 10
192.0837348665884
 20
62.601433244541447
 30
0.0
 11
192.0837348665884
 21
55.601433244541447
 31
0.0
  0
ARC
  5
17D
  8
2
 10
187.78373486658839
 20
61.801433244541442
 30
0.0
 40
0.8
 50
0.0
 51
90.0
  0
LINE
  5
17E
  8
2
 10
176.5837348665884
 20
66.101433244541454
 30
0.0
 11
188.5837348665884
 21
66.101433244541454
 31
0.0
  0
LINE
  5
17F
  8
2
 10
176.5837348665884
 20
65.601433244541454
 30
0.0
 11
176.5837348665884
 21
66.101433244541454
 31
0.0
  0
ARC
  5
180
  8
0
 10
183.63373486658841
 20
78.136130657308343
 30
0.0
 40
1.25
 50
181.79078465932889
 51
358.20921534067099
  0
ARC
  5
181
  8
0
 10
183.63373486658841
 20
55.601433244541447
 30
0.0
 40
22.5
 50
93.179829845671335
 51
97.540160384177383
  0
ARC
  5
182
  8
0
 10
183.63373486658841
 20
118.06673583177449
 30
0.0
 40
1.25
 50
1.790784659329022
 51
178.20921534067099
  0
ARC
  5
183
  8
0
 10
183.63373486658841
 20
140.6014332445414
 30
0.0
 40
22.5
 50
262.4598396158226
 51
266.82017015432859
  0
LINE
  5
184
  8
2
 10
176.5837348665884
 20
130.1014332445414
 30
0.0
 11
188.5837348665884
 21
130.1014332445414
 31
0.0
  0
LINE
  5
185
  8
2
 10
176.5837348665884
 20
130.6014332445414
 30
0.0
 11
176.5837348665884
 21
130.1014332445414
 31
0.0
  0
ARC
  5
186
  8
2
 10
187.78373486658839
 20
134.40143324454141
 30
0.0
 40
0.8
 50
270.0
 51
0.0
  0
LINE
  5
187
  8
2
 10
192.0837348665884
 20
133.6014332445414
 30
0.0
 11
188.5837348665884
 21
130.1014332445414
 31
0.0
  0
LINE
  5
188
  8
1
 10
61.133734866588441
 20
140.6014332445414
 30
0.0
 11
116.1337348665884
 21
140.6014332445414
 31
0.0
  0
LINE
  5
189
  8
0
 10
184.8831243659414
 20
225.60143324454151
 30
0.0
 11
184.8831243659414
 21
248.0970681573082
 31
0.0
  0
LINE
  5
18A
  8
0
 10
182.38434536723531
 20
225.60143324454151
 30
0.0
 11
182.38434536723531
 21
248.09706815730851
 31
0.0
  0
LINE
  5
18B
  8
1
 10
183.63373486658841
 20
253.10143324454151
 30
0.0
 11
183.63373486658841
 21
198.1014332445414
 31
0.0
  0
ARC
  5
18C
  8
0
 10
183.63373486658841
 20
225.60143324454151
 30
0.0
 40
22.5
 50
273.17982984567129
 51
86.820170154328665
  0
LINE
  5
18D
  8
0
 10
164.5837348665884
 20
215.10143324454151
 30
0.0
 11
164.5837348665884
 21
236.10143324454151
 31
0.0
  0
LINE
  5
18E
  8
2
 10
192.0837348665884
 20
232.60143324454151
 30
0.0
 11
192.0837348665884
 21
225.60143324454151
 31
0.0
  0
LINE
  5
18F
  8
2
 10
188.5837348665884
 20
231.80143324454141
 30
0.0
 11
188.5837348665884
 21
225.60143324454151
 31
0.0
  0
ARC
  5
190
  8
0
 10
183.92164951232189
 20
141.6106316526897
 30
0.0
 40
21.541361556354111
 50
94.092405071114939
 51
153.85878520537429
  0
LINE
  5
191
  8
2
 10
164.5837348665884
 20
150.6014332445414
 30
0.0
 11
176.5837348665884
 21
150.6014332445414
 31
0.0
  0
LINE
  5
192
  8
2
 10
164.5837348665884
 20
147.6014332445414
 30
0.0
 11
187.78373486658839
 21
147.6014332445414
 31
0.0
  0
LINE
  5
193
  8
2
 10
164.5837348665884
 20
215.60143324454151
 30
0.0
 11
176.5837348665884
 21
215.60143324454151
 31
0.0
  0
ARC
  5
194
  8
0
 10
183.92164951232189
 20
224.5922348363932
 30
0.0
 40
21.541361556354111
 50
206.1412147946256
 51
265.90759492888509
  0
LINE
  5
195
  8
1
 10
211.13373486658841
 20
225.60143324454151
 30
0.0
 11
159.5837348665884
 21
225.60143324454151
 31
0.0
  0
LINE
  5
196
  8
2
 10
164.5837348665884
 20
218.6014332445414
 30
0.0
 11
187.78373486658839
 21
218.6014332445414
 31
0.0
  0
LINE
  5
197
  8
1
 10
211.13373486658841
 20
140.6014332445414
 30
0.0
 11
159.5837348665884
 21
140.6014332445414
 31
0.0
  0
LINE
  5
198
  8
0
 10
184.8831243659414
 20
140.6014332445414
 30
0.0
 11
184.8831243659414
 21
163.0970681573082
 31
0.0
  0
LINE
  5
199
  8
0
 10
182.38434536723531
 20
140.6014332445414
 30
0.0
 11
182.38434536723531
 21
163.0970681573084
 31
0.0
  0
LINE
  5
19A
  8
2
 10
192.0837348665884
 20
147.6014332445414
 30
0.0
 11
188.5837348665884
 21
151.1014332445414
 31
0.0
  0
LINE
  5
19B
  8
2
 10
192.0837348665884
 20
147.6014332445414
 30
0.0
 11
192.0837348665884
 21
140.6014332445414
 31
0.0
  0
LINE
  5
19C
  8
2
 10
188.5837348665884
 20
146.80143324454141
 30
0.0
 11
188.5837348665884
 21
140.6014332445414
 31
0.0
  0
ARC
  5
19D
  8
2
 10
187.78373486658839
 20
146.80143324454141
 30
0.0
 40
0.8
 50
0.0
 51
90.0
  0
LINE
  5
19E
  8
2
 10
176.5837348665884
 20
151.1014332445414
 30
0.0
 11
188.5837348665884
 21
151.1014332445414
 31
0.0
  0
LINE
  5
19F
  8
2
 10
176.5837348665884
 20
150.6014332445414
 30
0.0
 11
176.5837348665884
 21
151.1014332445414
 31
0.0
  0
ARC
  5
1A0
  8
0
 10
183.63373486658841
 20
163.13613065730831
 30
0.0
 40
1.25
 50
181.79078465932889
 51
358.20921534067099
  0
ARC
  5
1A1
  8
0
 10
183.63373486658841
 20
140.6014332445414
 30
0.0
 40
22.5
 50
93.179829845671335
 51
97.540160384177341
  0
ARC
  5
1A2
  8
0
 10
183.63373486658841
 20
203.06673583177451
 30
0.0
 40
1.25
 50
1.790784659329022
 51
178.20921534067099
  0
LINE
  5
1A3
  8
0
 10
182.38434536723531
 20
225.60143324454151
 30
0.0
 11
182.38434536723531
 21
203.10579833177451
 31
0.0
  0
LINE
  5
1A4
  8
0
 10
184.8831243659414
 20
225.60143324454151
 30
0.0
 11
184.8831243659414
 21
203.10579833177471
 31
0.0
  0
ARC
  5
1A5
  8
0
 10
183.63373486658841
 20
225.60143324454151
 30
0.0
 40
22.5
 50
262.4598396158226
 51
266.82017015432859
  0
LINE
  5
1A6
  8
2
 10
176.5837348665884
 20
215.10143324454151
 30
0.0
 11
188.5837348665884
 21
215.10143324454151
 31
0.0
  0
LINE
  5
1A7
  8
2
 10
176.5837348665884
 20
215.60143324454151
 30
0.0
 11
176.5837348665884
 21
215.10143324454151
 31
0.0
  0
LINE
  5
1A8
  8
2
 10
192.0837348665884
 20
218.6014332445414
 30
0.0
 11
192.0837348665884
 21
225.60143324454151
 31
0.0
  0
LINE
  5
1A9
  8
2
 10
188.5837348665884
 20
219.40143324454149
 30
0.0
 11
188.5837348665884
 21
225.60143324454151
 31
0.0
  0
ARC
  5
1AA
  8
2
 10
187.78373486658839
 20
219.40143324454149
 30
0.0
 40
0.8
 50
270.0
 51
0.0
  0
LINE
  5
1AB
  8
2
 10
192.0837348665884
 20
218.6014332445414
 30
0.0
 11
188.5837348665884
 21
215.10143324454151
 31
0.0
  0
ARC
  5
1AC
  8
0
 10
183.92164951232189
 20
226.6106316526897
 30
0.0
 40
21.541361556354111
 50
94.092405071114939
 51
153.85878520537429
  0
LINE
  5
1AD
  8
2
 10
164.5837348665884
 20
235.60143324454151
 30
0.0
 11
176.5837348665884
 21
235.60143324454151
 31
0.0
  0
LINE
  5
1AE
  8
2
 10
164.5837348665884
 20
232.60143324454151
 30
0.0
 11
187.78373486658839
 21
232.60143324454151
 31
0.0
  0
ARC
  5
1AF
  8
0
 10
183.63373486658841
 20
248.13613065730831
 30
0.0
 40
1.25
 50
181.79078465932889
 51
358.20921534067099
  0
LINE
  5
1B0
  8
2
 10
176.5837348665884
 20
236.10143324454151
 30
0.0
 11
188.5837348665884
 21
236.10143324454151
 31
0.0
  0
LINE
  5
1B1
  8
2
 10
176.5837348665884
 20
235.60143324454151
 30
0.0
 11
176.5837348665884
 21
236.10143324454151
 31
0.0
  0
ARC
  5
1B2
  8
2
 10
187.78373486658839
 20
231.80143324454141
 30
0.0
 40
0.8
 50
0.0
 51
90.0
  0
LINE
  5
1B3
  8
2
 10
192.0837348665884
 20
232.60143324454151
 30
0.0
 11
188.5837348665884
 21
236.10143324454151
 31
0.0
  0
ARC
  5
1B4
  8
0
 10
183.63373486658841
 20
225.60143324454151
 30
0.0
 40
22.5
 50
93.179829845671335
 51
97.540160384177341
  0
LINE
  5
1B5
  8
1
 10
278.6337348665885
 20
168.1014332445414
 30
0.0
 11
278.6337348665885
 21
113.1014332445414
 31
0.0
  0
CIRCLE
  5
1B6
  8
0
 10
278.6337348665885
 20
140.6014332445414
 30
0.0
 40
22.5
  0
TEXT
  5
2E5
  8
0
 62
     3
 10
0.0
 20
0.0
 30
0.0
 40
10.0
  1
BLG45
  7
STANDARD1
  0
ENDSEC
  0
EOF
