  0
SECTION
  2
HEADER
  9
$ACADVER
  1
AC1009
  9
$INSBASE
 10
0.0
 20
0.0
 30
0.0
  9
$EXTMIN
 10
0.0
 20
-1.4802182810368341
 30
0.0
  9
$EXTMAX
 10
157.5
 20
112.5
 30
0.0
  9
$LIMMIN
 10
0.0
 20
0.0
  9
$LIMMAX
 10
385.0
 20
270.0
  9
$ORTHOMODE
 70
     1
  9
$REGENMODE
 70
     1
  9
$FILLMODE
 70
     1
  9
$QTEXTMODE
 70
     0
  9
$MIRRTEXT
 70
     0
  9
$DRAGMODE
 70
     2
  9
$LTSCALE
 40
5.0
  9
$OSMODE
 70
    37
  9
$ATTMODE
 70
     1
  9
$TEXTSIZE
 40
4.000000000000048
  9
$TRACEWID
 40
0.05
  9
$TEXTSTYLE
  7
STANDARD
  9
$CLAYER
  8
0
  9
$CELTYPE
  6
BYLAYER
  9
$CECOLOR
 62
   256
  9
$DIMSCALE
 40
1.0
  9
$DIMASZ
 40
3.0
  9
$DIMEXO
 40
2.0
  9
$DIMDLI
 40
0.38
  9
$DIMRND
 40
0.0
  9
$DIMDLE
 40
0.0
  9
$DIMEXE
 40
2.0
  9
$DIMTP
 40
0.0
  9
$DIMTM
 40
0.0
  9
$DIMTXT
 40
3.0
  9
$DIMCEN
 40
0.0
  9
$DIMTSZ
 40
0.0
  9
$DIMTOL
 70
     0
  9
$DIMLIM
 70
     0
  9
$DIMTIH
 70
     0
  9
$DIMTOH
 70
     0
  9
$DIMSE1
 70
     0
  9
$DIMSE2
 70
     0
  9
$DIMTAD
 70
     1
  9
$DIMZIN
 70
     0
  9
$DIMBLK
  1

  9
$DIMASO
 70
     0
  9
$DIMSHO
 70
     0
  9
$DIMPOST
  1

  9
$DIMAPOST
  1

  9
$DIMALT
 70
     0
  9
$DIMALTD
 70
     2
  9
$DIMALTF
 40
25.399999999999999
  9
$DIMLFAC
 40
1.0
  9
$DIMTOFL
 70
     1
  9
$DIMTVP
 40
1.6000000000000001
  9
$DIMTIX
 70
     1
  9
$DIMSOXD
 70
     0
  9
$DIMSAH
 70
     0
  9
$DIMBLK1
  1

  9
$DIMBLK2
  1

  9
$DIMSTYLE
  2
STANDARD
  9
$DIMCLRD
 70
     0
  9
$DIMCLRE
 70
     0
  9
$DIMCLRT
 70
     0
  9
$DIMTFAC
 40
1.0
  9
$DIMGAP
 40
1.0
  9
$LUNITS
 70
     2
  9
$LUPREC
 70
     4
  9
$SKETCHINC
 40
0.1
  9
$FILLETRAD
 40
0.0
  9
$AUNITS
 70
     0
  9
$AUPREC
 70
     4
  9
$MENU
  1
E:\r13\win\SUPPORT\ACAD
  9
$ELEVATION
 40
0.0
  9
$PELEVATION
 40
0.0
  9
$THICKNESS
 40
0.0
  9
$LIMCHECK
 70
     0
  9
$BLIPMODE
 70
     0
  9
$CHAMFERA
 40
0.0
  9
$CHAMFERB
 40
0.0
  9
$SKPOLY
 70
     0
  9
$TDCREATE
 40
2450280.598206134
  9
$TDUPDATE
 40
2459200.3875410762
  9
$TDINDWG
 40
0.1312215046
  9
$TDUSRTIMER
 40
0.1312215046
  9
$USRTIMER
 70
     1
  9
$ANGBASE
 50
0.0
  9
$ANGDIR
 70
     0
  9
$PDMODE
 70
     0
  9
$PDSIZE
 40
0.0
  9
$PLINEWID
 40
0.0
  9
$COORDS
 70
     1
  9
$SPLFRAME
 70
     0
  9
$SPLINETYPE
 70
     6
  9
$SPLINESEGS
 70
     8
  9
$ATTDIA
 70
     0
  9
$ATTREQ
 70
     1
  9
$HANDLING
 70
     1
  9
$HANDSEED
  5
102C
  9
$SURFTAB1
 70
     6
  9
$SURFTAB2
 70
     6
  9
$SURFTYPE
 70
     6
  9
$SURFU
 70
     6
  9
$SURFV
 70
     6
  9
$UCSNAME
  2

  9
$UCSORG
 10
0.0
 20
0.0
 30
0.0
  9
$UCSXDIR
 10
1.0
 20
0.0
 30
0.0
  9
$UCSYDIR
 10
0.0
 20
1.0
 30
0.0
  9
$PUCSNAME
  2

  9
$PUCSORG
 10
0.0
 20
0.0
 30
0.0
  9
$PUCSXDIR
 10
1.0
 20
0.0
 30
0.0
  9
$PUCSYDIR
 10
0.0
 20
1.0
 30
0.0
  9
$USERI1
 70
     3
  9
$USERI2
 70
     1
  9
$USERI3
 70
     1
  9
$USERI4
 70
     0
  9
$USERI5
 70
     0
  9
$USERR1
 40
1.0
  9
$USERR2
 40
3.0
  9
$USERR3
 40
3.0
  9
$USERR4
 40
3.0
  9
$USERR5
 40
10.0
  9
$WORLDVIEW
 70
     1
  9
$SHADEDGE
 70
     3
  9
$SHADEDIF
 70
    70
  9
$TILEMODE
 70
     1
  9
$MAXACTVP
 70
    16
  9
$PLIMCHECK
 70
     0
  9
$PEXTMIN
 10
1.0000000000000000E+020
 20
1.0000000000000000E+020
 30
1.0000000000000000E+020
  9
$PEXTMAX
 10
-1.0000000000000000E+020
 20
-1.0000000000000000E+020
 30
-1.0000000000000000E+020
  9
$PLIMMIN
 10
0.0
 20
0.0
  9
$PLIMMAX
 10
12.0
 20
9.0
  9
$UNITMODE
 70
     0
  9
$VISRETAIN
 70
     0
  9
$PLINEGEN
 70
     0
  9
$PSLTSCALE
 70
     0
  0
ENDSEC
  0
SECTION
  2
TABLES
  0
TABLE
  2
VPORT
 70
     1
  0
VPORT
  2
*ACTIVE
 70
     0
 10
0.0
 20
0.0
 11
1.0
 21
1.0
 12
106.39537655699
 22
55.508467550178118
 13
0.0
 23
0.0
 14
5.0
 24
5.0
 15
10.0
 25
10.0
 16
0.0
 26
0.0
 36
1.0
 17
0.0
 27
0.0
 37
0.0
 40
114.992109638953
 41
2.415644171779141
 42
50.0
 43
0.0
 44
0.0
 50
0.0
 51
0.0
 71
     0
 72
   500
 73
     1
 74
     0
 75
     0
 76
     0
 77
     0
 78
     2
  0
ENDTAB
  0
TABLE
  2
LTYPE
 70
     4
  0
LTYPE
  2
CONTINUOUS
 70
     0
  3
Solid Line
 72
    65
 73
     0
 40
0.0
  0
LTYPE
  2
CENTER
 70
     0
  3
____ _ ____ _ ____ _ ____ _ ____ _ ____ _ ____
 72
    65
 73
     4
 40
2.0
 49
1.25
 49
-0.25
 49
0.25
 49
-0.25
  0
LTYPE
  2
HIDDEN
 70
     0
  3
_ _ _ _ _ _ _ _ _ _ _ _ _ _ _ _ _ _ _ _ _ _ _
 72
    65
 73
     2
 40
0.375
 49
0.25
 49
-0.125
  0
LTYPE
  2
PHANTOM2
 70
     0
  3
___ _ _ ___ _ _ ___ _ _ ___ _ _
 72
    65
 73
     6
 40
1.25
 49
0.625
 49
-0.125
 49
0.125
 49
-0.125
 49
0.125
 49
-0.125
  0
ENDTAB
  0
TABLE
  2
LAYER
 70
     4
  0
LAYER
  2
0
 70
     0
 62
     7
  6
CONTINUOUS
  0
LAYER
  2
1
 70
     0
 62
     1
  6
CENTER
  0
LAYER
  2
3
 70
     0
 62
     3
  6
CONTINUOUS
  0
LAYER
  2
2
 70
     0
 62
     2
  6
HIDDEN
  0
ENDTAB
  0
TABLE
  2
STYLE
 70
     2
  0
STYLE
  2
STANDARD
 70
     0
 40
0.0
 41
1.0
 50
0.0
 71
     0
 42
4.000000000000048
  3
SIMPLEX
  4
BIGFONT
  0
STYLE
  2
STANDARD1
 70
     0
 40
0.0
 41
1.0
 50
0.0
 71
     0
 42
3.0
  3
txt
  4

  0
ENDTAB
  0
TABLE
  2
VIEW
 70
     0
  0
ENDTAB
  0
TABLE
  2
UCS
 70
     0
  0
ENDTAB
  0
TABLE
  2
APPID
 70
     4
  0
APPID
  2
ACAD
 70
     0
  0
APPID
  2
ACAD_MLEADERVER
 70
     0
  0
APPID
  2
ACAD_NAV_VCDISPLAY
 70
     0
  0
APPID
  2
ACAD_EXEMPT_FROM_CAD_STANDARDS
 70
     0
  0
ENDTAB
  0
TABLE
  2
DIMSTYLE
 70
     2
  0
DIMSTYLE
  2
STANDARD
 70
     0
  3

  4

  5

  6

  7

 40
1.0
 41
0.18
 42
0.0625
 43
0.38
 44
0.18
 45
0.0
 46
0.0
 47
0.0
 48
0.0
140
0.18
141
0.09
142
0.0
143
25.399999999999999
144
1.0
145
0.0
146
1.0
147
0.09
 71
     0
 72
     0
 73
     1
 74
     1
 75
     0
 76
     0
 77
     0
 78
     0
170
     0
171
     2
172
     0
173
     0
174
     0
175
     0
176
     0
177
     0
178
     0
  0
DIMSTYLE
  2
ISO-25
 70
     0
  3

  4

  5

  6

  7

 40
1.0
 41
2.5
 42
0.625
 43
3.75
 44
1.25
 45
0.0
 46
0.0
 47
0.0
 48
0.0
140
2.5
141
2.5
142
0.0
143
0.0393700787
144
1.0
145
0.0
146
1.0
147
0.625
 71
     0
 72
     0
 73
     0
 74
     0
 75
     0
 76
     0
 77
     1
 78
     8
170
     0
171
     3
172
     1
173
     0
174
     0
175
     0
176
     0
177
     0
178
     0
  0
ENDTAB
  0
ENDSEC
  0
SECTION
  2
BLOCKS
  0
BLOCK
  8
0
  2
$MODEL_SPACE
 70
     0
 10
0.0
 20
0.0
 30
0.0
  3
$MODEL_SPACE
  1

  0
ENDBLK
  5
175
  8
0
  0
BLOCK
 67
     1
  8
0
  2
$PAPER_SPACE
 70
     0
 10
0.0
 20
0.0
 30
0.0
  3
$PAPER_SPACE
  1

  0
ENDBLK
  5
173
 67
     1
  8
0
  0
ENDSEC
  0
SECTION
  2
ENTITIES
  0
TEXT
  5
36B
  8
0
 62
     3
 10
0.0
 20
0.0
 30
0.0
 40
5.0
  1
BNDXN10
  7
STANDARD1
  0
ARC
  5
CA7
  8
0
 10
57.99999999999995
 20
100.0
 30
0.0
 40
4.9999999999999387
 50
156.58123504463481
 51
203.41876495536329
  0
LINE
  5
CA8
  8
0
 10
82.199999999999974
 20
90.800000000000011
 30
0.0
 11
87.800000000000011
 21
90.800000000000011
 31
0.0
  0
LINE
  5
CA9
  8
0
 10
82.199999999999974
 20
92.519494405736665
 30
0.0
 11
82.199999999999974
 21
90.800000000000011
 31
0.0
  0
LINE
  5
CAA
  8
0
 10
87.800000000000011
 20
92.10012462917436
 30
0.0
 11
87.800000000000011
 21
90.800000000000011
 31
0.0
  0
LINE
  5
CAB
  8
0
 10
53.411877467706042
 20
98.012757783093306
 30
0.0
 11
54.29999999999999
 21
97.5
 31
0.0
  0
LINE
  5
CAC
  8
0
 10
54.29999999999999
 20
102.5
 30
0.0
 11
53.411877467706042
 21
101.98724221690669
 31
0.0
  0
LINE
  5
CAD
  8
0
 10
53.411877467706042
 20
98.012757783093306
 30
0.0
 11
53.411877467706042
 21
101.98724221690669
 31
0.0
  0
LINE
  5
CAE
  8
0
 10
58.0
 20
102.5
 30
0.0
 11
54.29999999999999
 21
102.5
 31
0.0
  0
LINE
  5
CAF
  8
0
 10
54.29999999999999
 20
97.5
 30
0.0
 11
58.0
 21
97.5
 31
0.0
  0
LINE
  5
CB0
  8
0
 10
54.29999999999999
 20
97.5
 30
0.0
 11
54.29999999999999
 21
102.5
 31
0.0
  0
ARC
  5
CB1
  8
2
 10
83.999999999999957
 20
100.0
 30
0.0
 40
17.500000000000021
 50
347.25641477779971
 51
12.74358522220035
  0
LINE
  5
CB2
  8
2
 10
100.7747771490977
 20
104.25
 30
0.0
 11
100.5812393987904
 21
104.25
 31
0.0
  0
LINE
  5
CB3
  8
2
 10
100.5812393987904
 20
95.750000000000014
 30
0.0
 11
100.7747771490977
 21
95.750000000000014
 31
0.0
  0
ARC
  5
CB4
  8
2
 10
100.5812393987904
 20
103.75
 30
0.0
 40
0.4999999999999972
 50
12.74358522220035
 51
90.0
  0
ARC
  5
CB5
  8
2
 10
100.5812393987904
 20
96.25
 30
0.0
 40
0.4999999999999992
 50
269.99999999999841
 51
347.25641477779971
  0
LINE
  5
CB6
  8
2
 10
100.5812393987904
 20
95.750000000000014
 30
0.0
 11
100.5812393987904
 21
104.25
 31
0.0
  0
LINE
  5
CB7
  8
0
 10
58.0
 20
96.0
 30
0.0
 11
59.000000000000007
 21
95.0
 31
0.0
  0
LINE
  5
CB8
  8
0
 10
59.000000000000007
 20
105.0
 30
0.0
 11
58.0
 21
104.0
 31
0.0
  0
LINE
  5
CB9
  8
0
 10
58.0
 20
96.0
 30
0.0
 11
58.0
 21
104.0
 31
0.0
  0
LINE
  5
CBA
  8
0
 10
75.0
 20
105.0
 30
0.0
 11
59.000000000000007
 21
105.0
 31
0.0
  0
LINE
  5
CBB
  8
0
 10
59.000000000000007
 20
95.0
 30
0.0
 11
75.0
 21
95.0
 31
0.0
  0
LINE
  5
CBC
  8
0
 10
59.000000000000007
 20
95.0
 30
0.0
 11
59.000000000000007
 21
105.0
 31
0.0
  0
LINE
  5
CBD
  8
0
 10
75.0
 20
106.5
 30
0.0
 11
82.0
 21
106.5
 31
0.0
  0
LINE
  5
CBE
  8
0
 10
82.0
 20
93.499999999999986
 30
0.0
 11
75.0
 21
93.499999999999986
 31
0.0
  0
LINE
  5
CC0
  8
0
 10
75.0
 20
106.5
 30
0.0
 11
75.0
 21
93.499999999999986
 31
0.0
  0
LINE
  5
CC2
  8
0
 10
75.0
 20
100.0
 30
0.0
 11
81.786263005578434
 21
100.0
 31
0.0
  0
LINE
  5
CC5
  8
0
 10
82.499923847578202
 20
92.197392366688661
 30
0.0
 11
82.0
 21
92.734499329020736
 31
0.0
  0
LINE
  5
CC6
  8
0
 10
82.0
 20
92.734499329020736
 30
0.0
 11
82.0
 21
107.7
 31
0.0
  0
LINE
  5
CC7
  8
0
 10
82.499923847578202
 20
108.2087262032186
 30
0.0
 11
82.0
 21
107.7
 31
0.0
  0
LINE
  5
CC8
  8
0
 10
88.099999999999994
 20
92.09461943915025
 30
0.0
 11
82.499923847578202
 21
92.197392366688661
 31
0.0
  0
LINE
  5
CC9
  8
0
 10
88.099999999999994
 20
92.09461943915025
 30
0.0
 11
88.099999999999994
 21
91.693524103937875
 31
0.0
  0
LINE
  5
CCA
  8
0
 10
82.499923847578202
 20
92.197392366688661
 30
0.0
 11
82.499923847578202
 21
108.2087262032186
 31
0.0
  0
LINE
  5
CCB
  8
0
 10
88.099999999999994
 20
91.693524103937875
 30
0.0
 11
96.299999999999983
 21
91.550392571526487
 31
0.0
  0
LINE
  5
CCC
  8
0
 10
96.299999999999983
 20
108.4496074284735
 30
0.0
 11
82.499923847578202
 21
108.2087262032186
 31
0.0
  0
ARC
  5
CCD
  8
2
 10
116.1999999999999
 20
100.0
 30
0.0
 40
15.99999999999994
 50
143.13010235415629
 51
164.59590630127451
  0
ARC
  5
CCE
  8
2
 10
116.2000000000001
 20
100.0
 30
0.0
 40
16.000000000000149
 50
195.4040936987254
 51
216.86989764584339
  0
ARC
  5
CCF
  8
2
 10
103.0
 20
109.89999999999991
 30
0.0
 40
0.4999999999999478
 50
323.13010235415442
 51
0.0000000000016284
  0
ARC
  5
CD0
  8
2
 10
103.0
 20
90.100000000000037
 30
0.0
 40
0.4999999999999467
 50
359.99999999999841
 51
36.869897645845647
  0
ARC
  5
CD1
  8
0
 10
101.8
 20
110.5
 30
0.0
 40
1.9999999999999909
 50
31.788330617052491
 51
90.0
  0
ARC
  5
CD2
  8
0
 10
101.8
 20
89.500000000000014
 30
0.0
 40
1.999999999999992
 50
270.0
 51
328.21166938294749
  0
LINE
  5
CD3
  8
0
 10
103.5
 20
88.446434624714726
 30
0.0
 11
103.5
 21
111.5535653752852
 31
0.0
  0
LINE
  5
CD4
  8
0
 10
96.299999999999983
 20
91.550392571526487
 30
0.0
 11
101.7538582242032
 21
87.5
 31
0.0
  0
LINE
  5
CD5
  8
0
 10
101.7538582242032
 20
112.5
 30
0.0
 11
96.299999999999983
 21
108.4496074284735
 31
0.0
  0
LINE
  5
CD6
  8
0
 10
96.299999999999983
 20
91.550392571526487
 30
0.0
 11
96.299999999999983
 21
108.4496074284735
 31
0.0
  0
LINE
  5
CD7
  8
0
 10
101.8
 20
112.5
 30
0.0
 11
101.7538582242032
 21
112.5
 31
0.0
  0
LINE
  5
CD8
  8
0
 10
101.7538582242032
 20
87.5
 30
0.0
 11
101.8
 21
87.5
 31
0.0
  0
LINE
  5
CD9
  8
0
 10
101.7538582242032
 20
87.5
 30
0.0
 11
101.7538582242032
 21
112.5
 31
0.0
  0
LINE
  5
CDA
  8
3
 10
58.386500000000019
 20
95.613499999999988
 30
0.0
 11
73.000000000000028
 21
95.613499999999988
 31
0.0
  0
LINE
  5
CDC
  8
3
 10
58.386500000000019
 20
104.3865
 30
0.0
 11
73.000000000000028
 21
104.3865
 31
0.0
  0
ARC
  5
CDE
  8
0
 10
57.999999999999929
 20
50.0
 30
0.0
 40
4.9999999999999361
 50
156.58123504463481
 51
203.41876495536329
  0
LINE
  5
CDF
  8
0
 10
53.411877467706027
 20
48.012757783093292
 30
0.0
 11
53.411877467706027
 21
51.987242216906708
 31
0.0
  0
LINE
  5
CE0
  8
0
 10
53.411877467706027
 20
48.012757783093292
 30
0.0
 11
54.299999999999969
 21
47.5
 31
0.0
  0
LINE
  5
CE1
  8
0
 10
54.299999999999969
 20
52.5
 30
0.0
 11
53.411877467706027
 21
51.987242216906708
 31
0.0
  0
LINE
  5
CE2
  8
0
 10
54.299999999999969
 20
47.5
 30
0.0
 11
54.299999999999969
 21
52.5
 31
0.0
  0
LINE
  5
CE3
  8
0
 10
57.999999999999993
 20
52.5
 30
0.0
 11
54.299999999999969
 21
52.5
 31
0.0
  0
LINE
  5
CE4
  8
0
 10
54.299999999999969
 20
47.5
 30
0.0
 11
57.999999999999993
 21
47.5
 31
0.0
  0
LINE
  5
CE5
  8
0
 10
81.786263005578405
 20
42.49444650053487
 30
0.0
 11
81.999999999999972
 21
43.5
 31
0.0
  0
LINE
  5
CE6
  8
0
 10
81.999999999999972
 20
56.5
 30
0.0
 11
81.786263005578405
 21
57.505553499465123
 31
0.0
  0
ARC
  5
CE7
  8
2
 10
83.999999999999943
 20
50.0
 30
0.0
 40
17.500000000000021
 50
347.25641477779971
 51
12.74358522220035
  0
LINE
  5
CE8
  8
2
 10
100.7747771490976
 20
54.25
 30
0.0
 11
100.5812393987904
 21
54.25
 31
0.0
  0
LINE
  5
CE9
  8
2
 10
100.5812393987904
 20
45.75
 30
0.0
 11
100.7747771490976
 21
45.75
 31
0.0
  0
LINE
  5
CEA
  8
2
 10
100.5812393987904
 20
45.75
 30
0.0
 11
100.5812393987904
 21
54.25
 31
0.0
  0
ARC
  5
CEB
  8
2
 10
100.5812393987904
 20
53.75
 30
0.0
 40
0.4999999999999972
 50
12.74358522220035
 51
90.0
  0
ARC
  5
CEC
  8
2
 10
100.5812393987904
 20
46.25
 30
0.0
 40
0.4999999999999992
 50
269.99999999999841
 51
347.25641477779971
  0
LINE
  5
CED
  8
0
 10
57.999999999999993
 20
46.0
 30
0.0
 11
57.999999999999993
 21
54.0
 31
0.0
  0
LINE
  5
CEE
  8
0
 10
57.999999999999993
 20
46.0
 30
0.0
 11
58.999999999999993
 21
45.0
 31
0.0
  0
LINE
  5
CEF
  8
0
 10
58.999999999999993
 20
55.0
 30
0.0
 11
57.999999999999993
 21
54.0
 31
0.0
  0
LINE
  5
CF0
  8
0
 10
58.999999999999993
 20
45.0
 30
0.0
 11
58.999999999999993
 21
55.0
 31
0.0
  0
LINE
  5
CF1
  8
0
 10
74.999999999999972
 20
55.0
 30
0.0
 11
58.999999999999993
 21
55.0
 31
0.0
  0
LINE
  5
CF2
  8
0
 10
58.999999999999993
 20
45.0
 30
0.0
 11
74.999999999999972
 21
45.0
 31
0.0
  0
LINE
  5
CF3
  8
0
 10
82.199999999999974
 20
52.550000000000011
 30
0.0
 11
82.199999999999974
 21
47.449999999999989
 31
0.0
  0
LINE
  5
CF4
  8
0
 10
87.799999999999955
 20
52.550000000000011
 30
0.0
 11
87.799999999999955
 21
47.449999999999989
 31
0.0
  0
LINE
  5
CF6
  8
0
 10
74.999999999999972
 20
42.49444650053487
 30
0.0
 11
81.786263005578405
 21
42.49444650053487
 31
0.0
  0
LINE
  5
CFA
  8
0
 10
74.999999999999972
 20
46.247223250267439
 30
0.0
 11
81.786263005578405
 21
46.247223250267439
 31
0.0
  0
LINE
  5
CFD
  8
0
 10
74.999999999999972
 20
57.505553499465123
 30
0.0
 11
81.786263005578405
 21
57.505553499465123
 31
0.0
  0
LINE
  5
CFE
  8
0
 10
74.999999999999972
 20
57.505553499465123
 30
0.0
 11
74.999999999999972
 21
42.49444650053487
 31
0.0
  0
LINE
  5
CFF
  8
0
 10
74.999999999999972
 20
53.752776749732561
 30
0.0
 11
81.786263005578405
 21
53.752776749732561
 31
0.0
  0
LINE
  5
D00
  8
0
 10
81.999999999999972
 20
47.449999999999989
 30
0.0
 11
88.099999999999966
 21
47.449999999999989
 31
0.0
  0
LINE
  5
D01
  8
0
 10
88.099999999999966
 20
52.550000000000011
 30
0.0
 11
81.999999999999972
 21
52.550000000000011
 31
0.0
  0
LINE
  5
D02
  8
0
 10
81.999999999999972
 20
42.300000000000011
 30
0.0
 11
82.499923847578174
 21
41.791273796781347
 31
0.0
  0
LINE
  5
D03
  8
0
 10
82.499923847578174
 20
58.208726203218639
 30
0.0
 11
81.999999999999972
 21
57.699999999999989
 31
0.0
  0
LINE
  5
D04
  8
0
 10
81.999999999999972
 20
42.300000000000011
 30
0.0
 11
81.999999999999972
 21
57.699999999999989
 31
0.0
  0
LINE
  5
D05
  8
0
 10
88.099999999999966
 20
52.550000000000011
 30
0.0
 11
88.099999999999966
 21
47.449999999999989
 31
0.0
  0
LINE
  5
D06
  8
0
 10
82.499923847578174
 20
52.550000000000011
 30
0.0
 11
82.499923847578174
 21
58.208726203218639
 31
0.0
  0
LINE
  5
D07
  8
0
 10
82.499923847578174
 20
41.791273796781347
 30
0.0
 11
96.299999999999955
 21
41.55039257152648
 31
0.0
  0
LINE
  5
D08
  8
0
 10
96.299999999999955
 20
58.44960742847352
 30
0.0
 11
82.499923847578174
 21
58.208726203218639
 31
0.0
  0
LINE
  5
D09
  8
0
 10
82.499923847578174
 20
41.791273796781347
 30
0.0
 11
82.499923847578174
 21
47.449999999999989
 31
0.0
  0
ARC
  5
D0C
  8
2
 10
116.1999999999999
 20
50.000000000000057
 30
0.0
 40
15.999999999999901
 50
143.13010235415629
 51
164.59590630127451
  0
ARC
  5
D0D
  8
2
 10
116.2
 20
50.0
 30
0.0
 40
16.000000000000039
 50
195.4040936987254
 51
216.86989764584339
  0
ARC
  5
D0E
  8
2
 10
103.0
 20
59.899999999999977
 30
0.0
 40
0.4999999999999478
 50
323.13010235415442
 51
0.0
  0
ARC
  5
D0F
  8
2
 10
103.0
 20
40.100000000000023
 30
0.0
 40
0.4999999999999467
 50
359.99999999999841
 51
36.869897645845647
  0
LINE
  5
D10
  8
0
 10
103.4999999999999
 20
38.446434624714733
 30
0.0
 11
103.4999999999999
 21
61.553565375285267
 31
0.0
  0
ARC
  5
D11
  8
0
 10
101.8
 20
60.5
 30
0.0
 40
1.9999999999999909
 50
31.788330617052491
 51
90.0
  0
ARC
  5
D12
  8
0
 10
101.8
 20
39.5
 30
0.0
 40
1.999999999999992
 50
270.0
 51
328.21166938294749
  0
LINE
  5
D13
  8
0
 10
96.299999999999955
 20
41.55039257152648
 30
0.0
 11
96.299999999999955
 21
58.44960742847352
 31
0.0
  0
LINE
  5
D14
  8
0
 10
96.299999999999955
 20
41.55039257152648
 30
0.0
 11
101.7538582242031
 21
37.5
 31
0.0
  0
LINE
  5
D15
  8
0
 10
101.7538582242031
 20
62.5
 30
0.0
 11
96.299999999999955
 21
58.44960742847352
 31
0.0
  0
LINE
  5
D16
  8
0
 10
101.7538582242031
 20
37.5
 30
0.0
 11
101.7538582242031
 21
62.5
 31
0.0
  0
LINE
  5
D17
  8
0
 10
101.7999999999999
 20
62.5
 30
0.0
 11
101.7538582242031
 21
62.5
 31
0.0
  0
LINE
  5
D18
  8
0
 10
101.7538582242031
 20
37.5
 30
0.0
 11
101.7999999999999
 21
37.5
 31
0.0
  0
LINE
  5
D19
  8
3
 10
58.386500000000012
 20
54.386500000000012
 30
0.0
 11
72.999999999999972
 21
54.386500000000012
 31
0.0
  0
LINE
  5
D1B
  8
3
 10
58.386500000000012
 20
45.613499999999988
 30
0.0
 11
72.999999999999972
 21
45.613499999999988
 31
0.0
  0
CIRCLE
  5
D1E
  8
0
 10
142.0
 20
50.0
 30
0.0
 40
4.25
  0
CIRCLE
  5
D21
  8
0
 10
142.0
 20
50.0
 30
0.0
 40
11.55356537528527
  0
CIRCLE
  5
D23
  8
0
 10
142.0
 20
50.0
 30
0.0
 40
12.5
  0
LINE
  5
DAC
  8
0
 10
73.0
 20
95.0
 30
0.0
 11
73.0
 21
105.0
 31
0.0
  0
LINE
  5
DAD
  8
0
 10
72.999999999999972
 20
45.0
 30
0.0
 11
72.999999999999972
 21
55.0
 31
0.0
  0
LINE
  5
DB3
  8
1
 10
106.5
 20
100.0
 30
0.0
 11
50.0
 21
100.0
 31
0.0
  0
LINE
  5
DB6
  8
1
 10
106.5
 20
50.0
 30
0.0
 11
50.0
 21
50.0
 31
0.0
  0
LINE
  5
DC1
  8
1
 10
126.5
 20
50.0
 30
0.0
 11
157.5
 21
50.0
 31
0.0
  0
LINE
  5
DC2
  8
1
 10
142.0
 20
34.5
 30
0.0
 11
142.0
 21
65.5
 31
0.0
  0
LINE
  5
E05
  8
3
 10
72.999999999999972
 20
54.386500000000012
 30
0.0
 11
74.062613170443484
 21
55.0
 31
0.0
  0
LINE
  5
E06
  8
3
 10
72.999999999999972
 20
45.613499999999988
 30
0.0
 11
74.062613170443484
 21
45.0
 31
0.0
  0
LINE
  5
E07
  8
3
 10
73.0
 20
104.3865
 30
0.0
 11
74.062613170443512
 21
105.0
 31
0.0
  0
LINE
  5
E08
  8
3
 10
73.0
 20
95.613499999999988
 30
0.0
 11
74.062613170443512
 21
95.0
 31
0.0
  0
ARC
  5
EC0
  8
0
 10
57.18402574272843
 20
103.25
 30
0.0
 40
24.81597425727157
 50
352.47469653162841
 51
7.5253034683716509
  0
ARC
  5
EC1
  8
0
 10
57.18402574272843
 20
96.749999999999986
 30
0.0
 40
24.81597425727157
 50
352.47469653162841
 51
7.5253034683716713
  0
ARC
  5
EC3
  8
0
 10
73.656762916102295
 20
55.629165124598842
 30
0.0
 40
8.3432370838976766
 50
347.0030419124505
 51
12.99695808754954
  0
ARC
  5
EC4
  8
0
 10
48.947657156041693
 20
50.0
 30
0.0
 40
33.052342843958293
 50
353.48055437338809
 51
6.5194456266118719
  0
ARC
  5
EC5
  8
0
 10
73.656762916102295
 20
44.370834875401158
 30
0.0
 40
8.3432370838976766
 50
347.00304191245061
 51
12.996958087549389
  0
ENDSEC
  0
EOF
