  0
SECTION
  2
HEADER
  9
$ACADVER
  1
AC1009
  9
$INSBASE
 10
0.0
 20
0.0
 30
0.0
  9
$EXTMIN
 10
0.0
 20
-1.4802182810368341
 30
0.0
  9
$EXTMAX
 10
219.0
 20
156.5
 30
0.0
  9
$LIMMIN
 10
0.0
 20
0.0
  9
$LIMMAX
 10
385.0
 20
270.0
  9
$ORTHOMODE
 70
     1
  9
$REGENMODE
 70
     1
  9
$FILLMODE
 70
     1
  9
$QTEXTMODE
 70
     0
  9
$MIRRTEXT
 70
     0
  9
$DRAGMODE
 70
     2
  9
$LTSCALE
 40
5.0
  9
$OSMODE
 70
    37
  9
$ATTMODE
 70
     1
  9
$TEXTSIZE
 40
4.000000000000048
  9
$TRACEWID
 40
0.05
  9
$TEXTSTYLE
  7
STANDARD
  9
$CLAYER
  8
0
  9
$CELTYPE
  6
BYLAYER
  9
$CECOLOR
 62
   256
  9
$DIMSCALE
 40
1.0
  9
$DIMASZ
 40
3.0
  9
$DIMEXO
 40
2.0
  9
$DIMDLI
 40
0.38
  9
$DIMRND
 40
0.0
  9
$DIMDLE
 40
0.0
  9
$DIMEXE
 40
2.0
  9
$DIMTP
 40
0.0
  9
$DIMTM
 40
0.0
  9
$DIMTXT
 40
3.0
  9
$DIMCEN
 40
0.0
  9
$DIMTSZ
 40
0.0
  9
$DIMTOL
 70
     0
  9
$DIMLIM
 70
     0
  9
$DIMTIH
 70
     0
  9
$DIMTOH
 70
     0
  9
$DIMSE1
 70
     0
  9
$DIMSE2
 70
     0
  9
$DIMTAD
 70
     1
  9
$DIMZIN
 70
     0
  9
$DIMBLK
  1

  9
$DIMASO
 70
     0
  9
$DIMSHO
 70
     0
  9
$DIMPOST
  1

  9
$DIMAPOST
  1

  9
$DIMALT
 70
     0
  9
$DIMALTD
 70
     2
  9
$DIMALTF
 40
25.399999999999999
  9
$DIMLFAC
 40
1.0
  9
$DIMTOFL
 70
     1
  9
$DIMTVP
 40
1.6000000000000001
  9
$DIMTIX
 70
     1
  9
$DIMSOXD
 70
     0
  9
$DIMSAH
 70
     0
  9
$DIMBLK1
  1

  9
$DIMBLK2
  1

  9
$DIMSTYLE
  2
STANDARD
  9
$DIMCLRD
 70
     0
  9
$DIMCLRE
 70
     0
  9
$DIMCLRT
 70
     0
  9
$DIMTFAC
 40
1.0
  9
$DIMGAP
 40
1.0
  9
$LUNITS
 70
     2
  9
$LUPREC
 70
     4
  9
$SKETCHINC
 40
0.1
  9
$FILLETRAD
 40
0.0
  9
$AUNITS
 70
     0
  9
$AUPREC
 70
     4
  9
$MENU
  1
E:\r13\win\SUPPORT\ACAD
  9
$ELEVATION
 40
0.0
  9
$PELEVATION
 40
0.0
  9
$THICKNESS
 40
0.0
  9
$LIMCHECK
 70
     0
  9
$BLIPMODE
 70
     0
  9
$CHAMFERA
 40
0.0
  9
$CHAMFERB
 40
0.0
  9
$SKPOLY
 70
     0
  9
$TDCREATE
 40
2450280.598206134
  9
$TDUPDATE
 40
2459200.3875863659
  9
$TDINDWG
 40
0.1161890856
  9
$TDUSRTIMER
 40
0.1161890856
  9
$USRTIMER
 70
     1
  9
$ANGBASE
 50
0.0
  9
$ANGDIR
 70
     0
  9
$PDMODE
 70
     0
  9
$PDSIZE
 40
0.0
  9
$PLINEWID
 40
0.0
  9
$COORDS
 70
     1
  9
$SPLFRAME
 70
     0
  9
$SPLINETYPE
 70
     6
  9
$SPLINESEGS
 70
     8
  9
$ATTDIA
 70
     0
  9
$ATTREQ
 70
     1
  9
$HANDLING
 70
     1
  9
$HANDSEED
  5
132C
  9
$SURFTAB1
 70
     6
  9
$SURFTAB2
 70
     6
  9
$SURFTYPE
 70
     6
  9
$SURFU
 70
     6
  9
$SURFV
 70
     6
  9
$UCSNAME
  2

  9
$UCSORG
 10
0.0
 20
0.0
 30
0.0
  9
$UCSXDIR
 10
1.0
 20
0.0
 30
0.0
  9
$UCSYDIR
 10
0.0
 20
1.0
 30
0.0
  9
$PUCSNAME
  2

  9
$PUCSORG
 10
0.0
 20
0.0
 30
0.0
  9
$PUCSXDIR
 10
1.0
 20
0.0
 30
0.0
  9
$PUCSYDIR
 10
0.0
 20
1.0
 30
0.0
  9
$USERI1
 70
     3
  9
$USERI2
 70
     1
  9
$USERI3
 70
     1
  9
$USERI4
 70
     0
  9
$USERI5
 70
     0
  9
$USERR1
 40
1.0
  9
$USERR2
 40
3.0
  9
$USERR3
 40
3.0
  9
$USERR4
 40
3.0
  9
$USERR5
 40
10.0
  9
$WORLDVIEW
 70
     1
  9
$SHADEDGE
 70
     3
  9
$SHADEDIF
 70
    70
  9
$TILEMODE
 70
     1
  9
$MAXACTVP
 70
    16
  9
$PLIMCHECK
 70
     0
  9
$PEXTMIN
 10
1.0000000000000000E+020
 20
1.0000000000000000E+020
 30
1.0000000000000000E+020
  9
$PEXTMAX
 10
-1.0000000000000000E+020
 20
-1.0000000000000000E+020
 30
-1.0000000000000000E+020
  9
$PLIMMIN
 10
0.0
 20
0.0
  9
$PLIMMAX
 10
12.0
 20
9.0
  9
$UNITMODE
 70
     0
  9
$VISRETAIN
 70
     0
  9
$PLINEGEN
 70
     0
  9
$PSLTSCALE
 70
     0
  0
ENDSEC
  0
SECTION
  2
TABLES
  0
TABLE
  2
VPORT
 70
     1
  0
VPORT
  2
*ACTIVE
 70
     0
 10
0.0
 20
0.0
 11
1.0
 21
1.0
 12
206.6667942184103
 22
77.500312084338134
 13
0.0
 23
0.0
 14
5.0
 24
5.0
 15
10.0
 25
10.0
 16
0.0
 26
0.0
 36
1.0
 17
0.0
 27
0.0
 37
0.0
 40
171.73960729340459
 41
2.415644171779141
 42
50.0
 43
0.0
 44
0.0
 50
0.0
 51
0.0
 71
     0
 72
   500
 73
     1
 74
     0
 75
     0
 76
     0
 77
     0
 78
     2
  0
ENDTAB
  0
TABLE
  2
LTYPE
 70
     4
  0
LTYPE
  2
CONTINUOUS
 70
     0
  3
Solid Line
 72
    65
 73
     0
 40
0.0
  0
LTYPE
  2
CENTER
 70
     0
  3
____ _ ____ _ ____ _ ____ _ ____ _ ____ _ ____
 72
    65
 73
     4
 40
2.0
 49
1.25
 49
-0.25
 49
0.25
 49
-0.25
  0
LTYPE
  2
HIDDEN
 70
     0
  3
_ _ _ _ _ _ _ _ _ _ _ _ _ _ _ _ _ _ _ _ _ _ _
 72
    65
 73
     2
 40
0.375
 49
0.25
 49
-0.125
  0
LTYPE
  2
PHANTOM2
 70
     0
  3
___ _ _ ___ _ _ ___ _ _ ___ _ _
 72
    65
 73
     6
 40
1.25
 49
0.625
 49
-0.125
 49
0.125
 49
-0.125
 49
0.125
 49
-0.125
  0
ENDTAB
  0
TABLE
  2
LAYER
 70
     4
  0
LAYER
  2
0
 70
     0
 62
     7
  6
CONTINUOUS
  0
LAYER
  2
1
 70
     0
 62
     1
  6
CENTER
  0
LAYER
  2
3
 70
     0
 62
     3
  6
CONTINUOUS
  0
LAYER
  2
2
 70
     0
 62
     2
  6
HIDDEN
  0
ENDTAB
  0
TABLE
  2
STYLE
 70
     2
  0
STYLE
  2
STANDARD
 70
     0
 40
0.0
 41
1.0
 50
0.0
 71
     0
 42
4.000000000000048
  3
SIMPLEX
  4
BIGFONT
  0
STYLE
  2
STANDARD1
 70
     0
 40
0.0
 41
1.0
 50
0.0
 71
     0
 42
3.0
  3
txt
  4

  0
ENDTAB
  0
TABLE
  2
VIEW
 70
     0
  0
ENDTAB
  0
TABLE
  2
UCS
 70
     0
  0
ENDTAB
  0
TABLE
  2
APPID
 70
     4
  0
APPID
  2
ACAD
 70
     0
  0
APPID
  2
ACAD_MLEADERVER
 70
     0
  0
APPID
  2
ACAD_NAV_VCDISPLAY
 70
     0
  0
APPID
  2
ACAD_EXEMPT_FROM_CAD_STANDARDS
 70
     0
  0
ENDTAB
  0
TABLE
  2
DIMSTYLE
 70
     2
  0
DIMSTYLE
  2
STANDARD
 70
     0
  3

  4

  5

  6

  7

 40
1.0
 41
0.18
 42
0.0625
 43
0.38
 44
0.18
 45
0.0
 46
0.0
 47
0.0
 48
0.0
140
0.18
141
0.09
142
0.0
143
25.399999999999999
144
1.0
145
0.0
146
1.0
147
0.09
 71
     0
 72
     0
 73
     1
 74
     1
 75
     0
 76
     0
 77
     0
 78
     0
170
     0
171
     2
172
     0
173
     0
174
     0
175
     0
176
     0
177
     0
178
     0
  0
DIMSTYLE
  2
ISO-25
 70
     0
  3

  4

  5

  6

  7

 40
1.0
 41
2.5
 42
0.625
 43
3.75
 44
1.25
 45
0.0
 46
0.0
 47
0.0
 48
0.0
140
2.5
141
2.5
142
0.0
143
0.0393700787
144
1.0
145
0.0
146
1.0
147
0.625
 71
     0
 72
     0
 73
     0
 74
     0
 75
     0
 76
     0
 77
     1
 78
     8
170
     0
171
     3
172
     1
173
     0
174
     0
175
     0
176
     0
177
     0
178
     0
  0
ENDTAB
  0
ENDSEC
  0
SECTION
  2
BLOCKS
  0
BLOCK
  8
0
  2
$MODEL_SPACE
 70
     0
 10
0.0
 20
0.0
 30
0.0
  3
$MODEL_SPACE
  1

  0
ENDBLK
  5
175
  8
0
  0
BLOCK
 67
     1
  8
0
  2
$PAPER_SPACE
 70
     0
 10
0.0
 20
0.0
 30
0.0
  3
$PAPER_SPACE
  1

  0
ENDBLK
  5
173
 67
     1
  8
0
  0
ENDSEC
  0
SECTION
  2
ENTITIES
  0
TEXT
  5
36B
  8
0
 62
     3
 10
0.0
 20
0.0
 30
0.0
 40
5.0
  1
BNDXN16AW-SUS
  7
STANDARD1
  0
ARC
  5
FD2
  8
0
 10
72.999999999999943
 20
140.0
 30
0.0
 40
7.9999999999999503
 50
157.88333686751309
 51
202.11666313248341
  0
LINE
  5
FD3
  8
0
 10
109.2
 20
126.5
 30
0.0
 11
116.8
 21
126.5
 31
0.0
  0
LINE
  5
FD4
  8
0
 10
109.2
 20
129.16315708053119
 30
0.0
 11
109.2
 21
126.5
 31
0.0
  0
LINE
  5
FD5
  8
0
 10
116.8
 20
128.39467483277909
 30
0.0
 11
116.8
 21
126.5
 31
0.0
  0
LINE
  5
FD6
  8
0
 10
65.588646594438586
 20
136.98805034937951
 30
0.0
 11
67.300000000000011
 21
136.0
 31
0.0
  0
LINE
  5
FD7
  8
0
 10
67.300000000000011
 20
144.0
 30
0.0
 11
65.588646594438586
 21
143.01194965062049
 31
0.0
  0
LINE
  5
FD8
  8
0
 10
65.588646594438586
 20
136.98805034937951
 30
0.0
 11
65.588646594438586
 21
143.01194965062049
 31
0.0
  0
LINE
  5
FD9
  8
0
 10
73.0
 20
144.0
 30
0.0
 11
67.300000000000011
 21
144.0
 31
0.0
  0
LINE
  5
FDA
  8
0
 10
67.300000000000011
 20
136.0
 30
0.0
 11
73.0
 21
136.0
 31
0.0
  0
LINE
  5
FDB
  8
0
 10
67.300000000000011
 20
136.0
 30
0.0
 11
67.300000000000011
 21
144.0
 31
0.0
  0
ARC
  5
FDC
  8
2
 10
118.9999999999999
 20
140.0
 30
0.0
 40
20.00000000000005
 50
342.85015020732811
 51
17.149849792671858
  0
ARC
  5
FDD
  8
2
 10
137.63296809421411
 20
145.75
 30
0.0
 40
0.5000000000000159
 50
17.149849792675081
 51
90.0
  0
ARC
  5
FDE
  8
2
 10
137.63296809421411
 20
134.25
 30
0.0
 40
0.5000000000000151
 50
270.0
 51
342.85015020732487
  0
LINE
  5
FDF
  8
2
 10
137.96237927220551
 20
146.25
 30
0.0
 11
137.63296809421411
 21
146.25
 31
0.0
  0
LINE
  5
FE0
  8
2
 10
137.63296809421411
 20
133.75
 30
0.0
 11
137.96237927220551
 21
133.75
 31
0.0
  0
LINE
  5
FE1
  8
2
 10
137.63296809421411
 20
133.75
 30
0.0
 11
137.63296809421411
 21
146.25
 31
0.0
  0
LINE
  5
FE2
  8
0
 10
99.0
 20
148.0
 30
0.0
 11
91.536267268929535
 21
148.0
 31
0.0
  0
LINE
  5
FE3
  8
0
 10
74.5
 20
132.0
 30
0.0
 11
83.536267268928853
 21
132.0
 31
0.0
  0
LINE
  5
FE4
  8
0
 10
73.0
 20
133.5
 30
0.0
 11
74.5
 21
132.0
 31
0.0
  0
LINE
  5
FE5
  8
0
 10
74.5
 20
148.0
 30
0.0
 11
73.0
 21
146.5
 31
0.0
  0
LINE
  5
FE6
  8
0
 10
73.0
 20
133.5
 30
0.0
 11
73.0
 21
146.5
 31
0.0
  0
LINE
  5
FE7
  8
0
 10
96.0
 20
132.0
 30
0.0
 11
96.0
 21
148.0
 31
0.0
  0
LINE
  5
FE8
  8
0
 10
74.5
 20
132.0
 30
0.0
 11
74.5
 21
148.0
 31
0.0
  0
LINE
  5
FE9
  8
0
 10
99.0
 20
149.5
 30
0.0
 11
109.0
 21
149.5
 31
0.0
  0
LINE
  5
FEA
  8
0
 10
109.0
 20
130.5
 30
0.0
 11
99.0
 21
130.5
 31
0.0
  0
LINE
  5
FEC
  8
0
 10
99.0
 20
149.5
 30
0.0
 11
99.0
 21
130.5
 31
0.0
  0
LINE
  5
FEE
  8
0
 10
99.0
 20
140.0
 30
0.0
 11
108.6876151619992
 21
140.0
 31
0.0
  0
LINE
  5
FF1
  8
0
 10
109.7998781561251
 20
128.52250980662799
 30
0.0
 11
109.0
 21
129.37750029418689
 31
0.0
  0
LINE
  5
FF2
  8
0
 10
109.0
 20
129.37750029418689
 30
0.0
 11
109.0
 21
151.19999999999999
 31
0.0
  0
LINE
  5
FF3
  8
0
 10
109.7998781561251
 20
152.0139619251498
 30
0.0
 11
109.0
 21
151.19999999999999
 31
0.0
  0
LINE
  5
FF4
  8
0
 10
117.09999999999999
 20
128.38919664147349
 30
0.0
 11
109.7998781561251
 21
128.52250980662799
 31
0.0
  0
LINE
  5
FF5
  8
0
 10
117.09999999999999
 20
128.38919664147349
 30
0.0
 11
117.09999999999999
 21
127.85861397408139
 31
0.0
  0
LINE
  5
FF6
  8
0
 10
109.7998781561251
 20
128.52250980662799
 30
0.0
 11
109.7998781561251
 21
152.0139619251498
 31
0.0
  0
LINE
  5
FF7
  8
0
 10
117.09999999999999
 20
127.85861397408139
 30
0.0
 11
133.09999999999999
 21
127.5793329352299
 31
0.0
  0
LINE
  5
FF8
  8
0
 10
133.09999999999999
 20
152.42066706476999
 30
0.0
 11
109.7998781561251
 21
152.0139619251498
 31
0.0
  0
ARC
  5
FF9
  8
2
 10
163.2000000000005
 20
139.9999999999998
 30
0.0
 40
26.000000000000469
 50
148.93736698423689
 51
166.0907582223667
  0
ARC
  5
FFA
  8
2
 10
163.1999999999997
 20
139.99999999999989
 30
0.0
 40
25.99999999999968
 50
193.90924177763321
 51
211.062633015763
  0
ARC
  5
FFB
  8
2
 10
140.5
 20
153.6733317081098
 30
0.0
 40
0.4999999999999745
 50
328.93736698423697
 51
0.0
  0
ARC
  5
FFC
  8
2
 10
140.5
 20
126.3266682918902
 30
0.0
 40
0.4999999999999752
 50
0.0
 51
31.062633015763058
  0
LINE
  5
FFD
  8
0
 10
133.09999999999999
 20
127.5793329352299
 30
0.0
 11
138.69416178253999
 21
123.5
 31
0.0
  0
LINE
  5
FFE
  8
0
 10
138.69416178253999
 20
156.5
 30
0.0
 11
133.09999999999999
 21
152.42066706476999
 31
0.0
  0
LINE
  5
FFF
  8
0
 10
133.09999999999999
 20
127.5793329352299
 30
0.0
 11
133.09999999999999
 21
152.42066706476999
 31
0.0
  0
LINE
  5
1000
  8
0
 10
139.0
 20
156.5
 30
0.0
 11
138.69416178253999
 21
156.5
 31
0.0
  0
LINE
  5
1001
  8
0
 10
138.69416178253999
 20
123.5
 30
0.0
 11
139.0
 21
123.5
 31
0.0
  0
LINE
  5
1002
  8
0
 10
138.69416178253999
 20
123.5
 30
0.0
 11
138.69416178253999
 21
156.5
 31
0.0
  0
ARC
  5
1003
  8
0
 10
139.0
 20
154.0
 30
0.0
 40
2.5000000000000231
 50
36.86989764584203
 51
90.0
  0
ARC
  5
1004
  8
0
 10
139.0
 20
126.0
 30
0.0
 40
2.5000000000000169
 50
270.0
 51
323.13010235415788
  0
LINE
  5
1005
  8
0
 10
141.0
 20
124.5
 30
0.0
 11
141.0
 21
155.5
 31
0.0
  0
LINE
  5
1006
  8
3
 10
73.579999999999984
 20
132.91999999999999
 30
0.0
 11
83.536267268927304
 21
132.91999999999999
 31
0.0
  0
LINE
  5
1007
  8
3
 10
73.579999999999984
 20
147.08000000000001
 30
0.0
 11
83.536267268903643
 21
147.08000000000001
 31
0.0
  0
ARC
  5
1008
  8
0
 10
72.999999999999943
 20
60.0
 30
0.0
 40
7.9999999999999503
 50
157.88333686751309
 51
202.11666313248341
  0
LINE
  5
1009
  8
0
 10
73.0
 20
64.0
 30
0.0
 11
67.300000000000011
 21
64.0
 31
0.0
  0
LINE
  5
100A
  8
0
 10
67.300000000000011
 20
56.0
 30
0.0
 11
73.0
 21
56.0
 31
0.0
  0
LINE
  5
100B
  8
0
 10
65.588646594438586
 20
56.988050349379471
 30
0.0
 11
65.588646594438586
 21
63.011949650620522
 31
0.0
  0
LINE
  5
100C
  8
0
 10
67.300000000000011
 20
56.0
 30
0.0
 11
67.300000000000011
 21
64.0
 31
0.0
  0
LINE
  5
100D
  8
0
 10
65.588646594438586
 20
56.988050349379471
 30
0.0
 11
67.300000000000011
 21
56.0
 31
0.0
  0
LINE
  5
100E
  8
0
 10
67.300000000000011
 20
64.0
 30
0.0
 11
65.588646594438586
 21
63.011949650620522
 31
0.0
  0
LINE
  5
100F
  8
0
 10
108.6876151619992
 20
49.030344885397142
 30
0.0
 11
109.0
 21
50.5
 31
0.0
  0
LINE
  5
1010
  8
0
 10
109.0
 20
69.5
 30
0.0
 11
108.6876151619992
 21
70.969655114602915
 31
0.0
  0
ARC
  5
1011
  8
2
 10
118.9999999999999
 20
60.0
 30
0.0
 40
20.00000000000006
 50
342.85015020732811
 51
17.149849792671858
  0
ARC
  5
1012
  8
2
 10
137.63296809421411
 20
65.75
 30
0.0
 40
0.5000000000000159
 50
17.149849792671858
 51
90.0
  0
ARC
  5
1013
  8
2
 10
137.63296809421411
 20
54.25
 30
0.0
 40
0.5000000000000151
 50
270.0
 51
342.85015020732811
  0
LINE
  5
1014
  8
2
 10
137.63296809421411
 20
53.75
 30
0.0
 11
137.63296809421411
 21
66.25
 31
0.0
  0
LINE
  5
1015
  8
2
 10
137.96237927220551
 20
66.25
 30
0.0
 11
137.63296809421411
 21
66.25
 31
0.0
  0
LINE
  5
1016
  8
2
 10
137.63296809421411
 20
53.75
 30
0.0
 11
137.96237927220551
 21
53.75
 31
0.0
  0
LINE
  5
1017
  8
0
 10
99.0
 20
68.0
 30
0.0
 11
91.536267268916774
 21
68.000000000000014
 31
0.0
  0
LINE
  5
1018
  8
0
 10
74.5
 20
52.0
 30
0.0
 11
83.536267268916788
 21
52.0
 31
0.0
  0
LINE
  5
1019
  8
0
 10
73.0
 20
53.5
 30
0.0
 11
73.0
 21
66.5
 31
0.0
  0
LINE
  5
101A
  8
0
 10
74.5
 20
52.0
 30
0.0
 11
74.5
 21
68.0
 31
0.0
  0
LINE
  5
101B
  8
0
 10
73.0
 20
53.5
 30
0.0
 11
74.5
 21
52.0
 31
0.0
  0
LINE
  5
101C
  8
0
 10
74.5
 20
68.0
 30
0.0
 11
73.0
 21
66.5
 31
0.0
  0
LINE
  5
101F
  8
0
 10
99.0
 20
49.030344885397142
 30
0.0
 11
108.6876151619992
 21
49.030344885397142
 31
0.0
  0
LINE
  5
1022
  8
0
 10
99.0
 20
54.515172442698599
 30
0.0
 11
108.6876151619992
 21
54.515172442698599
 31
0.0
  0
LINE
  5
1025
  8
0
 10
99.0
 20
70.969655114602915
 30
0.0
 11
108.6876151619992
 21
70.969655114602915
 31
0.0
  0
LINE
  5
1026
  8
0
 10
99.0
 20
70.969655114602915
 30
0.0
 11
99.0
 21
49.030344885397142
 31
0.0
  0
LINE
  5
1027
  8
0
 10
99.0
 20
65.484827557301514
 30
0.0
 11
108.6876151619992
 21
65.484827557301514
 31
0.0
  0
LINE
  5
1028
  8
0
 10
109.2
 20
63.550000000000068
 30
0.0
 11
109.2
 21
56.450000000000038
 31
0.0
  0
LINE
  5
1029
  8
0
 10
116.8
 20
63.550000000000068
 30
0.0
 11
116.8
 21
56.450000000000038
 31
0.0
  0
LINE
  5
102A
  8
0
 10
109.0
 20
56.450000000000038
 30
0.0
 11
117.09999999999999
 21
56.450000000000038
 31
0.0
  0
LINE
  5
102B
  8
0
 10
117.09999999999999
 20
63.550000000000068
 30
0.0
 11
109.0
 21
63.550000000000068
 31
0.0
  0
LINE
  5
102C
  8
0
 10
109.0
 20
48.80000000000004
 30
0.0
 11
109.7998781561251
 21
47.9860380748502
 31
0.0
  0
LINE
  5
102D
  8
0
 10
109.7998781561251
 20
72.013961925149829
 30
0.0
 11
109.0
 21
71.200000000000045
 31
0.0
  0
LINE
  5
102E
  8
0
 10
109.0
 20
48.80000000000004
 30
0.0
 11
109.0
 21
71.200000000000045
 31
0.0
  0
LINE
  5
102F
  8
0
 10
117.09999999999999
 20
63.550000000000068
 30
0.0
 11
117.09999999999999
 21
56.450000000000038
 31
0.0
  0
LINE
  5
1030
  8
0
 10
109.7998781561251
 20
63.550000000000068
 30
0.0
 11
109.7998781561251
 21
72.013961925149829
 31
0.0
  0
LINE
  5
1031
  8
0
 10
109.7998781561251
 20
47.9860380748502
 30
0.0
 11
133.09999999999999
 21
47.579332935229949
 31
0.0
  0
LINE
  5
1032
  8
0
 10
133.09999999999999
 20
72.420667064770043
 30
0.0
 11
109.7998781561251
 21
72.013961925149829
 31
0.0
  0
LINE
  5
1033
  8
0
 10
109.7998781561251
 20
47.9860380748502
 30
0.0
 11
109.7998781561251
 21
56.450000000000038
 31
0.0
  0
ARC
  5
1036
  8
2
 10
163.20000000000061
 20
59.999999999999709
 30
0.0
 40
26.000000000000721
 50
148.93736698423689
 51
166.0907582223667
  0
ARC
  5
1037
  8
2
 10
163.2000000000005
 20
60.000000000000227
 30
0.0
 40
26.0000000000006
 50
193.90924177763321
 51
211.062633015763
  0
ARC
  5
1038
  8
2
 10
140.5
 20
73.673331708109743
 30
0.0
 40
0.4999999999999745
 50
328.93736698423328
 51
0.0
  0
ARC
  5
1039
  8
2
 10
140.5
 20
46.326668291890257
 30
0.0
 40
0.4999999999999752
 50
359.99999999999682
 51
31.062633015766721
  0
LINE
  5
103A
  8
0
 10
133.09999999999999
 20
47.579332935229949
 30
0.0
 11
133.09999999999999
 21
72.420667064770043
 31
0.0
  0
LINE
  5
103B
  8
0
 10
133.09999999999999
 20
47.579332935229949
 30
0.0
 11
138.69416178253999
 21
43.5
 31
0.0
  0
LINE
  5
103C
  8
0
 10
138.69416178253999
 20
76.5
 30
0.0
 11
133.09999999999999
 21
72.420667064770043
 31
0.0
  0
LINE
  5
103D
  8
0
 10
138.69416178253999
 20
43.5
 30
0.0
 11
138.69416178253999
 21
76.5
 31
0.0
  0
LINE
  5
103E
  8
0
 10
139.0
 20
76.5
 30
0.0
 11
138.69416178253999
 21
76.5
 31
0.0
  0
LINE
  5
103F
  8
0
 10
138.69416178253999
 20
43.5
 30
0.0
 11
139.0
 21
43.5
 31
0.0
  0
LINE
  5
1040
  8
0
 10
141.0
 20
44.5
 30
0.0
 11
141.0
 21
75.5
 31
0.0
  0
ARC
  5
1041
  8
0
 10
139.0
 20
74.0
 30
0.0
 40
2.5000000000000231
 50
36.86989764584203
 51
90.0
  0
ARC
  5
1042
  8
0
 10
139.0
 20
46.0
 30
0.0
 40
2.5000000000000169
 50
270.0
 51
323.13010235415788
  0
CIRCLE
  5
1045
  8
0
 10
197.5
 20
60.0
 30
0.0
 40
6.25
  0
CIRCLE
  5
1046
  8
0
 10
197.5
 20
60.0
 30
0.0
 40
15.5
  0
CIRCLE
  5
1047
  8
0
 10
197.5
 20
60.0
 30
0.0
 40
16.500000000000011
  0
LINE
  5
1048
  8
3
 10
96.0
 20
147.08000000000001
 30
0.0
 11
97.593486742963421
 21
148.0
 31
0.0
  0
LINE
  5
1049
  8
3
 10
96.0
 20
132.9199999999999
 30
0.0
 11
97.593486742963421
 21
132.0
 31
0.0
  0
LINE
  5
104F
  8
1
 10
60.0
 20
140.0
 30
0.0
 11
146.0
 21
140.0
 31
0.0
  0
LINE
  5
1050
  8
1
 10
60.0
 20
60.0
 30
0.0
 11
146.0
 21
60.0
 31
0.0
  0
LINE
  5
1057
  8
1
 10
176.0
 20
60.0
 30
0.0
 11
219.0
 21
60.0
 31
0.0
  0
LINE
  5
1058
  8
1
 10
197.5
 20
38.5
 30
0.0
 11
197.5
 21
81.5
 31
0.0
  0
LINE
  5
1060
  8
0
 10
96.0
 20
52.0
 30
0.0
 11
96.0
 21
68.0
 31
0.0
  0
LINE
  5
1061
  8
3
 10
73.579999999999984
 20
52.920000000000009
 30
0.0
 11
83.536267268916788
 21
52.920000000000009
 31
0.0
  0
LINE
  5
1062
  8
3
 10
73.579999999999984
 20
67.080000000000041
 30
0.0
 11
83.536267268916788
 21
67.080000000000069
 31
0.0
  0
LINE
  5
1063
  8
3
 10
96.0
 20
67.080000000000041
 30
0.0
 11
97.593486742963421
 21
68.0
 31
0.0
  0
LINE
  5
1064
  8
3
 10
96.0
 20
52.919999999999959
 30
0.0
 11
97.593486742963421
 21
52.0
 31
0.0
  0
ARC
  5
10F1
  8
0
 10
72.730499162449561
 20
144.75
 30
0.0
 40
36.269500837550439
 50
352.47469653162841
 51
7.5253034683716171
  0
ARC
  5
10F2
  8
0
 10
72.730499162449561
 20
135.25
 30
0.0
 40
36.269500837550439
 50
352.47469653162921
 51
7.5253034683708098
  0
ARC
  5
10F3
  8
0
 10
96.806038108149806
 20
68.227241335952201
 30
0.0
 40
12.193961891850201
 50
347.00304191245039
 51
12.99695808754978
  0
ARC
  5
10F4
  8
0
 10
60.692729689602828
 20
59.999999999999872
 30
0.0
 40
48.307270310397172
 50
353.48055437338797
 51
6.5194456266124563
  0
ARC
  5
10F5
  8
0
 10
96.806038108149963
 20
51.772758664047807
 30
0.0
 40
12.193961891850201
 50
347.00304191245152
 51
12.996958087550221
  0
ARC
  5
11AA
  8
0
 10
89.670241886779365
 20
70.392294047375159
 30
0.0
 40
6.1339746178626706
 50
180.00002816960429
 51
214.38424729781181
  0
ARC
  5
11AB
  8
0
 10
106.4644705954822
 20
60.000000000007489
 30
0.0
 40
22.928203326565392
 50
162.41204631709209
 51
197.5879536829419
  0
ARC
  5
11AC
  8
0
 10
89.670241886779365
 20
49.607695163046579
 30
0.0
 40
6.1339746178626706
 50
145.6157527021881
 51
179.99997183039571
  0
LINE
  5
11AD
  8
0
 10
83.536267268916788
 20
72.000000000000014
 30
0.0
 11
84.608064032126833
 21
73.856406449267539
 31
0.0
  0
LINE
  5
11AE
  8
0
 10
83.536267268916788
 20
47.999999999999979
 30
0.0
 11
84.608064032132972
 21
46.143593550721882
 31
0.0
  0
LINE
  5
11AF
  8
0
 10
90.464470505700945
 20
53.071796775369123
 30
0.0
 11
84.608064032131395
 21
53.071796775369123
 31
0.0
  0
LINE
  5
11B0
  8
0
 10
84.608064032132972
 20
46.143593550721882
 30
0.0
 11
90.464470505700703
 21
46.143593550721882
 31
0.0
  0
LINE
  5
11B1
  8
0
 10
90.464470505705265
 20
66.928203224632298
 30
0.0
 11
84.608064032128311
 21
66.928203224632298
 31
0.0
  0
LINE
  5
11B2
  8
0
 10
84.608064032126833
 20
73.856406449267539
 30
0.0
 11
90.464470505706856
 21
73.856406449267539
 31
0.0
  0
LINE
  5
11B3
  8
0
 10
83.536267268916788
 20
72.000000000000014
 30
0.0
 11
83.536267268916788
 21
47.999999999999979
 31
0.0
  0
LINE
  5
11B4
  8
0
 10
91.536267268916774
 20
72.000000000000014
 30
0.0
 11
91.536267268916774
 21
47.999999999999979
 31
0.0
  0
LINE
  5
11B5
  8
0
 10
91.536267268916774
 20
47.999999999999979
 30
0.0
 11
90.464470505700703
 21
46.143593550721882
 31
0.0
  0
LINE
  5
11B6
  8
0
 10
91.536267268916774
 20
72.000000000000014
 30
0.0
 11
90.464470505706856
 21
73.856406449267539
 31
0.0
  0
ARC
  5
11B7
  8
0
 10
85.402292651054225
 20
49.607695163046579
 30
0.0
 40
6.1339746178626706
 50
0.0000281696042832
 51
34.384247297811847
  0
ARC
  5
11B8
  8
0
 10
68.608063942351393
 20
60.000000000007489
 30
0.0
 40
22.928203326565392
 50
342.41204631705813
 51
17.587953682907902
  0
ARC
  5
11B9
  8
0
 10
85.402292651054225
 20
70.392294047375159
 30
0.0
 40
6.1339746178626706
 50
325.61575270218822
 51
359.99997183039579
  0
ARC
  5
11BA
  8
0
 10
101.155069420833
 20
134.0
 30
0.0
 40
17.330127017333279
 50
159.74384199764609
 51
200.25615800235391
  0
ARC
  5
11BB
  8
0
 10
73.917465116998642
 20
134.0
 30
0.0
 40
17.330127017333279
 50
339.74384199764609
 51
20.256158002353871
  0
LINE
  5
11BC
  8
0
 10
83.536267268896268
 20
151.5
 30
0.0
 11
83.536267268934694
 21
128.49999999993361
 31
0.0
  0
LINE
  5
11BD
  8
0
 10
91.536267268896964
 20
128.49999999993361
 30
0.0
 11
91.536267268935376
 21
151.5
 31
0.0
  0
ARC
  5
11BE
  8
0
 10
101.155069420833
 20
146.0
 30
0.0
 40
17.330127017333279
 50
159.74384199764609
 51
200.25615800235391
  0
ARC
  5
11BF
  8
0
 10
73.917465116998642
 20
146.0
 30
0.0
 40
17.330127017333279
 50
339.74384199764609
 51
20.256158002353871
  0
LINE
  5
11C0
  8
0
 10
91.247592134331967
 20
152.00000000001501
 30
0.0
 11
83.824942403491036
 21
152.0
 31
0.0
  0
LINE
  5
11C1
  8
0
 10
83.824942403499676
 20
152.00000000001501
 30
0.0
 11
83.536267268896268
 21
151.5
 31
0.0
  0
LINE
  5
11C2
  8
0
 10
91.247592134331967
 20
152.00000000001501
 30
0.0
 11
91.536267268935376
 21
151.5
 31
0.0
  0
LINE
  5
11C3
  8
0
 10
84.896739173328925
 20
140.0
 30
0.0
 11
90.175795364502733
 21
140.0
 31
0.0
  0
LINE
  5
11C4
  8
0
 10
91.247592134331967
 20
127.99999999998499
 30
0.0
 11
83.824942403491036
 21
128.0
 31
0.0
  0
LINE
  5
11C5
  8
0
 10
83.824942403499676
 20
127.99999999998499
 30
0.0
 11
83.536267268896268
 21
128.5
 31
0.0
  0
LINE
  5
11C6
  8
0
 10
91.247592134331967
 20
127.99999999998499
 30
0.0
 11
91.536267268935376
 21
128.5
 31
0.0
  0
LINE
  5
11C7
  8
0
 10
83.536267268902122
 20
148.0
 30
0.0
 11
74.5
 21
148.0
 31
0.0
  0
LINE
  5
11C8
  8
3
 10
91.536267268928015
 20
147.08000000000001
 30
0.0
 11
96.0
 21
147.0800000000001
 31
0.0
  0
LINE
  5
11C9
  8
3
 10
91.536267268904339
 20
132.91999999999999
 30
0.0
 11
96.0
 21
132.91999999999999
 31
0.0
  0
LINE
  5
11CA
  8
0
 10
91.536267268902805
 20
132.0
 30
0.0
 11
99.0
 21
132.0
 31
0.0
  0
LINE
  5
11CB
  8
0
 10
83.536267268916788
 20
68.000000000000014
 30
0.0
 11
74.5
 21
68.0
 31
0.0
  0
LINE
  5
11CC
  8
3
 10
91.536267268916774
 20
67.080000000000084
 30
0.0
 11
96.0
 21
67.080000000000084
 31
0.0
  0
LINE
  5
11CD
  8
3
 10
91.536267268916774
 20
52.920000000000009
 30
0.0
 11
96.0
 21
52.920000000000009
 31
0.0
  0
LINE
  5
11CE
  8
0
 10
91.536267268916774
 20
52.0
 30
0.0
 11
99.0
 21
52.0
 31
0.0
  0
ENDSEC
  0
EOF
