  0
SECTION
  2
HEADER
  9
$ACADVER
  1
AC1009
  9
$INSBASE
 10
0.0
 20
0.0
 30
0.0
  9
$EXTMIN
 10
0.0
 20
-2.960436562073669
 30
0.0
  9
$EXTMAX
 10
140.48774711767931
 20
91.36952747809795
 30
0.0
  9
$LIMMIN
 10
0.0
 20
0.0
  9
$LIMMAX
 10
187.5
 20
135.0
  9
$ORTHOMODE
 70
     1
  9
$REGENMODE
 70
     1
  9
$FILLMODE
 70
     1
  9
$QTEXTMODE
 70
     0
  9
$MIRRTEXT
 70
     0
  9
$DRAGMODE
 70
     2
  9
$LTSCALE
 40
5.0
  9
$OSMODE
 70
  3071
  9
$ATTMODE
 70
     1
  9
$TEXTSIZE
 40
0.2
  9
$TRACEWID
 40
0.05
  9
$TEXTSTYLE
  7
STANDARD
  9
$CLAYER
  8
0
  9
$CELTYPE
  6
BYLAYER
  9
$CECOLOR
 62
   256
  9
$DIMSCALE
 40
0.5
  9
$DIMASZ
 40
3.0
  9
$DIMEXO
 40
2.0
  9
$DIMDLI
 40
0.38
  9
$DIMRND
 40
0.0
  9
$DIMDLE
 40
0.0
  9
$DIMEXE
 40
2.0
  9
$DIMTP
 40
0.0
  9
$DIMTM
 40
0.0
  9
$DIMTXT
 40
3.0
  9
$DIMCEN
 40
0.0
  9
$DIMTSZ
 40
0.0
  9
$DIMTOL
 70
     0
  9
$DIMLIM
 70
     0
  9
$DIMTIH
 70
     0
  9
$DIMTOH
 70
     0
  9
$DIMSE1
 70
     0
  9
$DIMSE2
 70
     0
  9
$DIMTAD
 70
     1
  9
$DIMZIN
 70
     0
  9
$DIMBLK
  1

  9
$DIMASO
 70
     0
  9
$DIMSHO
 70
     0
  9
$DIMPOST
  1

  9
$DIMAPOST
  1

  9
$DIMALT
 70
     0
  9
$DIMALTD
 70
     2
  9
$DIMALTF
 40
25.399999999999999
  9
$DIMLFAC
 40
1.0
  9
$DIMTOFL
 70
     1
  9
$DIMTVP
 40
1.6000000000000001
  9
$DIMTIX
 70
     1
  9
$DIMSOXD
 70
     0
  9
$DIMSAH
 70
     0
  9
$DIMBLK1
  1

  9
$DIMBLK2
  1

  9
$DIMSTYLE
  2
STANDARD
  9
$DIMCLRD
 70
     0
  9
$DIMCLRE
 70
     0
  9
$DIMCLRT
 70
     0
  9
$DIMTFAC
 40
1.0
  9
$DIMGAP
 40
0.09
  9
$LUNITS
 70
     2
  9
$LUPREC
 70
     4
  9
$SKETCHINC
 40
0.1
  9
$FILLETRAD
 40
0.5
  9
$AUNITS
 70
     0
  9
$AUPREC
 70
     4
  9
$MENU
  1
E:\r13\win\SUPPORT\ACAD
  9
$ELEVATION
 40
0.0
  9
$PELEVATION
 40
0.0
  9
$THICKNESS
 40
0.0
  9
$LIMCHECK
 70
     0
  9
$BLIPMODE
 70
     0
  9
$CHAMFERA
 40
0.0
  9
$CHAMFERB
 40
0.0
  9
$SKPOLY
 70
     0
  9
$TDCREATE
 40
2449840.612928241
  9
$TDUPDATE
 40
2456598.397552616
  9
$TDINDWG
 40
0.0120179167
  9
$TDUSRTIMER
 40
0.0120179167
  9
$USRTIMER
 70
     1
  9
$ANGBASE
 50
0.0
  9
$ANGDIR
 70
     0
  9
$PDMODE
 70
     0
  9
$PDSIZE
 40
0.0
  9
$PLINEWID
 40
0.0
  9
$COORDS
 70
     1
  9
$SPLFRAME
 70
     0
  9
$SPLINETYPE
 70
     6
  9
$SPLINESEGS
 70
     8
  9
$ATTDIA
 70
     0
  9
$ATTREQ
 70
     1
  9
$HANDLING
 70
     1
  9
$HANDSEED
  5
2F3
  9
$SURFTAB1
 70
     6
  9
$SURFTAB2
 70
     6
  9
$SURFTYPE
 70
     6
  9
$SURFU
 70
     6
  9
$SURFV
 70
     6
  9
$UCSNAME
  2

  9
$UCSORG
 10
0.0
 20
0.0
 30
0.0
  9
$UCSXDIR
 10
1.0
 20
0.0
 30
0.0
  9
$UCSYDIR
 10
0.0
 20
1.0
 30
0.0
  9
$PUCSNAME
  2

  9
$PUCSORG
 10
0.0
 20
0.0
 30
0.0
  9
$PUCSXDIR
 10
1.0
 20
0.0
 30
0.0
  9
$PUCSYDIR
 10
0.0
 20
1.0
 30
0.0
  9
$USERI1
 70
     3
  9
$USERI2
 70
     1
  9
$USERI3
 70
     0
  9
$USERI4
 70
     0
  9
$USERI5
 70
     0
  9
$USERR1
 40
0.5
  9
$USERR2
 40
3.0
  9
$USERR3
 40
3.0
  9
$USERR4
 40
3.0
  9
$USERR5
 40
10.0
  9
$WORLDVIEW
 70
     1
  9
$SHADEDGE
 70
     3
  9
$SHADEDIF
 70
    70
  9
$TILEMODE
 70
     1
  9
$MAXACTVP
 70
    16
  9
$PLIMCHECK
 70
     0
  9
$PEXTMIN
 10
1.0000000000000000E+020
 20
1.0000000000000000E+020
 30
1.0000000000000000E+020
  9
$PEXTMAX
 10
-1.0000000000000000E+020
 20
-1.0000000000000000E+020
 30
-1.0000000000000000E+020
  9
$PLIMMIN
 10
0.0
 20
0.0
  9
$PLIMMAX
 10
12.0
 20
9.0
  9
$UNITMODE
 70
     0
  9
$VISRETAIN
 70
     0
  9
$PLINEGEN
 70
     0
  9
$PSLTSCALE
 70
     0
  0
ENDSEC
  0
SECTION
  2
TABLES
  0
TABLE
  2
VPORT
 70
     1
  0
VPORT
  2
*ACTIVE
 70
     0
 10
0.0
 20
0.0
 11
1.0
 21
1.0
 12
97.570150770051072
 22
66.014785922033241
 13
0.0
 23
0.0
 14
5.0
 24
5.0
 15
10.0
 25
10.0
 16
0.0
 26
0.0
 36
1.0
 17
0.0
 27
0.0
 37
0.0
 40
139.20783109903601
 41
1.831871345029239
 42
50.0
 43
0.0
 44
0.0
 50
0.0
 51
0.0
 71
     0
 72
   100
 73
     1
 74
     0
 75
     0
 76
     0
 77
     0
 78
     0
  0
ENDTAB
  0
TABLE
  2
LTYPE
 70
     4
  0
LTYPE
  2
CONTINUOUS
 70
     0
  3
Solid Line
 72
    65
 73
     0
 40
0.0
  0
LTYPE
  2
CENTER
 70
     0
  3
____ _ ____ _ ____ _ ____ _ ____ _ ____ _ ____
 72
    65
 73
     4
 40
2.0
 49
1.25
 49
-0.25
 49
0.25
 49
-0.25
  0
LTYPE
  2
HIDDEN
 70
     0
  3
_ _ _ _ _ _ _ _ _ _ _ _ _ _ _ _ _ _ _ _ _ _ _
 72
    65
 73
     2
 40
0.375
 49
0.25
 49
-0.125
  0
LTYPE
  2
PHANTOM2
 70
     0
  3
___ _ _ ___ _ _ ___ _ _ ___ _ _
 72
    65
 73
     6
 40
1.25
 49
0.625
 49
-0.125
 49
0.125
 49
-0.125
 49
0.125
 49
-0.125
  0
ENDTAB
  0
TABLE
  2
LAYER
 70
     6
  0
LAYER
  2
0
 70
     0
 62
     7
  6
CONTINUOUS
  0
LAYER
  2
1
 70
     0
 62
     1
  6
CENTER
  0
LAYER
  2
11
 70
     0
 62
     3
  6
CONTINUOUS
  0
LAYER
  2
4
 70
     0
 62
     4
  6
CONTINUOUS
  0
LAYER
  2
3
 70
     0
 62
     3
  6
CONTINUOUS
  0
LAYER
  2
2
 70
     0
 62
     2
  6
HIDDEN
  0
ENDTAB
  0
TABLE
  2
STYLE
 70
     2
  0
STYLE
  2
STANDARD
 70
     0
 40
0.0
 41
1.0
 50
0.0
 71
     0
 42
0.2
  3
TXT
  4
BIGFONT
  0
STYLE
  2
STANDARD1
 70
     0
 40
0.0
 41
1.0
 50
0.0
 71
     0
 42
3.0
  3
txt
  4

  0
ENDTAB
  0
TABLE
  2
VIEW
 70
     0
  0
ENDTAB
  0
TABLE
  2
UCS
 70
     0
  0
ENDTAB
  0
TABLE
  2
APPID
 70
     3
  0
APPID
  2
ACAD
 70
     0
  0
APPID
  2
ACAD_MLEADERVER
 70
     0
  0
APPID
  2
ACAD_NAV_VCDISPLAY
 70
     0
  0
ENDTAB
  0
TABLE
  2
DIMSTYLE
 70
     1
  0
DIMSTYLE
  2
STANDARD
 70
     0
  3

  4

  5

  6

  7

 40
1.0
 41
0.18
 42
0.0625
 43
0.38
 44
0.18
 45
0.0
 46
0.0
 47
0.0
 48
0.0
140
0.18
141
0.09
142
0.0
143
25.399999999999999
144
1.0
145
0.0
146
1.0
147
0.09
 71
     0
 72
     0
 73
     1
 74
     1
 75
     0
 76
     0
 77
     0
 78
     0
170
     0
171
     2
172
     0
173
     0
174
     0
175
     0
176
     0
177
     0
178
     0
  0
ENDTAB
  0
ENDSEC
  0
SECTION
  2
BLOCKS
  0
BLOCK
  8
0
  2
$MODEL_SPACE
 70
     0
 10
0.0
 20
0.0
 30
0.0
  3
$MODEL_SPACE
  1

  0
ENDBLK
  5
1A2
  8
0
  0
BLOCK
 67
     1
  8
0
  2
$PAPER_SPACE
 70
     0
 10
0.0
 20
0.0
 30
0.0
  3
$PAPER_SPACE
  1

  0
ENDBLK
  5
1A0
 67
     1
  8
0
  0
BLOCK
  8
0
  2
STDGX5
 70
     0
 10
0.0
 20
0.0
 30
0.0
  3
STDGX5
  1

  0
ENDBLK
  5
39
  8
0
  0
BLOCK
  8
0
  2
*X1
 70
     1
 10
0.0
 20
0.0
 30
0.0
  3
*X1
  1

  0
LINE
  5
3B
  8
0
 62
     0
 10
155.5
 20
117.49078
 30
0.0
 11
160.5
 21
120.377531
 31
0.0
  0
LINE
  5
3C
  8
0
 62
     0
 10
155.5
 20
119.80018099999999
 30
0.0
 11
160.5
 21
122.686932
 31
0.0
  0
LINE
  5
3D
  8
0
 62
     0
 10
155.5
 20
122.109582
 30
0.0
 11
160.5
 21
124.99633300000001
 31
0.0
  0
LINE
  5
3E
  8
0
 62
     0
 10
155.5
 20
124.418983
 30
0.0
 11
160.5
 21
127.305734
 31
0.0
  0
LINE
  5
3F
  8
0
 62
     0
 10
155.5
 20
126.72838400000001
 30
0.0
 11
160.5
 21
129.61513500000001
 31
0.0
  0
LINE
  5
40
  8
0
 62
     0
 10
155.5
 20
129.03778500000001
 30
0.0
 11
158.093051
 21
130.53488400000001
 31
0.0
  0
LINE
  5
41
  8
0
 62
     0
 10
155.5
 20
115.18137900000001
 30
0.0
 11
160.5
 21
118.06813
 31
0.0
  0
LINE
  5
42
  8
0
 62
     0
 10
155.5
 20
112.871978
 30
0.0
 11
160.5
 21
115.758729
 31
0.0
  0
LINE
  5
43
  8
0
 62
     0
 10
155.5
 20
110.562577
 30
0.0
 11
160.5
 21
113.44932799999999
 31
0.0
  0
LINE
  5
44
  8
0
 62
     0
 10
155.987933
 20
108.53488400000001
 30
0.0
 11
160.5
 21
111.139927
 31
0.0
  0
LINE
  5
45
  8
0
 62
     0
 10
159.987933
 20
108.53488400000001
 30
0.0
 11
160.5
 21
108.83052600000001
 31
0.0
  0
ENDBLK
  5
46
  8
0
  0
ENDSEC
  0
SECTION
  2
ENTITIES
  0
INSERT
  5
50
  8
0
  2
STDGX5
 10
73.184251000000003
 20
74.442235999999994
 30
0.0
  0
INSERT
  5
51
  8
0
  2
STDGX5
 10
73.184251000000003
 20
74.442235999999994
 30
0.0
  0
INSERT
  5
52
  8
0
  2
STDGX5
 10
73.184251000000003
 20
74.442235999999994
 30
0.0
  0
INSERT
  5
53
  8
0
  2
STDGX5
 10
73.184251000000003
 20
74.442235999999994
 30
0.0
  0
INSERT
  5
54
  8
11
  2
STDGX5
 10
93.975196999999994
 20
58.248259999999988
 30
0.0
 41
0.1
 42
0.1
 43
0.1
  0
INSERT
  5
55
  8
4
  2
STDGX5
 10
93.975196999999994
 20
58.248259999999988
 30
0.0
 41
0.1
 42
0.1
 43
0.1
  0
INSERT
  5
56
  8
11
  2
STDGX5
 10
93.975196999999994
 20
58.248259999999988
 30
0.0
 41
0.1
 42
0.1
 43
0.1
  0
INSERT
  5
57
  8
11
  2
STDGX5
 10
93.975196999999994
 20
58.248259999999988
 30
0.0
 41
0.1
 42
0.1
 43
0.1
  0
INSERT
  5
58
  8
11
  2
STDGX5
 10
93.975196999999994
 20
58.248259999999988
 30
0.0
 41
0.1
 42
0.1
 43
0.1
  0
INSERT
  5
59
  8
11
  2
STDGX5
 10
93.975196999999994
 20
58.248259999999988
 30
0.0
 41
0.1
 42
0.1
 43
0.1
  0
INSERT
  5
5A
  8
4
  2
STDGX5
 10
93.975196999999994
 20
58.248259999999988
 30
0.0
 41
0.1
 42
0.1
 43
0.1
  0
INSERT
  5
5B
  8
0
  2
STDGX5
 10
127.048614
 20
73.986294999999998
 30
0.0
 41
0.1
 42
0.1
 43
0.1
  0
INSERT
  5
5C
  8
4
  2
STDGX5
 10
127.048614
 20
73.986294999999998
 30
0.0
 41
0.1
 42
0.1
 43
0.1
  0
INSERT
  5
5D
  8
11
  2
STDGX5
 10
127.048614
 20
73.986294999999998
 30
0.0
 41
0.1
 42
0.1
 43
0.1
  0
INSERT
  5
5E
  8
4
  2
STDGX5
 10
93.975196999999994
 20
58.248259999999988
 30
0.0
 41
0.1
 42
0.1
 43
0.1
  0
INSERT
  5
5F
  8
11
  2
STDGX5
 10
134.456942
 20
66.338744999999989
 30
0.0
 41
0.1
 42
0.1
 43
0.1
  0
INSERT
  5
60
  8
4
  2
STDGX5
 10
134.456942
 20
66.338744999999989
 30
0.0
 41
0.1
 42
0.1
 43
0.1
  0
INSERT
  5
61
  8
11
  2
STDGX5
 10
134.456942
 20
66.338744999999989
 30
0.0
 41
0.1
 42
0.1
 43
0.1
  0
INSERT
  5
62
  8
11
  2
STDGX5
 10
134.456942
 20
66.338744999999989
 30
0.0
 41
0.1
 42
0.1
 43
0.1
  0
INSERT
  5
63
  8
11
  2
STDGX5
 10
134.456942
 20
66.338744999999989
 30
0.0
 41
0.1
 42
0.1
 43
0.1
  0
INSERT
  5
64
  8
11
  2
STDGX5
 10
134.456942
 20
66.338744999999989
 30
0.0
 41
0.1
 42
0.1
 43
0.1
  0
INSERT
  5
65
  8
4
  2
STDGX5
 10
134.456942
 20
66.338744999999989
 30
0.0
 41
0.1
 42
0.1
 43
0.1
  0
INSERT
  5
66
  8
11
  2
STDGX5
 10
166.81757999999999
 20
88.132336999999993
 30
0.0
 41
0.1
 42
0.1
 43
0.1
  0
INSERT
  5
67
  8
4
  2
STDGX5
 10
166.81757999999999
 20
88.132336999999993
 30
0.0
 41
0.1
 42
0.1
 43
0.1
  0
INSERT
  5
68
  8
11
  2
STDGX5
 10
166.81757999999999
 20
88.132336999999993
 30
0.0
 41
0.1
 42
0.1
 43
0.1
  0
INSERT
  5
69
  8
11
  2
STDGX5
 10
166.81757999999999
 20
88.132336999999993
 30
0.0
 41
0.1
 42
0.1
 43
0.1
  0
INSERT
  5
6A
  8
11
  2
STDGX5
 10
166.81757999999999
 20
88.132336999999993
 30
0.0
 41
0.1
 42
0.1
 43
0.1
  0
INSERT
  5
6B
  8
11
  2
STDGX5
 10
166.81757999999999
 20
88.132336999999993
 30
0.0
 41
0.1
 42
0.1
 43
0.1
  0
INSERT
  5
6C
  8
4
  2
STDGX5
 10
166.81757999999999
 20
88.132336999999993
 30
0.0
 41
0.1
 42
0.1
 43
0.1
  0
INSERT
  5
6D
  8
4
  2
STDGX5
 10
93.975196999999994
 20
58.248259999999988
 30
0.0
 41
0.1
 42
0.1
 43
0.1
  0
CIRCLE
  5
6E
  8
0
 10
63.887747117679339
 20
76.36952747809795
 30
0.0
 40
11.0
  0
CIRCLE
  5
6F
  8
2
 10
63.887747117679339
 20
76.36952747809795
 30
0.0
 40
6.5
  0
LINE
  5
70
  8
1
 10
63.887747117679339
 20
91.36952747809795
 30
0.0
 11
63.887747117679339
 21
61.36952747809795
 31
0.0
  0
LINE
  5
71
  8
1
 10
78.887747117679339
 20
76.36952747809795
 30
0.0
 11
48.887747117679339
 21
76.36952747809795
 31
0.0
  0
LINE
  5
72
  8
0
 10
62.444371117679339
 20
76.36952747809795
 30
0.0
 11
63.166059117679339
 21
75.11952747809795
 31
0.0
  0
LINE
  5
73
  8
0
 10
63.166059117679339
 20
77.61952747809795
 30
0.0
 11
62.444371117679339
 21
76.36952747809795
 31
0.0
  0
LINE
  5
74
  8
0
 10
64.60943511767934
 20
77.61952747809795
 30
0.0
 11
63.166059117679339
 21
77.61952747809795
 31
0.0
  0
LINE
  5
75
  8
0
 10
65.33112311767934
 20
76.36952747809795
 30
0.0
 11
64.60943511767934
 21
77.61952747809795
 31
0.0
  0
LINE
  5
76
  8
0
 10
64.60943511767934
 20
75.11952747809795
 30
0.0
 11
65.33112311767934
 21
76.36952747809795
 31
0.0
  0
LINE
  5
77
  8
0
 10
63.166059117679339
 20
75.11952747809795
 30
0.0
 11
64.60943511767934
 21
75.11952747809795
 31
0.0
  0
CIRCLE
  5
78
  8
3
 10
63.887747117679339
 20
76.36952747809795
 30
0.0
 40
2.0669999999999988
  0
CIRCLE
  5
79
  8
0
 10
63.887747117679339
 20
76.36952747809795
 30
0.0
 40
1.850481
  0
CIRCLE
  5
7A
  8
0
 10
63.887747117679339
 20
76.36952747809795
 30
0.0
 40
2.5
  0
LINE
  5
7B
  8
0
 10
103.3877471176793
 20
65.36952747809795
 30
0.0
 11
108.3877471176793
 21
65.36952747809795
 31
0.0
  0
LINE
  5
7C
  8
0
 10
108.8877471176793
 20
65.86952747809795
 30
0.0
 11
108.8877471176793
 21
86.869527478097964
 31
0.0
  0
LINE
  5
7D
  8
0
 10
108.3877471176793
 20
87.36952747809795
 30
0.0
 11
103.3877471176793
 21
87.36952747809795
 31
0.0
  0
LINE
  5
7E
  8
0
 10
102.8877471176793
 20
86.869527478097964
 30
0.0
 11
102.8877471176793
 21
65.86952747809795
 31
0.0
  0
LINE
  5
7F
  8
0
 10
136.48774711767931
 20
70.36952747809795
 30
0.0
 11
136.48774711767931
 21
82.36952747809795
 31
0.0
  0
LINE
  5
80
  8
1
 10
98.887747117679339
 20
76.36952747809795
 30
0.0
 11
140.48774711767931
 21
76.36952747809795
 31
0.0
  0
LINE
  5
81
  8
0
 10
135.98774711767931
 20
82.86952747809795
 30
0.0
 11
132.44117011767929
 21
82.86952747809795
 31
0.0
  0
LINE
  5
82
  8
0
 10
135.98774711767931
 20
69.86952747809795
 30
0.0
 11
132.44117011767929
 21
69.86952747809795
 31
0.0
  0
LINE
  5
83
  8
0
 10
136.48774711767931
 20
82.36952747809795
 30
0.0
 11
135.98774711767931
 21
82.86952747809795
 31
0.0
  0
LINE
  5
84
  8
0
 10
136.48774711767931
 20
70.36952747809795
 30
0.0
 11
135.98774711767931
 21
69.86952747809795
 31
0.0
  0
LINE
  5
85
  8
0
 10
135.98774711767931
 20
82.86952747809795
 30
0.0
 11
135.98774711767931
 21
69.86952747809795
 31
0.0
  0
LINE
  5
86
  8
0
 10
103.3877471176793
 20
87.36952747809795
 30
0.0
 11
102.8877471176793
 21
86.869527478097964
 31
0.0
  0
LINE
  5
87
  8
0
 10
108.3877471176793
 20
87.36952747809795
 30
0.0
 11
108.8877471176793
 21
86.869527478097964
 31
0.0
  0
LINE
  5
88
  8
0
 10
108.8877471176793
 20
65.86952747809795
 30
0.0
 11
108.3877471176793
 21
65.36952747809795
 31
0.0
  0
LINE
  5
89
  8
0
 10
102.8877471176793
 20
65.86952747809795
 30
0.0
 11
103.3877471176793
 21
65.36952747809795
 31
0.0
  0
LINE
  5
8A
  8
0
 10
103.3877471176793
 20
87.36952747809795
 30
0.0
 11
103.3877471176793
 21
65.36952747809795
 31
0.0
  0
LINE
  5
8B
  8
0
 10
108.3877471176793
 20
65.36952747809795
 30
0.0
 11
108.3877471176793
 21
87.36952747809795
 31
0.0
  0
LINE
  5
8C
  8
0
 10
128.48774711767931
 20
69.86952747809795
 30
0.0
 11
128.48774711767931
 21
69.90365947809795
 31
0.0
  0
LINE
  5
8D
  8
0
 10
125.98720611767931
 20
82.86952747809795
 30
0.0
 11
125.98720611767931
 21
69.86952747809795
 31
0.0
  0
LINE
  5
8E
  8
0
 10
128.48774711767931
 20
69.86952747809795
 30
0.0
 11
127.62754911767929
 21
70.990559478097936
 31
0.0
  0
ARC
  5
8F
  8
0
 10
126.80849711767929
 20
70.70524547809795
 30
0.0
 40
0.8190519999999999
 50
180.0
 51
0.0
  0
LINE
  5
90
  8
0
 10
125.98720611767931
 20
69.86952747809795
 30
0.0
 11
109.8877471176793
 21
69.86952747809795
 31
0.0
  0
LINE
  5
91
  8
0
 10
127.62754911767929
 20
70.70524547809795
 30
0.0
 11
127.62754911767929
 21
82.033809478097965
 31
0.0
  0
ARC
  5
92
  8
0
 10
126.80849711767929
 20
82.033809478097965
 30
0.0
 40
0.8190519999999999
 50
0.0
 51
180.0
  0
LINE
  5
93
  8
0
 10
125.98720611767931
 20
82.86952747809795
 30
0.0
 11
109.8877471176793
 21
82.86952747809795
 31
0.0
  0
ARC
  5
94
  8
0
 10
130.4815791176793
 20
71.86952747809795
 30
0.0
 40
2.7999999999999989
 50
216.25205099999999
 51
356.85837700000002
  0
LINE
  5
95
  8
0
 10
128.48774711767931
 20
72.342334478097939
 30
0.0
 11
127.62754911767929
 21
72.704905478097956
 31
0.0
  0
LINE
  5
96
  8
0
 10
128.52198711767929
 20
69.86952747809795
 30
0.0
 11
128.48774711767931
 21
69.86952747809795
 31
0.0
  0
LINE
  5
97
  8
0
 10
128.48774711767931
 20
72.342334478097939
 30
0.0
 11
128.48774711767931
 21
80.396720478097961
 31
0.0
  0
POLYLINE
  5
98
  8
0
 66
     1
 10
0.0
 20
0.0
 30
0.0
  0
VERTEX
  5
99
  8
0
 10
133.58863111767931
 20
70.949732478097957
 30
0.0
 42
0.148943
  0
VERTEX
  5
9A
  8
0
 10
133.3851501176793
 20
71.617662478097941
 30
0.0
 42
0.107091
  0
VERTEX
  5
9B
  8
0
 10
132.6926201176793
 20
72.283840478097957
 30
0.0
 42
0.075776
 70
     2
 50
148.33620099999999
  0
VERTEX
  5
9C
  8
0
 10
131.7529921176793
 20
72.682633478097955
 30
0.0
 42
0.06261
 50
148.33620099999999
  0
VERTEX
  5
9D
  8
0
 10
130.52945911767929
 20
72.83644647809794
 30
0.0
 42
0.06261
  0
VERTEX
  5
9E
  8
0
 10
129.30592611767929
 20
72.682633478097955
 30
0.0
 42
0.065322
  0
VERTEX
  5
9F
  8
0
 10
128.48774711767931
 20
72.355299478097933
 30
0.0
 42
0.107091
 70
     2
 50
211.66379900000001
  0
SEQEND
  5
A0
  8
0
  0
POLYLINE
  5
A1
  8
0
 66
     1
 10
0.0
 20
0.0
 30
0.0
  0
VERTEX
  5
A2
  8
0
 10
133.0295791176793
 20
69.86952747809795
 30
0.0
 42
0.060203
 70
     2
 50
31.663799000000001
  0
VERTEX
  5
A3
  8
0
 10
133.3851501176793
 20
70.281802478097944
 30
0.0
 42
0.148943
 50
31.663799000000001
  0
VERTEX
  5
A4
  8
0
 10
133.58863111767931
 20
70.949732478097957
 30
0.0
 42
0.148943
  0
SEQEND
  5
A5
  8
0
  0
POLYLINE
  5
A6
  8
0
 66
     1
 10
0.0
 20
0.0
 30
0.0
  0
VERTEX
  5
A7
  8
0
 10
133.0295791176793
 20
82.86952747809795
 30
0.0
 42
-0.060203
 70
     2
 50
31.663799000000001
  0
VERTEX
  5
A8
  8
0
 10
133.3851501176793
 20
82.457252478097956
 30
0.0
 42
-0.148943
  0
VERTEX
  5
A9
  8
0
 10
133.58863111767931
 20
81.789322478097944
 30
0.0
 42
-0.148943
  0
SEQEND
  5
AA
  8
0
  0
POLYLINE
  5
AB
  8
0
 66
     1
 10
0.0
 20
0.0
 30
0.0
  0
VERTEX
  5
AC
  8
0
 10
133.58863111767931
 20
81.789322478097944
 30
0.0
 42
-0.148943
  0
VERTEX
  5
AD
  8
0
 10
133.3851501176793
 20
81.12139247809796
 30
0.0
 42
-0.107091
  0
VERTEX
  5
AE
  8
0
 10
132.6926201176793
 20
80.455214478097943
 30
0.0
 42
-0.075776
 70
     2
 50
148.33620099999999
  0
VERTEX
  5
AF
  8
0
 10
131.7529921176793
 20
80.056421478097946
 30
0.0
 42
-0.06261
  0
VERTEX
  5
B0
  8
0
 10
130.52945911767929
 20
79.90260847809796
 30
0.0
 42
-0.06261
  0
VERTEX
  5
B1
  8
0
 10
129.30592611767929
 20
80.056421478097946
 30
0.0
 42
-0.065322
  0
VERTEX
  5
B2
  8
0
 10
128.48774711767931
 20
80.383755478097953
 30
0.0
 42
-0.107091
 70
     2
 50
211.66379900000001
  0
SEQEND
  5
B3
  8
0
  0
LINE
  5
B4
  8
0
 10
128.52198711767929
 20
82.86952747809795
 30
0.0
 11
128.48774711767931
 21
82.86952747809795
 31
0.0
  0
LINE
  5
B5
  8
0
 10
128.48774711767931
 20
80.396720478097961
 30
0.0
 11
127.62754911767929
 21
80.034149478097945
 31
0.0
  0
ARC
  5
B6
  8
0
 10
130.4815791176793
 20
80.869527478097936
 30
0.0
 40
2.7999999999999989
 50
3.1416230000000218
 51
143.74794900000001
  0
LINE
  5
B7
  8
0
 10
128.48774711767931
 20
82.86952747809795
 30
0.0
 11
127.62754911767929
 21
81.748495478097951
 31
0.0
  0
LINE
  5
B8
  8
0
 10
128.48774711767931
 20
82.86952747809795
 30
0.0
 11
128.48774711767931
 21
82.835395478097951
 31
0.0
  0
LINE
  5
B9
  8
0
 10
128.52198711767929
 20
82.86952747809795
 30
0.0
 11
128.48774711767931
 21
82.86952747809795
 31
0.0
  0
LINE
  5
BA
  8
0
 10
128.48774711767931
 20
82.835395478097951
 30
0.0
 11
128.48774711767931
 21
82.86952747809795
 31
0.0
  0
LINE
  5
BF
  8
2
 10
108.68774711767929
 20
67.86952747809795
 30
0.0
 11
108.68774711767929
 21
84.86952747809795
 31
0.0
  0
LINE
  5
C0
  8
0
 10
109.8877471176793
 20
69.86952747809795
 30
0.0
 11
109.8877471176793
 21
82.86952747809795
 31
0.0
  0
LINE
  5
C1
  8
0
 10
108.8877471176793
 20
82.36952747809795
 30
0.0
 11
109.8877471176793
 21
82.36952747809795
 31
0.0
  0
LINE
  5
C2
  8
0
 10
108.8877471176793
 20
70.36952747809795
 30
0.0
 11
109.8877471176793
 21
70.36952747809795
 31
0.0
  0
LINE
  5
C3
  8
2
 10
108.68774711767929
 20
67.86952747809795
 30
0.0
 11
108.8877471176793
 21
67.86952747809795
 31
0.0
  0
LINE
  5
C4
  8
2
 10
108.68774711767929
 20
84.86952747809795
 30
0.0
 11
108.8877471176793
 21
84.86952747809795
 31
0.0
  0
INSERT
  5
C9
  8
3
  2
*X1
 10
-52.112252882320661
 20
-43.165356521902048
 30
0.0
  0
INSERT
  5
CA
  8
3
  2
*X1
 10
263.88774711767928
 20
-43.165356521902048
 30
0.0
 41
-1.0
  0
CIRCLE
  5
CB
  8
0
 10
63.887747117679339
 20
76.36952747809795
 30
0.0
 40
10.5
  0
LINE
  5
D8
  8
0
 10
125.2090626247417
 20
69.86952747809795
 30
0.0
 11
122.91681187553159
 21
82.869527478097936
 31
0.0
  0
LINE
  5
DC
  8
0
 10
121.2090626247417
 20
69.86952747809795
 30
0.0
 11
118.91681187553159
 21
82.869527478097936
 31
0.0
  0
LINE
  5
DD
  8
0
 10
117.2090626247417
 20
69.86952747809795
 30
0.0
 11
114.91681187553159
 21
82.869527478097936
 31
0.0
  0
LINE
  5
DE
  8
0
 10
113.2090626247417
 20
69.86952747809795
 30
0.0
 11
110.91681187553159
 21
82.869527478097936
 31
0.0
  0
TEXT
  5
264
  8
0
 62
     3
 10
0.0
 20
0.0
 30
0.0
 40
10.0
  1
BS1-13X13
  7
STANDARD1
  0
ENDSEC
  0
EOF
