  0
SECTION
  2
HEADER
  9
$ACADVER
  1
AC1009
  9
$INSBASE
 10
0.0
 20
0.0
 30
0.0
  9
$EXTMIN
 10
0.0
 20
-2.960436562073669
 30
0.0
  9
$EXTMAX
 10
185.71109251241089
 20
62.159741312850542
 30
0.0
  9
$LIMMIN
 10
0.0
 20
0.0
  9
$LIMMAX
 10
187.5
 20
135.0
  9
$ORTHOMODE
 70
     1
  9
$REGENMODE
 70
     1
  9
$FILLMODE
 70
     1
  9
$QTEXTMODE
 70
     0
  9
$MIRRTEXT
 70
     0
  9
$DRAGMODE
 70
     2
  9
$LTSCALE
 40
5.0
  9
$OSMODE
 70
  3071
  9
$ATTMODE
 70
     1
  9
$TEXTSIZE
 40
0.2
  9
$TRACEWID
 40
0.05
  9
$TEXTSTYLE
  7
STANDARD
  9
$CLAYER
  8
0
  9
$CELTYPE
  6
BYLAYER
  9
$CECOLOR
 62
   256
  9
$DIMSCALE
 40
0.5
  9
$DIMASZ
 40
3.0
  9
$DIMEXO
 40
2.0
  9
$DIMDLI
 40
0.38
  9
$DIMRND
 40
0.0
  9
$DIMDLE
 40
0.0
  9
$DIMEXE
 40
2.0
  9
$DIMTP
 40
0.0
  9
$DIMTM
 40
0.0
  9
$DIMTXT
 40
3.0
  9
$DIMCEN
 40
0.0
  9
$DIMTSZ
 40
0.0
  9
$DIMTOL
 70
     0
  9
$DIMLIM
 70
     0
  9
$DIMTIH
 70
     0
  9
$DIMTOH
 70
     0
  9
$DIMSE1
 70
     0
  9
$DIMSE2
 70
     0
  9
$DIMTAD
 70
     1
  9
$DIMZIN
 70
     0
  9
$DIMBLK
  1

  9
$DIMASO
 70
     0
  9
$DIMSHO
 70
     0
  9
$DIMPOST
  1

  9
$DIMAPOST
  1

  9
$DIMALT
 70
     0
  9
$DIMALTD
 70
     2
  9
$DIMALTF
 40
25.399999999999999
  9
$DIMLFAC
 40
1.0
  9
$DIMTOFL
 70
     1
  9
$DIMTVP
 40
1.6000000000000001
  9
$DIMTIX
 70
     1
  9
$DIMSOXD
 70
     0
  9
$DIMSAH
 70
     0
  9
$DIMBLK1
  1

  9
$DIMBLK2
  1

  9
$DIMSTYLE
  2
STANDARD
  9
$DIMCLRD
 70
     0
  9
$DIMCLRE
 70
     0
  9
$DIMCLRT
 70
     0
  9
$DIMTFAC
 40
1.0
  9
$DIMGAP
 40
0.09
  9
$LUNITS
 70
     2
  9
$LUPREC
 70
     4
  9
$SKETCHINC
 40
0.1
  9
$FILLETRAD
 40
0.5
  9
$AUNITS
 70
     0
  9
$AUPREC
 70
     4
  9
$MENU
  1
E:\r13\win\SUPPORT\ACAD
  9
$ELEVATION
 40
0.0
  9
$PELEVATION
 40
0.0
  9
$THICKNESS
 40
0.0
  9
$LIMCHECK
 70
     0
  9
$BLIPMODE
 70
     0
  9
$CHAMFERA
 40
0.0
  9
$CHAMFERB
 40
0.0
  9
$SKPOLY
 70
     0
  9
$TDCREATE
 40
2449840.6129861111
  9
$TDUPDATE
 40
2456598.3978608218
  9
$TDINDWG
 40
0.0075304514
  9
$TDUSRTIMER
 40
0.0075304514
  9
$USRTIMER
 70
     1
  9
$ANGBASE
 50
0.0
  9
$ANGDIR
 70
     0
  9
$PDMODE
 70
     0
  9
$PDSIZE
 40
0.0
  9
$PLINEWID
 40
0.0
  9
$COORDS
 70
     1
  9
$SPLFRAME
 70
     0
  9
$SPLINETYPE
 70
     6
  9
$SPLINESEGS
 70
     8
  9
$ATTDIA
 70
     0
  9
$ATTREQ
 70
     1
  9
$HANDLING
 70
     1
  9
$HANDSEED
  5
378
  9
$SURFTAB1
 70
     6
  9
$SURFTAB2
 70
     6
  9
$SURFTYPE
 70
     6
  9
$SURFU
 70
     6
  9
$SURFV
 70
     6
  9
$UCSNAME
  2

  9
$UCSORG
 10
0.0
 20
0.0
 30
0.0
  9
$UCSXDIR
 10
1.0
 20
0.0
 30
0.0
  9
$UCSYDIR
 10
0.0
 20
1.0
 30
0.0
  9
$PUCSNAME
  2

  9
$PUCSORG
 10
0.0
 20
0.0
 30
0.0
  9
$PUCSXDIR
 10
1.0
 20
0.0
 30
0.0
  9
$PUCSYDIR
 10
0.0
 20
1.0
 30
0.0
  9
$USERI1
 70
     3
  9
$USERI2
 70
     1
  9
$USERI3
 70
     0
  9
$USERI4
 70
     0
  9
$USERI5
 70
     0
  9
$USERR1
 40
0.5
  9
$USERR2
 40
3.0
  9
$USERR3
 40
3.0
  9
$USERR4
 40
3.0
  9
$USERR5
 40
10.0
  9
$WORLDVIEW
 70
     1
  9
$SHADEDGE
 70
     3
  9
$SHADEDIF
 70
    70
  9
$TILEMODE
 70
     1
  9
$MAXACTVP
 70
    16
  9
$PLIMCHECK
 70
     0
  9
$PEXTMIN
 10
1.0000000000000000E+020
 20
1.0000000000000000E+020
 30
1.0000000000000000E+020
  9
$PEXTMAX
 10
-1.0000000000000000E+020
 20
-1.0000000000000000E+020
 30
-1.0000000000000000E+020
  9
$PLIMMIN
 10
0.0
 20
0.0
  9
$PLIMMAX
 10
12.0
 20
9.0
  9
$UNITMODE
 70
     0
  9
$VISRETAIN
 70
     0
  9
$PLINEGEN
 70
     0
  9
$PSLTSCALE
 70
     0
  0
ENDSEC
  0
SECTION
  2
TABLES
  0
TABLE
  2
VPORT
 70
     1
  0
VPORT
  2
*ACTIVE
 70
     0
 10
0.0
 20
0.0
 11
1.0
 21
1.0
 12
97.570150770051072
 22
66.014785922033241
 13
0.0
 23
0.0
 14
5.0
 24
5.0
 15
10.0
 25
10.0
 16
0.0
 26
0.0
 36
1.0
 17
0.0
 27
0.0
 37
0.0
 40
139.20783109903601
 41
1.831871345029239
 42
50.0
 43
0.0
 44
0.0
 50
0.0
 51
0.0
 71
     0
 72
   100
 73
     1
 74
     0
 75
     0
 76
     0
 77
     0
 78
     0
  0
ENDTAB
  0
TABLE
  2
LTYPE
 70
     4
  0
LTYPE
  2
CONTINUOUS
 70
     0
  3
Solid Line
 72
    65
 73
     0
 40
0.0
  0
LTYPE
  2
CENTER
 70
     0
  3
____ _ ____ _ ____ _ ____ _ ____ _ ____ _ ____
 72
    65
 73
     4
 40
2.0
 49
1.25
 49
-0.25
 49
0.25
 49
-0.25
  0
LTYPE
  2
HIDDEN
 70
     0
  3
_ _ _ _ _ _ _ _ _ _ _ _ _ _ _ _ _ _ _ _ _ _ _
 72
    65
 73
     2
 40
0.375
 49
0.25
 49
-0.125
  0
LTYPE
  2
PHANTOM2
 70
     0
  3
___ _ _ ___ _ _ ___ _ _ ___ _ _
 72
    65
 73
     6
 40
1.25
 49
0.625
 49
-0.125
 49
0.125
 49
-0.125
 49
0.125
 49
-0.125
  0
ENDTAB
  0
TABLE
  2
LAYER
 70
     4
  0
LAYER
  2
0
 70
     0
 62
     7
  6
CONTINUOUS
  0
LAYER
  2
1
 70
     0
 62
     1
  6
CENTER
  0
LAYER
  2
3
 70
     0
 62
     3
  6
CONTINUOUS
  0
LAYER
  2
2
 70
     0
 62
     2
  6
HIDDEN
  0
ENDTAB
  0
TABLE
  2
STYLE
 70
     2
  0
STYLE
  2
STANDARD
 70
     0
 40
0.0
 41
1.0
 50
0.0
 71
     0
 42
0.2
  3
TXT
  4
BIGFONT
  0
STYLE
  2
STANDARD1
 70
     0
 40
0.0
 41
1.0
 50
0.0
 71
     0
 42
3.0
  3
txt
  4

  0
ENDTAB
  0
TABLE
  2
VIEW
 70
     0
  0
ENDTAB
  0
TABLE
  2
UCS
 70
     0
  0
ENDTAB
  0
TABLE
  2
APPID
 70
     4
  0
APPID
  2
ACAD
 70
     0
  0
APPID
  2
ACAD_MLEADERVER
 70
     0
  0
APPID
  2
ACAD_NAV_VCDISPLAY
 70
     0
  0
APPID
  2
CONTENTBLOCKICON
 70
     0
  0
ENDTAB
  0
TABLE
  2
DIMSTYLE
 70
     1
  0
DIMSTYLE
  2
STANDARD
 70
     0
  3

  4

  5

  6

  7

 40
1.0
 41
0.18
 42
0.0625
 43
0.38
 44
0.18
 45
0.0
 46
0.0
 47
0.0
 48
0.0
140
0.18
141
0.09
142
0.0
143
25.399999999999999
144
1.0
145
0.0
146
1.0
147
0.09
 71
     0
 72
     0
 73
     1
 74
     1
 75
     0
 76
     0
 77
     0
 78
     0
170
     0
171
     2
172
     0
173
     0
174
     0
175
     0
176
     0
177
     0
178
     0
  0
ENDTAB
  0
ENDSEC
  0
SECTION
  2
BLOCKS
  0
BLOCK
  8
0
  2
$MODEL_SPACE
 70
     0
 10
0.0
 20
0.0
 30
0.0
  3
$MODEL_SPACE
  1

  0
ENDBLK
  5
175
  8
0
  0
BLOCK
 67
     1
  8
0
  2
$PAPER_SPACE
 70
     0
 10
0.0
 20
0.0
 30
0.0
  3
$PAPER_SPACE
  1

  0
ENDBLK
  5
173
 67
     1
  8
0
  0
BLOCK
  8
0
  2
*X0
 70
     1
 10
0.0
 20
0.0
 30
0.0
  3
*X0
  1

  0
LINE
  5
3B
  8
0
 62
     0
 10
102.76000000000001
 20
61.637915
 30
0.0
 11
109.23999999999999
 21
65.379143999999997
 31
0.0
  0
LINE
  5
3C
  8
0
 62
     0
 10
102.76000000000001
 20
63.947316000000001
 30
0.0
 11
109.23999999999999
 21
67.688546000000002
 31
0.0
  0
LINE
  5
3D
  8
0
 62
     0
 10
102.76000000000001
 20
66.256717000000009
 30
0.0
 11
109.23999999999999
 21
69.997946999999996
 31
0.0
  0
LINE
  5
3E
  8
0
 62
     0
 10
102.76000000000001
 20
68.566118000000003
 30
0.0
 11
109.23999999999999
 21
72.307348000000005
 31
0.0
  0
LINE
  5
3F
  8
0
 62
     0
 10
102.76000000000001
 20
70.875518999999997
 30
0.0
 11
109.23999999999999
 21
74.616748999999999
 31
0.0
  0
LINE
  5
40
  8
0
 62
     0
 10
102.76000000000001
 20
73.184919999999991
 30
0.0
 11
109.23999999999999
 21
76.926150000000007
 31
0.0
  0
LINE
  5
41
  8
0
 62
     0
 10
102.76000000000001
 20
75.494320999999999
 30
0.0
 11
109.23999999999999
 21
79.235551000000001
 31
0.0
  0
LINE
  5
42
  8
0
 62
     0
 10
102.76000000000001
 20
77.803721999999993
 30
0.0
 11
108.296115
 21
81.0
 31
0.0
  0
LINE
  5
43
  8
0
 62
     0
 10
102.76000000000001
 20
80.113123000000002
 30
0.0
 11
104.296115
 21
81.0
 31
0.0
  0
LINE
  5
44
  8
0
 62
     0
 10
102.76000000000001
 20
59.328513999999998
 30
0.0
 11
109.23999999999999
 21
63.069743000000003
 31
0.0
  0
LINE
  5
45
  8
0
 62
     0
 10
102.76000000000001
 20
57.01911299999999
 30
0.0
 11
109.23999999999999
 21
60.760342000000001
 31
0.0
  0
LINE
  5
46
  8
0
 62
     0
 10
102.76000000000001
 20
54.709712000000003
 30
0.0
 11
109.23999999999999
 21
58.450941
 31
0.0
  0
LINE
  5
47
  8
0
 62
     0
 10
102.76000000000001
 20
52.400309999999998
 30
0.0
 11
109.23999999999999
 21
56.141539999999999
 31
0.0
  0
LINE
  5
48
  8
0
 62
     0
 10
102.76000000000001
 20
50.090909000000003
 30
0.0
 11
109.23999999999999
 21
53.832138999999998
 31
0.0
  0
LINE
  5
49
  8
0
 62
     0
 10
104.87049
 20
49.0
 30
0.0
 11
109.23999999999999
 21
51.522737999999997
 31
0.0
  0
LINE
  5
4A
  8
0
 62
     0
 10
108.87049
 20
49.0
 30
0.0
 11
109.23999999999999
 21
49.213337000000003
 31
0.0
  0
ENDBLK
  5
4B
  8
0
  0
BLOCK
  8
0
  2
A
 70
     0
 10
0.0
 20
0.0
 30
0.0
  3
A
  1

  0
LINE
  5
19F
  8
0
 62
     0
 10
133.0335193956553
 20
224.74182211805029
 30
0.0
 11
131.84239322619791
 21
225.4295192737053
 31
0.0
  0
LINE
  5
1A0
  8
0
 62
     0
 10
133.03351939565539
 20
213.19481627370541
 30
0.0
 11
124.5335193956554
 21
218.1022929737054
 31
0.0
  0
LINE
  5
1A1
  8
0
 62
     0
 10
133.03351939565539
 20
215.50421727370539
 30
0.0
 11
124.5335193956554
 21
220.41169397370541
 31
0.0
  0
LINE
  5
1A2
  8
0
 62
     0
 10
133.03351939565539
 20
217.8136182737054
 30
0.0
 11
124.5335193956554
 21
222.72109497370539
 31
0.0
  0
LINE
  5
1A3
  8
0
 62
     0
 10
133.03351939565539
 20
220.12301927370541
 30
0.0
 11
124.5335193956554
 21
225.0304959737054
 31
0.0
  0
LINE
  5
1A4
  8
0
 62
     0
 10
133.03351939565539
 20
222.43242027370539
 30
0.0
 11
127.84239271729351
 21
225.4295192737053
 31
0.0
  0
LINE
  5
1A5
  8
0
 62
     0
 10
133.03351939565539
 20
210.88541527370541
 30
0.0
 11
124.5335193956554
 21
215.79289197370539
 31
0.0
  0
LINE
  5
1A6
  8
0
 62
     0
 10
133.03351939565539
 20
208.5760142737054
 30
0.0
 11
124.5335193956554
 21
213.4834909737055
 31
0.0
  0
LINE
  5
1A7
  8
0
 62
     0
 10
133.03351939565539
 20
206.26661327370539
 30
0.0
 11
124.5335193956554
 21
211.17408997370541
 31
0.0
  0
LINE
  5
1A8
  8
0
 62
     0
 10
133.03351939565539
 20
203.95721227370541
 30
0.0
 11
124.5335193956554
 21
208.8646889737054
 31
0.0
  0
LINE
  5
1A9
  8
0
 62
     0
 10
133.0335193956553
 20
201.6478110353041
 30
0.0
 11
124.5335193956554
 21
206.55528814058641
 31
0.0
  0
LINE
  5
1AA
  8
0
 62
     0
 10
131.143662785343
 20
200.42951927370541
 30
0.0
 11
124.5335193956554
 21
204.24588707716461
 31
0.0
  0
LINE
  5
1AB
  8
0
 62
     0
 10
127.14366278496421
 20
200.42951927370541
 30
0.0
 11
124.5335193956554
 21
201.93648615870691
 31
0.0
  0
ENDBLK
  5
1AC
  8
0
  0
BLOCK
  8
0
  2
B
 70
     0
 10
0.0
 20
0.0
 30
0.0
  3
B
  1

  0
LINE
  5
1AF
  8
0
 62
     0
 10
143.21627068258411
 20
213.48349157370541
 30
0.0
 11
151.716270682584
 21
218.3909682737054
 31
0.0
  0
LINE
  5
1B0
  8
0
 62
     0
 10
143.21627068258411
 20
215.79289257370539
 30
0.0
 11
151.716270682584
 21
220.70036927370541
 31
0.0
  0
LINE
  5
1B1
  8
0
 62
     0
 10
143.21627068258411
 20
218.1022935737054
 30
0.0
 11
151.716270682584
 21
223.00977027370541
 31
0.0
  0
LINE
  5
1B2
  8
0
 62
     0
 10
143.21627068258411
 20
220.41169391699279
 30
0.0
 11
151.716270682584
 21
225.31917221186629
 31
0.0
  0
LINE
  5
1B3
  8
0
 62
     0
 10
143.21627068258411
 20
222.7210953860733
 30
0.0
 11
147.9073975020184
 21
225.4295192737053
 31
0.0
  0
LINE
  5
1B4
  8
0
 62
     0
 10
143.21627068258411
 20
208.86468957370539
 30
0.0
 11
151.716270682584
 21
213.77216627370541
 31
0.0
  0
LINE
  5
1B5
  8
0
 62
     0
 10
143.21627068258411
 20
211.1740905737054
 30
0.0
 11
151.716270682584
 21
216.08156727370539
 31
0.0
  0
LINE
  5
1B6
  8
0
 62
     0
 10
143.21627068258411
 20
206.5552885737055
 30
0.0
 11
151.716270682584
 21
211.4627652737054
 31
0.0
  0
LINE
  5
1B7
  8
0
 62
     0
 10
143.21627068258411
 20
204.2458875737054
 30
0.0
 11
151.716270682584
 21
209.15336427370539
 31
0.0
  0
LINE
  5
1B8
  8
0
 62
     0
 10
143.21627068258411
 20
201.93648657370539
 30
0.0
 11
151.716270682584
 21
206.84396327370541
 31
0.0
  0
LINE
  5
1B9
  8
0
 62
     0
 10
144.60612737443861
 20
200.42951927370541
 30
0.0
 11
151.716270682584
 21
204.5345622737054
 31
0.0
  0
LINE
  5
1BA
  8
0
 62
     0
 10
148.60612729289639
 20
200.42951927370541
 30
0.0
 11
151.716270682584
 21
202.2251612737054
 31
0.0
  0
ENDBLK
  5
1BB
  8
0
  0
ENDSEC
  0
SECTION
  2
ENTITIES
  0
CIRCLE
  5
73
  8
0
 10
46.304516198808862
 20
41.159741312850542
 30
0.0
 40
16.0
  0
LINE
  5
74
  8
1
 10
46.304516198808862
 20
62.159741312850542
 30
0.0
 11
46.304516198808862
 21
20.159741312850539
 31
0.0
  0
LINE
  5
75
  8
1
 10
67.304516198808869
 20
41.159741312850542
 30
0.0
 11
25.304516198808869
 21
41.159741312850542
 31
0.0
  0
LINE
  5
76
  8
0
 10
131.97109251241091
 20
25.159741312850539
 30
0.0
 11
138.4510925124109
 21
25.159741312850539
 31
0.0
  0
LINE
  5
77
  8
0
 10
138.4510925124109
 20
25.159741312850539
 30
0.0
 11
139.21109251241089
 21
25.91974131285053
 31
0.0
  0
LINE
  5
78
  8
0
 10
139.21109251241089
 20
25.91974131285053
 30
0.0
 11
139.21109251241089
 21
56.399741312850537
 31
0.0
  0
LINE
  5
79
  8
0
 10
139.21109251241089
 20
56.399741312850537
 30
0.0
 11
138.4510925124109
 21
57.159741312850542
 31
0.0
  0
LINE
  5
7A
  8
0
 10
138.4510925124109
 20
57.159741312850542
 30
0.0
 11
131.97109251241091
 21
57.159741312850542
 31
0.0
  0
LINE
  5
7B
  8
0
 10
131.97109251241091
 20
57.159741312850542
 30
0.0
 11
131.21109251241089
 21
56.399741312850537
 31
0.0
  0
LINE
  5
7C
  8
0
 10
131.21109251241089
 20
56.399741312850537
 30
0.0
 11
131.21109251241089
 21
25.91974131285053
 31
0.0
  0
LINE
  5
7D
  8
0
 10
131.21109251241089
 20
25.91974131285053
 30
0.0
 11
131.97109251241091
 21
25.159741312850539
 31
0.0
  0
LINE
  5
7E
  8
0
 10
180.71109251241089
 20
33.919741312850547
 30
0.0
 11
180.71109251241089
 21
48.39974131285053
 31
0.0
  0
LINE
  5
7F
  8
0
 10
140.21109251241089
 20
49.159741312850542
 30
0.0
 11
168.61055151241089
 21
49.159741312850542
 31
0.0
  0
LINE
  5
80
  8
0
 10
140.21109251241089
 20
33.159741312850549
 30
0.0
 11
168.61055151241089
 21
33.159741312850549
 31
0.0
  0
LINE
  5
81
  8
0
 10
179.9510925124109
 20
49.159741312850542
 30
0.0
 11
180.71109251241089
 21
48.39974131285053
 31
0.0
  0
LINE
  5
82
  8
0
 10
180.71109251241089
 20
33.919741312850547
 30
0.0
 11
179.9510925124109
 21
33.159741312850549
 31
0.0
  0
LINE
  5
83
  8
1
 10
103.7110925124109
 20
41.159741312850542
 30
0.0
 11
185.71109251241089
 21
41.159741312850542
 31
0.0
  0
CIRCLE
  5
8E
  8
2
 10
46.304516198808862
 20
41.159741312850542
 30
0.0
 40
8.0
  0
LINE
  5
8F
  8
0
 10
171.11109251241089
 20
37.043512312850538
 30
0.0
 11
171.11109251241089
 21
45.275970312850539
 31
0.0
  0
LINE
  5
90
  8
0
 10
171.11109251241089
 20
33.159741312850549
 30
0.0
 11
170.25089451241089
 21
34.280773312850542
 31
0.0
  0
ARC
  5
91
  8
0
 10
169.4318425124109
 20
33.995459312850542
 30
0.0
 40
0.8190519999999999
 50
180.0
 51
0.0
  0
LINE
  5
92
  8
0
 10
168.61055151241089
 20
49.159741312850542
 30
0.0
 11
168.61055151241089
 21
33.159741312850549
 31
0.0
  0
LINE
  5
93
  8
0
 10
170.25089451241089
 20
33.995459312850542
 30
0.0
 11
170.25089451241089
 21
48.324023312850542
 31
0.0
  0
ARC
  5
94
  8
0
 10
173.5247235124109
 20
36.009741312850537
 30
0.0
 40
3.649999999999999
 50
206.241364
 51
0.490954
  0
POLYLINE
  5
95
  8
0
 66
     1
 10
0.0
 20
0.0
 30
0.0
  0
VERTEX
  5
96
  8
0
 10
176.4309625124109
 20
33.159741312850549
 30
0.0
 42
0.101338
 70
     2
 50
32.838957000000001
  0
VERTEX
  5
97
  8
0
 10
177.27989851241091
 20
34.030762312850541
 30
0.0
 42
0.143618
 50
32.838957000000001
  0
VERTEX
  5
98
  8
0
 10
177.55217751241091
 20
34.959135312850528
 30
0.0
 42
0.143618
  0
SEQEND
  5
99
  8
0
  0
LINE
  5
9A
  8
0
 10
175.8050745124109
 20
33.159741312850549
 30
0.0
 11
179.9510925124109
 21
33.159741312850549
 31
0.0
  0
LINE
  5
9B
  8
0
 10
171.11109251241089
 20
33.159741312850549
 30
0.0
 11
171.24437251241091
 21
33.159741312850549
 31
0.0
  0
LINE
  5
9C
  8
0
 10
171.11109251241089
 20
49.159741312850542
 30
0.0
 11
171.24437251241091
 21
49.159741312850542
 31
0.0
  0
POLYLINE
  5
9D
  8
0
 66
     1
 10
0.0
 20
0.0
 30
0.0
  0
VERTEX
  5
9E
  8
0
 10
176.4309625124109
 20
49.159741312850542
 30
0.0
 42
-0.101338
 70
     2
 50
32.838957000000001
  0
VERTEX
  5
9F
  8
0
 10
177.27989851241091
 20
48.28872031285055
 30
0.0
 42
-0.143618
  0
VERTEX
  5
A0
  8
0
 10
177.55217751241091
 20
47.360347312850543
 30
0.0
 42
-0.143618
  0
SEQEND
  5
A1
  8
0
  0
ARC
  5
A2
  8
0
 10
173.5247235124109
 20
46.309741312850541
 30
0.0
 40
3.649999999999999
 50
359.50904600000001
 51
153.758636
  0
ARC
  5
A3
  8
0
 10
169.4318425124109
 20
48.324023312850542
 30
0.0
 40
0.8190519999999999
 50
0.0
 51
180.0
  0
LINE
  5
A4
  8
0
 10
171.11109251241089
 20
49.159741312850542
 30
0.0
 11
170.25089451241089
 21
48.038709312850543
 31
0.0
  0
LINE
  5
A5
  8
0
 10
171.11109251241089
 20
49.159741312850542
 30
0.0
 11
171.11109251241089
 21
49.047785312850529
 31
0.0
  0
LINE
  5
A6
  8
0
 10
171.11109251241089
 20
37.043512312850538
 30
0.0
 11
170.25089451241089
 21
37.241806312850542
 31
0.0
  0
POLYLINE
  5
A7
  8
0
 66
     1
 10
0.0
 20
0.0
 30
0.0
  0
VERTEX
  5
A8
  8
0
 10
177.55217751241091
 20
34.959135312850528
 30
0.0
 42
0.143618
  0
VERTEX
  5
A9
  8
0
 10
177.27989851241091
 20
35.887509312850547
 30
0.0
 42
0.107177
  0
VERTEX
  5
AA
  8
0
 10
176.37256351241089
 20
36.79718531285053
 30
0.0
 42
0.078137
 70
     2
 50
147.16104300000001
  0
VERTEX
  5
AB
  8
0
 10
175.1307775124109
 20
37.347552312850539
 30
0.0
 42
0.065401
 50
147.16104300000001
  0
VERTEX
  5
AC
  8
0
 10
173.5247235124109
 20
37.55853031285055
 30
0.0
 42
0.065401
  0
VERTEX
  5
AD
  8
0
 10
171.9186695124109
 20
37.347552312850539
 30
0.0
 42
0.04946
  0
VERTEX
  5
AE
  8
0
 10
171.11109251241089
 20
37.043512312850538
 30
0.0
 42
0.044642
 70
     2
 50
212.83895699999999
  0
SEQEND
  5
AF
  8
0
  0
LINE
  5
B0
  8
0
 10
171.11109251241089
 20
45.275970312850539
 30
0.0
 11
170.25089451241089
 21
45.077676312850542
 31
0.0
  0
POLYLINE
  5
B1
  8
0
 66
     1
 10
0.0
 20
0.0
 30
0.0
  0
VERTEX
  5
B2
  8
0
 10
177.55217751241091
 20
47.360347312850543
 30
0.0
 42
-0.143618
  0
VERTEX
  5
B3
  8
0
 10
177.27989851241091
 20
46.431973312850531
 30
0.0
 42
-0.107177
  0
VERTEX
  5
B4
  8
0
 10
176.37256351241089
 20
45.522297312850547
 30
0.0
 42
-0.078137
 70
     2
 50
147.16104300000001
  0
VERTEX
  5
B5
  8
0
 10
175.1307775124109
 20
44.971930312850539
 30
0.0
 42
-0.065401
  0
VERTEX
  5
B6
  8
0
 10
173.5247235124109
 20
44.760952312850527
 30
0.0
 42
-0.065401
  0
VERTEX
  5
B7
  8
0
 10
171.9186695124109
 20
44.971930312850539
 30
0.0
 42
-0.04946
  0
VERTEX
  5
B8
  8
0
 10
171.11109251241089
 20
45.275970312850539
 30
0.0
 42
-0.044642
 70
     2
 50
212.83895699999999
  0
SEQEND
  5
B9
  8
0
  0
LINE
  5
BA
  8
0
 10
171.11109251241089
 20
49.159741312850542
 30
0.0
 11
171.24437251241091
 21
49.159741312850542
 31
0.0
  0
LINE
  5
BB
  8
0
 10
175.8050745124109
 20
49.159741312850542
 30
0.0
 11
179.9510925124109
 21
49.159741312850542
 31
0.0
  0
LINE
  5
BC
  8
0
 10
179.9510925124109
 20
33.159741312850549
 30
0.0
 11
179.9510925124109
 21
49.159741312850542
 31
0.0
  0
LINE
  5
BD
  8
0
 10
138.4510925124109
 20
57.159741312850542
 30
0.0
 11
138.4510925124109
 21
25.159741312850539
 31
0.0
  0
LINE
  5
BE
  8
0
 10
131.97109251241091
 20
25.159741312850539
 30
0.0
 11
131.97109251241091
 21
57.159741312850542
 31
0.0
  0
LINE
  5
BF
  8
0
 10
171.11109251241089
 20
33.159741312850549
 30
0.0
 11
171.11109251241089
 21
33.271697312850549
 31
0.0
  0
LINE
  5
C2
  8
0
 10
139.21109251241089
 20
33.659741312850542
 30
0.0
 11
140.21109251241089
 21
33.659741312850542
 31
0.0
  0
LINE
  5
C3
  8
0
 10
140.21109251241089
 20
33.159741312850549
 30
0.0
 11
140.21109251241089
 21
49.159741312850542
 31
0.0
  0
LINE
  5
C4
  8
0
 10
139.21109251241089
 20
48.659741312850542
 30
0.0
 11
140.21109251241089
 21
48.659741312850542
 31
0.0
  0
LINE
  5
C5
  8
2
 10
139.0110925124109
 20
29.159741312850539
 30
0.0
 11
139.0110925124109
 21
53.159741312850542
 31
0.0
  0
LINE
  5
C6
  8
2
 10
139.0110925124109
 20
29.159741312850539
 30
0.0
 11
139.21109251241089
 21
29.159741312850539
 31
0.0
  0
LINE
  5
C7
  8
2
 10
139.0110925124109
 20
53.159741312850542
 30
0.0
 11
139.21109251241089
 21
53.159741312850542
 31
0.0
  0
INSERT
  5
CE
  8
3
  2
*X0
 10
29.211092512410911
 20
-23.840258687149461
 30
0.0
  0
INSERT
  5
CF
  8
3
  2
*X0
 10
241.21109251241089
 20
-23.840258687149461
 30
0.0
 41
-1.0
  0
LINE
  5
DC
  8
0
 10
166.77951496734539
 20
33.159741312850549
 30
0.0
 11
163.95828327601001
 21
49.159741312850542
 31
0.0
  0
LINE
  5
DD
  8
0
 10
161.77951496734539
 20
33.159741312850549
 30
0.0
 11
158.95828327601001
 21
49.159741312850542
 31
0.0
  0
LINE
  5
DE
  8
0
 10
156.77951496734539
 20
33.159741312850549
 30
0.0
 11
153.95828327601001
 21
49.159741312850542
 31
0.0
  0
LINE
  5
DF
  8
0
 10
151.77951496734539
 20
33.159741312850549
 30
0.0
 11
148.95828327600989
 21
49.159741312850542
 31
0.0
  0
LINE
  5
E0
  8
0
 10
146.77951496734539
 20
33.159741312850549
 30
0.0
 11
143.95828327601001
 21
49.159741312850542
 31
0.0
  0
CIRCLE
  5
1E1
  8
0
 10
46.304516198808862
 20
41.159741312850542
 30
0.0
 40
12.49999999999998
  0
LINE
  5
1E2
  8
0
 10
109.4610925124109
 20
53.659741312850493
 30
0.0
 11
109.4610925124109
 21
28.659741312850539
 31
0.0
  0
LINE
  5
1E3
  8
0
 10
108.7110925124109
 20
29.409741312850489
 30
0.0
 11
108.7110925124109
 21
52.909741312850478
 31
0.0
  0
LINE
  5
1E4
  8
0
 10
117.9610925124109
 20
28.659741312850539
 30
0.0
 11
117.9610925124109
 21
53.659741312850493
 31
0.0
  0
LINE
  5
1E5
  8
0
 10
118.7110925124109
 20
52.909741312850478
 30
0.0
 11
118.7110925124109
 21
29.409741312850489
 31
0.0
  0
LINE
  5
1E8
  8
0
 10
122.3310925124109
 20
44.112241312850522
 30
0.0
 11
122.3310925124109
 21
38.207241312850499
 31
0.0
  0
LINE
  5
1E9
  8
0
 10
108.7110925124109
 20
52.909741312850478
 30
0.0
 11
109.4610925124109
 21
53.659741312850493
 31
0.0
  0
LINE
  5
1EA
  8
0
 10
109.4610925124109
 20
53.659741312850493
 30
0.0
 11
117.9610925124109
 21
53.659741312850493
 31
0.0
  0
LINE
  5
1EB
  8
0
 10
117.9610925124109
 20
53.659741312850493
 30
0.0
 11
118.7110925124109
 21
52.909741312850478
 31
0.0
  0
LINE
  5
1EC
  8
0
 10
108.7110925124109
 20
29.409741312850489
 30
0.0
 11
109.4610925124109
 21
28.659741312850539
 31
0.0
  0
LINE
  5
1ED
  8
0
 10
109.4610925124109
 20
28.659741312850539
 30
0.0
 11
117.9610925124109
 21
28.659741312850539
 31
0.0
  0
LINE
  5
1EE
  8
0
 10
117.9610925124109
 20
28.659741312850539
 30
0.0
 11
118.7110925124109
 21
29.409741312850489
 31
0.0
  0
LINE
  5
1F2
  8
0
 10
118.7110925124109
 20
38.159741312850507
 30
0.0
 11
131.21109251241089
 21
38.159741312850542
 31
0.0
  0
LINE
  5
1F3
  8
3
 10
122.3310925124109
 20
38.701241312850442
 30
0.0
 11
131.21109251241089
 21
38.701241312850442
 31
0.0
  0
LINE
  5
1F4
  8
3
 10
122.3310925124109
 20
43.618241312850607
 30
0.0
 11
131.21109251241089
 21
43.618241312850607
 31
0.0
  0
LINE
  5
1F5
  8
0
 10
118.7110925124109
 20
44.159741312850542
 30
0.0
 11
131.21109251241089
 21
44.159741312850542
 31
0.0
  0
CIRCLE
  5
1F7
  8
2
 10
46.304516198808862
 20
41.159741312850542
 30
0.0
 40
2.4585303171203452
  0
CIRCLE
  5
1F8
  8
2
 10
46.304516198808862
 20
41.159741312850542
 30
0.0
 40
3.0001224868973861
  0
INSERT
  5
1FC
  8
3
  2
A
 10
-15.07242688324445
 20
-171.76977796085481
 30
0.0
  0
INSERT
  5
1FD
  8
3
  2
B
 10
-33.755178170173139
 20
-171.76977796085481
 30
0.0
  0
TEXT
  5
2E7
  8
0
 62
     3
 10
0.0
 20
0.0
 30
0.0
 40
10.0
  1
BS1-16X25-S
  7
STANDARD1
  0
ENDSEC
  0
EOF
