  0
SECTION
  2
HEADER
  9
$ACADVER
  1
AC1009
  9
$INSBASE
 10
0.0
 20
0.0
 30
0.0
  9
$EXTMIN
 10
0.0
 20
-2.960436562073669
 30
0.0
  9
$EXTMAX
 10
210.4445774680263
 20
95.084210400948052
 30
0.0
  9
$LIMMIN
 10
0.0
 20
0.0
  9
$LIMMAX
 10
385.0
 20
270.0
  9
$ORTHOMODE
 70
     1
  9
$REGENMODE
 70
     1
  9
$FILLMODE
 70
     1
  9
$QTEXTMODE
 70
     0
  9
$MIRRTEXT
 70
     0
  9
$DRAGMODE
 70
     2
  9
$LTSCALE
 40
10.0
  9
$OSMODE
 70
  3071
  9
$ATTMODE
 70
     1
  9
$TEXTSIZE
 40
0.2
  9
$TRACEWID
 40
0.05
  9
$TEXTSTYLE
  7
STANDARD
  9
$CLAYER
  8
0
  9
$CELTYPE
  6
BYLAYER
  9
$CECOLOR
 62
   256
  9
$DIMSCALE
 40
1.0
  9
$DIMASZ
 40
3.0
  9
$DIMEXO
 40
2.0
  9
$DIMDLI
 40
0.38
  9
$DIMRND
 40
0.0
  9
$DIMDLE
 40
0.0
  9
$DIMEXE
 40
2.0
  9
$DIMTP
 40
0.0
  9
$DIMTM
 40
0.0
  9
$DIMTXT
 40
3.0
  9
$DIMCEN
 40
0.0
  9
$DIMTSZ
 40
0.0
  9
$DIMTOL
 70
     0
  9
$DIMLIM
 70
     0
  9
$DIMTIH
 70
     0
  9
$DIMTOH
 70
     0
  9
$DIMSE1
 70
     0
  9
$DIMSE2
 70
     0
  9
$DIMTAD
 70
     1
  9
$DIMZIN
 70
     0
  9
$DIMBLK
  1

  9
$DIMASO
 70
     0
  9
$DIMSHO
 70
     0
  9
$DIMPOST
  1

  9
$DIMAPOST
  1

  9
$DIMALT
 70
     0
  9
$DIMALTD
 70
     2
  9
$DIMALTF
 40
25.399999999999999
  9
$DIMLFAC
 40
1.0
  9
$DIMTOFL
 70
     1
  9
$DIMTVP
 40
1.6000000000000001
  9
$DIMTIX
 70
     1
  9
$DIMSOXD
 70
     0
  9
$DIMSAH
 70
     0
  9
$DIMBLK1
  1

  9
$DIMBLK2
  1

  9
$DIMSTYLE
  2
STANDARD
  9
$DIMCLRD
 70
     0
  9
$DIMCLRE
 70
     0
  9
$DIMCLRT
 70
     0
  9
$DIMTFAC
 40
1.0
  9
$DIMGAP
 40
0.09
  9
$LUNITS
 70
     2
  9
$LUPREC
 70
     4
  9
$SKETCHINC
 40
0.1
  9
$FILLETRAD
 40
0.0
  9
$AUNITS
 70
     0
  9
$AUPREC
 70
     4
  9
$MENU
  1
E:\r13\win\SUPPORT\ACAD
  9
$ELEVATION
 40
0.0
  9
$PELEVATION
 40
0.0
  9
$THICKNESS
 40
0.0
  9
$LIMCHECK
 70
     0
  9
$BLIPMODE
 70
     0
  9
$CHAMFERA
 40
0.0
  9
$CHAMFERB
 40
0.0
  9
$SKPOLY
 70
     0
  9
$TDCREATE
 40
2449840.6117245369
  9
$TDUPDATE
 40
2456598.3979635532
  9
$TDINDWG
 40
0.0072477315
  9
$TDUSRTIMER
 40
0.0072477315
  9
$USRTIMER
 70
     1
  9
$ANGBASE
 50
0.0
  9
$ANGDIR
 70
     0
  9
$PDMODE
 70
     0
  9
$PDSIZE
 40
0.0
  9
$PLINEWID
 40
0.0
  9
$COORDS
 70
     1
  9
$SPLFRAME
 70
     0
  9
$SPLINETYPE
 70
     6
  9
$SPLINESEGS
 70
     8
  9
$ATTDIA
 70
     0
  9
$ATTREQ
 70
     1
  9
$HANDLING
 70
     1
  9
$HANDSEED
  5
390
  9
$SURFTAB1
 70
     6
  9
$SURFTAB2
 70
     6
  9
$SURFTYPE
 70
     6
  9
$SURFU
 70
     6
  9
$SURFV
 70
     6
  9
$UCSNAME
  2

  9
$UCSORG
 10
0.0
 20
0.0
 30
0.0
  9
$UCSXDIR
 10
1.0
 20
0.0
 30
0.0
  9
$UCSYDIR
 10
0.0
 20
1.0
 30
0.0
  9
$PUCSNAME
  2

  9
$PUCSORG
 10
0.0
 20
0.0
 30
0.0
  9
$PUCSXDIR
 10
1.0
 20
0.0
 30
0.0
  9
$PUCSYDIR
 10
0.0
 20
1.0
 30
0.0
  9
$USERI1
 70
     3
  9
$USERI2
 70
     1
  9
$USERI3
 70
     0
  9
$USERI4
 70
     0
  9
$USERI5
 70
     0
  9
$USERR1
 40
1.0
  9
$USERR2
 40
3.0
  9
$USERR3
 40
3.0
  9
$USERR4
 40
3.0
  9
$USERR5
 40
10.0
  9
$WORLDVIEW
 70
     1
  9
$SHADEDGE
 70
     3
  9
$SHADEDIF
 70
    70
  9
$TILEMODE
 70
     1
  9
$MAXACTVP
 70
    16
  9
$PLIMCHECK
 70
     0
  9
$PEXTMIN
 10
1.0000000000000000E+020
 20
1.0000000000000000E+020
 30
1.0000000000000000E+020
  9
$PEXTMAX
 10
-1.0000000000000000E+020
 20
-1.0000000000000000E+020
 30
-1.0000000000000000E+020
  9
$PLIMMIN
 10
0.0
 20
0.0
  9
$PLIMMAX
 10
12.0
 20
9.0
  9
$UNITMODE
 70
     0
  9
$VISRETAIN
 70
     0
  9
$PLINEGEN
 70
     0
  9
$PSLTSCALE
 70
     0
  0
ENDSEC
  0
SECTION
  2
TABLES
  0
TABLE
  2
VPORT
 70
     1
  0
VPORT
  2
*ACTIVE
 70
     0
 10
0.0
 20
0.0
 11
1.0
 21
1.0
 12
200.05795575583809
 22
133.5127261426681
 13
0.0
 23
0.0
 14
5.0
 24
5.0
 15
20.0
 25
20.0
 16
0.0
 26
0.0
 36
1.0
 17
0.0
 27
0.0
 37
0.0
 40
275.42274993631997
 41
1.831871345029239
 42
50.0
 43
0.0
 44
0.0
 50
0.0
 51
0.0
 71
     0
 72
   100
 73
     1
 74
     0
 75
     0
 76
     0
 77
     0
 78
     2
  0
ENDTAB
  0
TABLE
  2
LTYPE
 70
     4
  0
LTYPE
  2
CONTINUOUS
 70
     0
  3
Solid Line
 72
    65
 73
     0
 40
0.0
  0
LTYPE
  2
CENTER
 70
     0
  3
____ _ ____ _ ____ _ ____ _ ____ _ ____ _ ____
 72
    65
 73
     4
 40
2.0
 49
1.25
 49
-0.25
 49
0.25
 49
-0.25
  0
LTYPE
  2
HIDDEN
 70
     0
  3
_ _ _ _ _ _ _ _ _ _ _ _ _ _ _ _ _ _ _ _ _ _ _
 72
    65
 73
     2
 40
0.375
 49
0.25
 49
-0.125
  0
LTYPE
  2
PHANTOM2
 70
     0
  3
___ _ _ ___ _ _ ___ _ _ ___ _ _
 72
    65
 73
     6
 40
1.25
 49
0.625
 49
-0.125
 49
0.125
 49
-0.125
 49
0.125
 49
-0.125
  0
ENDTAB
  0
TABLE
  2
LAYER
 70
     7
  0
LAYER
  2
0
 70
     0
 62
     7
  6
CONTINUOUS
  0
LAYER
  2
3
 70
     0
 62
     3
  6
CONTINUOUS
  0
LAYER
  2
ITTEN
 70
     0
 62
     1
  6
CENTER
  0
LAYER
  2
JISSEN
 70
     0
 62
     7
  6
CONTINUOUS
  0
LAYER
  2
TENSEN
 70
     0
 62
     2
  6
HIDDEN
  0
LAYER
  2
1
 70
     0
 62
     1
  6
CENTER
  0
LAYER
  2
2
 70
     0
 62
     2
  6
HIDDEN
  0
ENDTAB
  0
TABLE
  2
STYLE
 70
     2
  0
STYLE
  2
STANDARD
 70
     0
 40
0.0
 41
1.0
 50
0.0
 71
     0
 42
0.2
  3
TXT
  4
BIGFONT
  0
STYLE
  2
STANDARD1
 70
     0
 40
0.0
 41
1.0
 50
0.0
 71
     0
 42
3.0
  3
txt
  4

  0
ENDTAB
  0
TABLE
  2
VIEW
 70
     1
  0
VIEW
  2
ALL
 70
     0
 40
540.0
 10
441.98319299999991
 20
270.0
 41
0.0
 11
0.0
 21
0.0
 31
1.0
 12
0.0
 22
0.0
 32
0.0
 42
0.0
 43
0.0
 44
0.0
 50
0.0
 71
     0
  0
ENDTAB
  0
TABLE
  2
UCS
 70
     0
  0
ENDTAB
  0
TABLE
  2
APPID
 70
     4
  0
APPID
  2
ACAD
 70
     0
  0
APPID
  2
ACAD_MLEADERVER
 70
     0
  0
APPID
  2
ACAD_NAV_VCDISPLAY
 70
     0
  0
APPID
  2
CONTENTBLOCKICON
 70
     0
  0
ENDTAB
  0
TABLE
  2
DIMSTYLE
 70
     1
  0
DIMSTYLE
  2
STANDARD
 70
     0
  3

  4

  5

  6

  7

 40
1.0
 41
0.18
 42
0.0625
 43
0.38
 44
0.18
 45
0.0
 46
0.0
 47
0.0
 48
0.0
140
0.18
141
0.09
142
0.0
143
25.399999999999999
144
1.0
145
0.0
146
1.0
147
0.09
 71
     0
 72
     0
 73
     1
 74
     1
 75
     0
 76
     0
 77
     0
 78
     0
170
     0
171
     2
172
     0
173
     0
174
     0
175
     0
176
     0
177
     0
178
     0
  0
ENDTAB
  0
ENDSEC
  0
SECTION
  2
BLOCKS
  0
BLOCK
  8
0
  2
$MODEL_SPACE
 70
     0
 10
0.0
 20
0.0
 30
0.0
  3
$MODEL_SPACE
  1

  0
ENDBLK
  5
179
  8
0
  0
BLOCK
 67
     1
  8
0
  2
$PAPER_SPACE
 70
     0
 10
0.0
 20
0.0
 30
0.0
  3
$PAPER_SPACE
  1

  0
ENDBLK
  5
177
 67
     1
  8
0
  0
BLOCK
  8
0
  2
A
 70
     0
 10
0.0
 20
0.0
 30
0.0
  3
A
  1

  0
LINE
  5
1A3
  8
0
 62
     0
 10
133.0335193956553
 20
224.74182211805029
 30
0.0
 11
131.84239322619791
 21
225.4295192737053
 31
0.0
  0
LINE
  5
1A4
  8
0
 62
     0
 10
133.03351939565539
 20
213.19481627370541
 30
0.0
 11
124.5335193956554
 21
218.1022929737054
 31
0.0
  0
LINE
  5
1A5
  8
0
 62
     0
 10
133.03351939565539
 20
215.50421727370539
 30
0.0
 11
124.5335193956554
 21
220.41169397370541
 31
0.0
  0
LINE
  5
1A6
  8
0
 62
     0
 10
133.03351939565539
 20
217.8136182737054
 30
0.0
 11
124.5335193956554
 21
222.72109497370539
 31
0.0
  0
LINE
  5
1A7
  8
0
 62
     0
 10
133.03351939565539
 20
220.12301927370541
 30
0.0
 11
124.5335193956554
 21
225.0304959737054
 31
0.0
  0
LINE
  5
1A8
  8
0
 62
     0
 10
133.03351939565539
 20
222.43242027370539
 30
0.0
 11
127.84239271729351
 21
225.4295192737053
 31
0.0
  0
LINE
  5
1A9
  8
0
 62
     0
 10
133.03351939565539
 20
210.88541527370541
 30
0.0
 11
124.5335193956554
 21
215.79289197370539
 31
0.0
  0
LINE
  5
1AA
  8
0
 62
     0
 10
133.03351939565539
 20
208.5760142737054
 30
0.0
 11
124.5335193956554
 21
213.4834909737055
 31
0.0
  0
LINE
  5
1AB
  8
0
 62
     0
 10
133.03351939565539
 20
206.26661327370539
 30
0.0
 11
124.5335193956554
 21
211.17408997370541
 31
0.0
  0
LINE
  5
1AC
  8
0
 62
     0
 10
133.03351939565539
 20
203.95721227370541
 30
0.0
 11
124.5335193956554
 21
208.8646889737054
 31
0.0
  0
LINE
  5
1AD
  8
0
 62
     0
 10
133.0335193956553
 20
201.6478110353041
 30
0.0
 11
124.5335193956554
 21
206.55528814058641
 31
0.0
  0
LINE
  5
1AE
  8
0
 62
     0
 10
131.143662785343
 20
200.42951927370541
 30
0.0
 11
124.5335193956554
 21
204.24588707716461
 31
0.0
  0
LINE
  5
1AF
  8
0
 62
     0
 10
127.14366278496421
 20
200.42951927370541
 30
0.0
 11
124.5335193956554
 21
201.93648615870691
 31
0.0
  0
ENDBLK
  5
1B0
  8
0
  0
BLOCK
  8
0
  2
B
 70
     0
 10
0.0
 20
0.0
 30
0.0
  3
B
  1

  0
LINE
  5
1B3
  8
0
 62
     0
 10
143.21627068258411
 20
213.48349157370541
 30
0.0
 11
151.716270682584
 21
218.3909682737054
 31
0.0
  0
LINE
  5
1B4
  8
0
 62
     0
 10
143.21627068258411
 20
215.79289257370539
 30
0.0
 11
151.716270682584
 21
220.70036927370541
 31
0.0
  0
LINE
  5
1B5
  8
0
 62
     0
 10
143.21627068258411
 20
218.1022935737054
 30
0.0
 11
151.716270682584
 21
223.00977027370541
 31
0.0
  0
LINE
  5
1B6
  8
0
 62
     0
 10
143.21627068258411
 20
220.41169391699279
 30
0.0
 11
151.716270682584
 21
225.31917221186629
 31
0.0
  0
LINE
  5
1B7
  8
0
 62
     0
 10
143.21627068258411
 20
222.7210953860733
 30
0.0
 11
147.9073975020184
 21
225.4295192737053
 31
0.0
  0
LINE
  5
1B8
  8
0
 62
     0
 10
143.21627068258411
 20
208.86468957370539
 30
0.0
 11
151.716270682584
 21
213.77216627370541
 31
0.0
  0
LINE
  5
1B9
  8
0
 62
     0
 10
143.21627068258411
 20
211.1740905737054
 30
0.0
 11
151.716270682584
 21
216.08156727370539
 31
0.0
  0
LINE
  5
1BA
  8
0
 62
     0
 10
143.21627068258411
 20
206.5552885737055
 30
0.0
 11
151.716270682584
 21
211.4627652737054
 31
0.0
  0
LINE
  5
1BB
  8
0
 62
     0
 10
143.21627068258411
 20
204.2458875737054
 30
0.0
 11
151.716270682584
 21
209.15336427370539
 31
0.0
  0
LINE
  5
1BC
  8
0
 62
     0
 10
143.21627068258411
 20
201.93648657370539
 30
0.0
 11
151.716270682584
 21
206.84396327370541
 31
0.0
  0
LINE
  5
1BD
  8
0
 62
     0
 10
144.60612737443861
 20
200.42951927370541
 30
0.0
 11
151.716270682584
 21
204.5345622737054
 31
0.0
  0
LINE
  5
1BE
  8
0
 62
     0
 10
148.60612729289639
 20
200.42951927370541
 30
0.0
 11
151.716270682584
 21
202.2251612737054
 31
0.0
  0
ENDBLK
  5
1BF
  8
0
  0
ENDSEC
  0
SECTION
  2
ENTITIES
  0
CIRCLE
  5
49
  8
TENSEN
 10
65.944577468026296
 20
70.084210400948052
 30
0.0
 40
10.0
  0
LINE
  5
52
  8
ITTEN
 10
65.944577468026296
 20
95.084210400948052
 30
0.0
 11
65.944577468026296
 21
45.084210400948052
 31
0.0
  0
CIRCLE
  5
53
  8
JISSEN
 10
65.944577468026296
 20
70.084210400948052
 30
0.0
 40
20.0
  0
LINE
  5
54
  8
ITTEN
 10
40.944577468026289
 20
70.084210400948052
 30
0.0
 11
90.944577468026296
 21
70.084210400948052
 31
0.0
  0
LINE
  5
56
  8
3
 10
156.9445774680263
 20
50.084210400948052
 30
0.0
 11
164.9445774680263
 21
54.703012400948047
 31
0.0
  0
LINE
  5
57
  8
3
 10
160.40867946802629
 20
50.084210400948052
 30
0.0
 11
164.9445774680263
 21
52.703012400948062
 31
0.0
  0
LINE
  5
58
  8
3
 10
163.87278046802621
 20
50.084210400948052
 30
0.0
 11
164.9445774680263
 21
50.703012400948047
 31
0.0
  0
LINE
  5
59
  8
3
 10
156.9445774680263
 20
52.084210400948052
 30
0.0
 11
164.9445774680263
 21
56.703012400948047
 31
0.0
  0
LINE
  5
5A
  8
3
 10
156.9445774680263
 20
54.084210400948052
 30
0.0
 11
164.9445774680263
 21
58.70301240094804
 31
0.0
  0
LINE
  5
5B
  8
3
 10
156.9445774680263
 20
56.084210400948052
 30
0.0
 11
164.9445774680263
 21
60.70301240094804
 31
0.0
  0
LINE
  5
5C
  8
3
 10
156.9445774680263
 20
58.084210400948052
 30
0.0
 11
164.9445774680263
 21
62.70301240094804
 31
0.0
  0
LINE
  5
5D
  8
3
 10
156.9445774680263
 20
60.084210400948052
 30
0.0
 11
164.9445774680263
 21
64.70301240094804
 31
0.0
  0
LINE
  5
5E
  8
3
 10
156.9445774680263
 20
62.084210400948052
 30
0.0
 11
164.9445774680263
 21
66.70301240094804
 31
0.0
  0
LINE
  5
5F
  8
3
 10
156.9445774680263
 20
64.084210400948052
 30
0.0
 11
164.9445774680263
 21
68.70301240094804
 31
0.0
  0
LINE
  5
60
  8
3
 10
156.9445774680263
 20
66.084210400948052
 30
0.0
 11
163.87278046802621
 21
70.084210400948052
 31
0.0
  0
LINE
  5
61
  8
3
 10
156.9445774680263
 20
68.084210400948052
 30
0.0
 11
160.40867946802629
 21
70.084210400948052
 31
0.0
  0
LINE
  5
62
  8
3
 10
160.82022146802629
 20
50.084210400948052
 30
0.0
 11
156.9445774680263
 21
52.32181440094805
 31
0.0
  0
LINE
  5
63
  8
3
 10
164.28432346802629
 20
50.084210400948052
 30
0.0
 11
156.9445774680263
 21
54.32181440094805
 31
0.0
  0
LINE
  5
64
  8
3
 10
164.9445774680263
 20
51.703012400948047
 30
0.0
 11
156.9445774680263
 21
56.321814400948057
 31
0.0
  0
LINE
  5
65
  8
3
 10
164.9445774680263
 20
53.703012400948047
 30
0.0
 11
156.9445774680263
 21
58.321814400948057
 31
0.0
  0
LINE
  5
66
  8
3
 10
164.9445774680263
 20
55.703012400948047
 30
0.0
 11
156.9445774680263
 21
60.321814400948057
 31
0.0
  0
LINE
  5
67
  8
3
 10
164.9445774680263
 20
57.703012400948062
 30
0.0
 11
156.9445774680263
 21
62.32181440094805
 31
0.0
  0
LINE
  5
68
  8
3
 10
164.9445774680263
 20
59.70301240094804
 30
0.0
 11
156.9445774680263
 21
64.321814400948057
 31
0.0
  0
LINE
  5
69
  8
3
 10
164.9445774680263
 20
61.70301240094804
 30
0.0
 11
156.9445774680263
 21
66.321814400948057
 31
0.0
  0
LINE
  5
6A
  8
3
 10
164.9445774680263
 20
63.70301240094804
 30
0.0
 11
156.9445774680263
 21
68.321814400948057
 31
0.0
  0
LINE
  5
6B
  8
3
 10
164.9445774680263
 20
65.70301240094804
 30
0.0
 11
156.9445774680263
 21
70.321814400948057
 31
0.0
  0
LINE
  5
6C
  8
3
 10
164.9445774680263
 20
67.70301240094804
 30
0.0
 11
160.82022146802629
 21
70.084210400948052
 31
0.0
  0
LINE
  5
6F
  8
JISSEN
 10
164.9445774680263
 20
50.084210400948052
 30
0.0
 11
156.9445774680263
 21
50.084210400948052
 31
0.0
  0
LINE
  5
70
  8
JISSEN
 10
166.9445774680263
 20
60.084210400948052
 30
0.0
 11
192.4445774680263
 21
60.084210400948052
 31
0.0
  0
LINE
  5
71
  8
JISSEN
 10
156.9445774680263
 20
50.084210400948052
 30
0.0
 11
155.9445774680263
 21
51.084210400948052
 31
0.0
  0
LINE
  5
72
  8
JISSEN
 10
164.9445774680263
 20
50.084210400948052
 30
0.0
 11
165.9445774680263
 21
51.084210400948052
 31
0.0
  0
LINE
  5
73
  8
JISSEN
 10
165.9445774680263
 20
60.584210400948052
 30
0.0
 11
166.9445774680263
 21
60.584210400948052
 31
0.0
  0
LINE
  5
74
  8
JISSEN
 10
204.4445774680263
 20
60.084210400948052
 30
0.0
 11
205.4445774680263
 21
61.084210400948052
 31
0.0
  0
LINE
  5
75
  8
TENSEN
 10
165.74457746802631
 20
55.084210400948052
 30
0.0
 11
165.9445774680263
 21
55.084210400948052
 31
0.0
  0
LINE
  5
76
  8
JISSEN
 10
195.04457746802629
 20
60.084210400948052
 30
0.0
 11
195.45112046802629
 21
60.084210400948052
 31
0.0
  0
POLYLINE
  5
79
  8
JISSEN
 66
     1
 10
0.0
 20
0.0
 30
0.0
  0
VERTEX
  5
7A
  8
JISSEN
 10
197.04457746802629
 20
64.734210400948044
 30
0.0
 42
-0.046632
  0
VERTEX
  5
7B
  8
JISSEN
 10
199.5010764680263
 20
64.504818400948054
 30
0.0
 42
-0.069389
  0
VERTEX
  5
7C
  8
JISSEN
 10
201.05508246802631
 20
63.918594400948052
 30
0.0
 42
-0.105882
 70
     2
 50
28.606845
  0
VERTEX
  5
7D
  8
JISSEN
 10
202.22693246802629
 20
62.910823400948033
 30
0.0
 42
-0.163832
  0
VERTEX
  5
7E
  8
JISSEN
 10
202.55060246802631
 20
61.949523400948038
 30
0.0
 42
-0.163832
  0
VERTEX
  5
7F
  8
JISSEN
 10
202.22693246802629
 20
60.988223400948037
 30
0.0
 42
-0.091773
  0
VERTEX
  5
80
  8
JISSEN
 10
201.2332994680263
 20
60.084210400948052
 30
0.0
 42
-0.066502
 70
     2
 50
151.39315500000001
  0
SEQEND
  5
81
  8
JISSEN
  0
POLYLINE
  5
82
  8
JISSEN
 66
     1
 10
0.0
 20
0.0
 30
0.0
  0
VERTEX
  5
83
  8
JISSEN
 10
195.04457746802629
 20
64.517397400948056
 30
0.0
 42
-0.054045
  0
VERTEX
  5
84
  8
JISSEN
 10
197.04457746802629
 20
64.734210400948044
 30
0.0
 42
-0.0556
  0
SEQEND
  5
85
  8
JISSEN
  0
LINE
  5
86
  8
JISSEN
 10
195.04457746802629
 20
64.499524400948033
 30
0.0
 11
194.3445774680263
 21
65.199524400948036
 31
0.0
  0
LINE
  5
87
  8
JISSEN
 10
194.3445774680263
 20
61.304083400948059
 30
0.0
 11
195.04457746802629
 21
60.084210400948052
 31
0.0
  0
ARC
  5
88
  8
JISSEN
 10
193.3945774680262
 20
61.05087740094806
 30
0.0
 40
0.95
 50
180.0
 51
0.0
  0
ARC
  5
89
  8
JISSEN
 10
198.02895246802629
 20
63.607485400948072
 30
0.0
 40
4.3656249999999988
 50
212.440248
 51
349.08922999999999
  0
LINE
  5
8A
  8
JISSEN
 10
195.04457746802629
 20
60.084210400948052
 30
0.0
 11
195.04457746802629
 21
60.421235400948063
 31
0.0
  0
LINE
  5
8B
  8
JISSEN
 10
200.60678446802629
 20
60.084210400948052
 30
0.0
 11
204.4445774680263
 21
60.084210400948052
 31
0.0
  0
LINE
  5
8C
  8
JISSEN
 10
200.60678446802629
 20
80.084210400948052
 30
0.0
 11
204.4445774680263
 21
80.084210400948052
 31
0.0
  0
LINE
  5
8D
  8
JISSEN
 10
195.04457746802629
 20
80.084210400948052
 30
0.0
 11
195.04457746802629
 21
79.747185400948041
 31
0.0
  0
ARC
  5
8E
  8
JISSEN
 10
198.02895246802629
 20
76.56093540094804
 30
0.0
 40
4.3656249999999988
 50
10.910769999999999
 51
147.559752
  0
LINE
  5
8F
  8
JISSEN
 10
155.9445774680263
 20
89.084210400948066
 30
0.0
 11
155.9445774680263
 21
51.084210400948052
 31
0.0
  0
LINE
  5
90
  8
JISSEN
 10
165.9445774680263
 20
51.084210400948052
 30
0.0
 11
165.9445774680263
 21
89.084210400948066
 31
0.0
  0
LINE
  5
91
  8
TENSEN
 10
165.74457746802631
 20
55.084210400948052
 30
0.0
 11
165.74457746802631
 21
85.084210400948052
 31
0.0
  0
ARC
  5
92
  8
JISSEN
 10
193.3945774680262
 20
79.117543400948051
 30
0.0
 40
0.95
 50
0.0
 51
180.0
  0
LINE
  5
93
  8
JISSEN
 10
194.3445774680263
 20
78.864337400948045
 30
0.0
 11
195.04457746802629
 21
80.084210400948052
 31
0.0
  0
LINE
  5
94
  8
JISSEN
 10
194.3445774680263
 20
61.304083400948059
 30
0.0
 11
194.3445774680263
 21
79.117543400948051
 31
0.0
  0
LINE
  5
95
  8
JISSEN
 10
195.04457746802629
 20
75.668896400948057
 30
0.0
 11
194.3445774680263
 21
74.968896400948054
 31
0.0
  0
POLYLINE
  5
96
  8
JISSEN
 66
     1
 10
0.0
 20
0.0
 30
0.0
  0
VERTEX
  5
97
  8
JISSEN
 10
195.04457746802629
 20
75.651023400948048
 30
0.0
 42
0.054045
 50
331.39315499999998
  0
VERTEX
  5
98
  8
JISSEN
 10
197.04457746802629
 20
75.434210400948047
 30
0.0
 42
0.0556
  0
SEQEND
  5
99
  8
JISSEN
  0
POLYLINE
  5
9A
  8
JISSEN
 66
     1
 10
0.0
 20
0.0
 30
0.0
  0
VERTEX
  5
9B
  8
JISSEN
 10
197.04457746802629
 20
75.434210400948047
 30
0.0
 42
0.046632
  0
VERTEX
  5
9C
  8
JISSEN
 10
199.5010764680263
 20
75.663602400948037
 30
0.0
 42
0.069389
  0
VERTEX
  5
9D
  8
JISSEN
 10
201.05508246802631
 20
76.249826400948052
 30
0.0
 42
0.105882
 70
     2
 50
28.606845
  0
VERTEX
  5
9E
  8
JISSEN
 10
202.22693246802629
 20
77.257597400948072
 30
0.0
 42
0.163832
 50
28.606845
  0
VERTEX
  5
9F
  8
JISSEN
 10
202.55060246802631
 20
78.218897400948066
 30
0.0
 42
0.163832
  0
VERTEX
  5
A0
  8
JISSEN
 10
202.22693246802629
 20
79.18019740094806
 30
0.0
 42
0.091773
  0
VERTEX
  5
A1
  8
JISSEN
 10
201.2332994680263
 20
80.084210400948052
 30
0.0
 42
0.066502
 70
     2
 50
151.39315500000001
  0
SEQEND
  5
A2
  8
JISSEN
  0
LINE
  5
A7
  8
3
 10
164.9445774680263
 20
89.703012400948026
 30
0.0
 11
164.28432346802629
 21
90.084210400948052
 31
0.0
  0
LINE
  5
A8
  8
3
 10
164.9445774680263
 20
87.70301240094804
 30
0.0
 11
160.82022146802629
 21
90.084210400948052
 31
0.0
  0
LINE
  5
A9
  8
3
 10
164.9445774680263
 20
85.703012400948055
 30
0.0
 11
157.35612046802629
 21
90.084210400948052
 31
0.0
  0
LINE
  5
AA
  8
3
 10
164.9445774680263
 20
83.70301240094804
 30
0.0
 11
156.9445774680263
 21
88.321814400948057
 31
0.0
  0
LINE
  5
AB
  8
3
 10
164.9445774680263
 20
81.70301240094804
 30
0.0
 11
156.9445774680263
 21
86.321814400948057
 31
0.0
  0
LINE
  5
AC
  8
3
 10
164.9445774680263
 20
79.70301240094804
 30
0.0
 11
156.9445774680263
 21
84.321814400948057
 31
0.0
  0
LINE
  5
AD
  8
3
 10
164.9445774680263
 20
77.70301240094804
 30
0.0
 11
156.9445774680263
 21
82.321814400948057
 31
0.0
  0
LINE
  5
AE
  8
3
 10
164.9445774680263
 20
75.70301240094804
 30
0.0
 11
156.9445774680263
 21
80.321814400948057
 31
0.0
  0
LINE
  5
AF
  8
3
 10
164.9445774680263
 20
73.70301240094804
 30
0.0
 11
156.9445774680263
 21
78.321814400948057
 31
0.0
  0
LINE
  5
B0
  8
3
 10
164.9445774680263
 20
71.70301240094804
 30
0.0
 11
156.9445774680263
 21
76.321814400948057
 31
0.0
  0
LINE
  5
B1
  8
3
 10
164.9445774680263
 20
69.70301240094804
 30
0.0
 11
156.9445774680263
 21
74.321814400948057
 31
0.0
  0
LINE
  5
B2
  8
3
 10
160.82022146802629
 20
70.084210400948052
 30
0.0
 11
156.9445774680263
 21
72.321814400948057
 31
0.0
  0
LINE
  5
B3
  8
3
 10
156.9445774680263
 20
88.084210400948038
 30
0.0
 11
160.40867946802629
 21
90.084210400948052
 31
0.0
  0
LINE
  5
B4
  8
3
 10
156.9445774680263
 20
86.084210400948052
 30
0.0
 11
163.87278046802621
 21
90.084210400948052
 31
0.0
  0
LINE
  5
B5
  8
3
 10
156.9445774680263
 20
84.084210400948066
 30
0.0
 11
164.9445774680263
 21
88.70301240094804
 31
0.0
  0
LINE
  5
B6
  8
3
 10
156.9445774680263
 20
82.084210400948052
 30
0.0
 11
164.9445774680263
 21
86.70301240094804
 31
0.0
  0
LINE
  5
B7
  8
3
 10
156.9445774680263
 20
80.084210400948052
 30
0.0
 11
164.9445774680263
 21
84.703012400948026
 31
0.0
  0
LINE
  5
B8
  8
3
 10
156.9445774680263
 20
78.084210400948052
 30
0.0
 11
164.9445774680263
 21
82.70301240094804
 31
0.0
  0
LINE
  5
B9
  8
3
 10
156.9445774680263
 20
76.084210400948052
 30
0.0
 11
164.9445774680263
 21
80.703012400948055
 31
0.0
  0
LINE
  5
BA
  8
3
 10
156.9445774680263
 20
74.084210400948052
 30
0.0
 11
164.9445774680263
 21
78.70301240094804
 31
0.0
  0
LINE
  5
BB
  8
3
 10
156.9445774680263
 20
72.084210400948052
 30
0.0
 11
164.9445774680263
 21
76.70301240094804
 31
0.0
  0
LINE
  5
BC
  8
3
 10
163.87278046802621
 20
70.084210400948052
 30
0.0
 11
164.9445774680263
 21
70.70301240094804
 31
0.0
  0
LINE
  5
BD
  8
3
 10
160.40867946802629
 20
70.084210400948052
 30
0.0
 11
164.9445774680263
 21
72.70301240094804
 31
0.0
  0
LINE
  5
BE
  8
3
 10
156.9445774680263
 20
70.084210400948052
 30
0.0
 11
164.9445774680263
 21
74.70301240094804
 31
0.0
  0
LINE
  5
BF
  8
JISSEN
 10
195.04457746802629
 20
80.084210400948052
 30
0.0
 11
195.45112046802629
 21
80.084210400948052
 31
0.0
  0
LINE
  5
C0
  8
JISSEN
 10
195.04457746802629
 20
60.421235400948063
 30
0.0
 11
195.04457746802629
 21
75.668896400948057
 31
0.0
  0
LINE
  5
C1
  8
JISSEN
 10
192.4445774680263
 20
60.084210400948052
 30
0.0
 11
192.4445774680263
 21
80.084210400948052
 31
0.0
  0
LINE
  5
C2
  8
TENSEN
 10
165.74457746802631
 20
85.084210400948052
 30
0.0
 11
165.9445774680263
 21
85.084210400948052
 31
0.0
  0
LINE
  5
C3
  8
JISSEN
 10
204.4445774680263
 20
80.084210400948052
 30
0.0
 11
204.4445774680263
 21
60.084210400948052
 31
0.0
  0
LINE
  5
C4
  8
JISSEN
 10
204.4445774680263
 20
80.084210400948052
 30
0.0
 11
205.4445774680263
 21
79.084210400948052
 31
0.0
  0
LINE
  5
C5
  8
JISSEN
 10
165.9445774680263
 20
79.584210400948052
 30
0.0
 11
166.9445774680263
 21
79.584210400948052
 31
0.0
  0
LINE
  5
C6
  8
JISSEN
 10
166.9445774680263
 20
60.084210400948052
 30
0.0
 11
166.9445774680263
 21
80.084210400948052
 31
0.0
  0
LINE
  5
C7
  8
JISSEN
 10
164.9445774680263
 20
90.084210400948052
 30
0.0
 11
164.9445774680263
 21
50.084210400948052
 31
0.0
  0
LINE
  5
C8
  8
JISSEN
 10
156.9445774680263
 20
50.084210400948052
 30
0.0
 11
156.9445774680263
 21
90.084210400948052
 31
0.0
  0
LINE
  5
C9
  8
JISSEN
 10
164.9445774680263
 20
90.084210400948052
 30
0.0
 11
165.9445774680263
 21
89.084210400948066
 31
0.0
  0
LINE
  5
CA
  8
JISSEN
 10
156.9445774680263
 20
90.084210400948052
 30
0.0
 11
155.9445774680263
 21
89.084210400948066
 31
0.0
  0
LINE
  5
CB
  8
JISSEN
 10
166.9445774680263
 20
80.084210400948052
 30
0.0
 11
192.4445774680263
 21
80.084210400948052
 31
0.0
  0
LINE
  5
CC
  8
JISSEN
 10
205.4445774680263
 20
61.084210400948052
 30
0.0
 11
205.4445774680263
 21
79.084210400948052
 31
0.0
  0
LINE
  5
CD
  8
JISSEN
 10
164.9445774680263
 20
90.084210400948052
 30
0.0
 11
156.9445774680263
 21
90.084210400948052
 31
0.0
  0
LINE
  5
E1
  8
0
 10
190.26396443624731
 20
60.084210400948052
 30
0.0
 11
186.737424822078
 21
80.084210400948052
 31
0.0
  0
LINE
  5
E2
  8
0
 10
185.26396443624731
 20
60.084210400948052
 30
0.0
 11
181.737424822078
 21
80.084210400948052
 31
0.0
  0
LINE
  5
E3
  8
0
 10
180.26396443624731
 20
60.084210400948052
 30
0.0
 11
176.737424822078
 21
80.084210400948052
 31
0.0
  0
LINE
  5
E4
  8
0
 10
175.26396443624731
 20
60.084210400948052
 30
0.0
 11
171.737424822078
 21
80.084210400948052
 31
0.0
  0
CIRCLE
  5
1E7
  8
0
 10
65.944577468026296
 20
70.084210400948052
 30
0.0
 40
12.49999999999998
  0
LINE
  5
1E8
  8
0
 10
140.1945774680263
 20
82.584210400947995
 30
0.0
 11
140.1945774680263
 21
57.584210400948052
 31
0.0
  0
LINE
  5
1E9
  8
0
 10
139.4445774680263
 20
58.334210400947988
 30
0.0
 11
139.4445774680263
 21
81.834210400947995
 31
0.0
  0
LINE
  5
1EA
  8
0
 10
148.6945774680263
 20
57.584210400948052
 30
0.0
 11
148.6945774680263
 21
82.584210400947995
 31
0.0
  0
LINE
  5
1EB
  8
0
 10
149.4445774680263
 20
81.834210400947995
 30
0.0
 11
149.4445774680263
 21
58.334210400947988
 31
0.0
  0
LINE
  5
1EE
  8
0
 10
153.0645774680263
 20
73.036710400948039
 30
0.0
 11
153.0645774680263
 21
67.131710400948009
 31
0.0
  0
LINE
  5
1EF
  8
0
 10
139.4445774680263
 20
81.834210400947995
 30
0.0
 11
140.1945774680263
 21
82.584210400947995
 31
0.0
  0
LINE
  5
1F0
  8
0
 10
140.1945774680263
 20
82.584210400947995
 30
0.0
 11
148.6945774680263
 21
82.584210400947995
 31
0.0
  0
LINE
  5
1F1
  8
0
 10
148.6945774680263
 20
82.584210400947995
 30
0.0
 11
149.4445774680263
 21
81.834210400947995
 31
0.0
  0
LINE
  5
1F2
  8
0
 10
139.4445774680263
 20
58.334210400947988
 30
0.0
 11
140.1945774680263
 21
57.584210400948052
 31
0.0
  0
LINE
  5
1F3
  8
0
 10
140.1945774680263
 20
57.584210400948052
 30
0.0
 11
148.6945774680263
 21
57.584210400948052
 31
0.0
  0
LINE
  5
1F4
  8
0
 10
148.6945774680263
 20
57.584210400948052
 30
0.0
 11
149.4445774680263
 21
58.334210400947988
 31
0.0
  0
LINE
  5
1F8
  8
0
 10
149.4445774680263
 20
67.084210400948024
 30
0.0
 11
155.9445774680263
 21
67.084210400948052
 31
0.0
  0
LINE
  5
1F9
  8
3
 10
153.0645774680263
 20
67.625710400947952
 30
0.0
 11
155.9445774680263
 21
67.625710400947952
 31
0.0
  0
LINE
  5
1FA
  8
3
 10
153.0645774680263
 20
72.542710400948124
 30
0.0
 11
155.9445774680263
 21
72.542710400948096
 31
0.0
  0
LINE
  5
1FB
  8
0
 10
149.4445774680263
 20
73.084210400948052
 30
0.0
 11
155.9445774680263
 21
73.084210400948052
 31
0.0
  0
CIRCLE
  5
1FD
  8
2
 10
65.944577468026296
 20
70.084210400948052
 30
0.0
 40
2.4585303171203452
  0
CIRCLE
  5
1FE
  8
2
 10
65.944577468026296
 20
70.084210400948052
 30
0.0
 40
3.0001224868973861
  0
LINE
  5
201
  8
1
 10
134.4445774680263
 20
70.084210400948052
 30
0.0
 11
210.4445774680263
 21
70.084210400948052
 31
0.0
  0
INSERT
  5
202
  8
3
  2
A
 10
15.661058072370929
 20
-142.8453088727573
 30
0.0
  0
INSERT
  5
203
  8
3
  2
B
 10
-3.0216932145577569
 20
-142.8453088727573
 30
0.0
  0
LINE
  5
20E
  8
0
 10
155.9445774680263
 20
81.834210400947995
 30
0.0
 11
155.9445774680263
 21
58.334210400947988
 31
0.0
  0
TEXT
  5
2FD
  8
0
 62
     3
 10
0.0
 20
0.0
 30
0.0
 40
10.0
  1
BS1-20X20-S
  7
STANDARD1
  0
ENDSEC
  0
EOF
