  0
SECTION
  2
HEADER
  9
$ACADVER
  1
AC1009
  9
$INSBASE
 10
0.0
 20
0.0
 30
0.0
  9
$EXTMIN
 10
0.0
 20
-1.4802182810368341
 30
0.0
  9
$EXTMAX
 10
79.050755170369243
 20
40.158519897436221
 30
0.0
  9
$LIMMIN
 10
0.0
 20
0.0
  9
$LIMMAX
 10
187.5
 20
135.0
  9
$ORTHOMODE
 70
     0
  9
$REGENMODE
 70
     1
  9
$FILLMODE
 70
     1
  9
$QTEXTMODE
 70
     0
  9
$MIRRTEXT
 70
     0
  9
$DRAGMODE
 70
     2
  9
$LTSCALE
 40
2.0
  9
$OSMODE
 70
  3071
  9
$ATTMODE
 70
     1
  9
$TEXTSIZE
 40
4.0
  9
$TRACEWID
 40
0.05
  9
$TEXTSTYLE
  7
STANDARD
  9
$CLAYER
  8
0
  9
$CELTYPE
  6
BYLAYER
  9
$CECOLOR
 62
   256
  9
$DIMSCALE
 40
0.5
  9
$DIMASZ
 40
3.0
  9
$DIMEXO
 40
2.0
  9
$DIMDLI
 40
0.38
  9
$DIMRND
 40
0.0
  9
$DIMDLE
 40
0.0
  9
$DIMEXE
 40
2.0
  9
$DIMTP
 40
0.0
  9
$DIMTM
 40
0.0
  9
$DIMTXT
 40
3.0
  9
$DIMCEN
 40
0.0
  9
$DIMTSZ
 40
0.0
  9
$DIMTOL
 70
     0
  9
$DIMLIM
 70
     0
  9
$DIMTIH
 70
     0
  9
$DIMTOH
 70
     0
  9
$DIMSE1
 70
     0
  9
$DIMSE2
 70
     0
  9
$DIMTAD
 70
     1
  9
$DIMZIN
 70
     0
  9
$DIMBLK
  1

  9
$DIMASO
 70
     0
  9
$DIMSHO
 70
     0
  9
$DIMPOST
  1

  9
$DIMAPOST
  1

  9
$DIMALT
 70
     0
  9
$DIMALTD
 70
     2
  9
$DIMALTF
 40
25.399999999999999
  9
$DIMLFAC
 40
1.0
  9
$DIMTOFL
 70
     0
  9
$DIMTVP
 40
1.6000000000000001
  9
$DIMTIX
 70
     1
  9
$DIMSOXD
 70
     0
  9
$DIMSAH
 70
     0
  9
$DIMBLK1
  1

  9
$DIMBLK2
  1

  9
$DIMSTYLE
  2
STANDARD
  9
$DIMCLRD
 70
     0
  9
$DIMCLRE
 70
     0
  9
$DIMCLRT
 70
     0
  9
$DIMTFAC
 40
1.0
  9
$DIMGAP
 40
0.09
  9
$LUNITS
 70
     2
  9
$LUPREC
 70
     4
  9
$SKETCHINC
 40
0.1
  9
$FILLETRAD
 40
1.0
  9
$AUNITS
 70
     0
  9
$AUPREC
 70
     0
  9
$MENU
  1
E:\r13\win\SUPPORT\ACAD
  9
$ELEVATION
 40
0.0
  9
$PELEVATION
 40
0.0
  9
$THICKNESS
 40
0.0
  9
$LIMCHECK
 70
     0
  9
$BLIPMODE
 70
     0
  9
$CHAMFERA
 40
0.0
  9
$CHAMFERB
 40
0.0
  9
$SKPOLY
 70
     0
  9
$TDCREATE
 40
2449840.6143865739
  9
$TDUPDATE
 40
2456598.4002057058
  9
$TDINDWG
 40
0.2574937616
  9
$TDUSRTIMER
 40
0.2574937616
  9
$USRTIMER
 70
     1
  9
$ANGBASE
 50
0.0
  9
$ANGDIR
 70
     0
  9
$PDMODE
 70
     0
  9
$PDSIZE
 40
0.0
  9
$PLINEWID
 40
0.0
  9
$COORDS
 70
     1
  9
$SPLFRAME
 70
     0
  9
$SPLINETYPE
 70
     6
  9
$SPLINESEGS
 70
     8
  9
$ATTDIA
 70
     0
  9
$ATTREQ
 70
     1
  9
$HANDLING
 70
     1
  9
$HANDSEED
  5
1501
  9
$SURFTAB1
 70
     6
  9
$SURFTAB2
 70
     6
  9
$SURFTYPE
 70
     6
  9
$SURFU
 70
     6
  9
$SURFV
 70
     6
  9
$UCSNAME
  2

  9
$UCSORG
 10
0.0
 20
0.0
 30
0.0
  9
$UCSXDIR
 10
1.0
 20
0.0
 30
0.0
  9
$UCSYDIR
 10
0.0
 20
1.0
 30
0.0
  9
$PUCSNAME
  2

  9
$PUCSORG
 10
0.0
 20
0.0
 30
0.0
  9
$PUCSXDIR
 10
1.0
 20
0.0
 30
0.0
  9
$PUCSYDIR
 10
0.0
 20
1.0
 30
0.0
  9
$USERI1
 70
     0
  9
$USERI2
 70
     1
  9
$USERI3
 70
     1
  9
$USERI4
 70
     0
  9
$USERI5
 70
     0
  9
$USERR1
 40
0.0
  9
$USERR2
 40
0.0
  9
$USERR3
 40
0.0
  9
$USERR4
 40
0.0
  9
$USERR5
 40
0.0
  9
$WORLDVIEW
 70
     1
  9
$SHADEDGE
 70
     3
  9
$SHADEDIF
 70
    70
  9
$TILEMODE
 70
     1
  9
$MAXACTVP
 70
    16
  9
$PLIMCHECK
 70
     0
  9
$PEXTMIN
 10
1.0000000000000000E+020
 20
1.0000000000000000E+020
 30
1.0000000000000000E+020
  9
$PEXTMAX
 10
-1.0000000000000000E+020
 20
-1.0000000000000000E+020
 30
-1.0000000000000000E+020
  9
$PLIMMIN
 10
0.0
 20
0.0
  9
$PLIMMAX
 10
12.0
 20
9.0
  9
$UNITMODE
 70
     0
  9
$VISRETAIN
 70
     0
  9
$PLINEGEN
 70
     0
  9
$PSLTSCALE
 70
     0
  0
ENDSEC
  0
SECTION
  2
TABLES
  0
TABLE
  2
VPORT
 70
     1
  0
VPORT
  2
*ACTIVE
 70
     0
 10
0.0
 20
0.0
 11
1.0
 21
1.0
 12
97.52905416604365
 22
66.75636307133405
 13
0.0
 23
0.0
 14
5.0
 24
5.0
 15
5.0
 25
5.0
 16
0.0
 26
0.0
 36
1.0
 17
0.0
 27
0.0
 37
0.0
 40
137.71137496815999
 41
1.831871345029239
 42
50.0
 43
0.0
 44
0.0
 50
0.0
 51
0.0
 71
     0
 72
   100
 73
     1
 74
     0
 75
     0
 76
     0
 77
     0
 78
     0
  0
ENDTAB
  0
TABLE
  2
LTYPE
 70
     4
  0
LTYPE
  2
CONTINUOUS
 70
     0
  3
Solid Line
 72
    65
 73
     0
 40
0.0
  0
LTYPE
  2
CENTER
 70
     0
  3
____ _ ____ _ ____ _ ____ _ ____ _ ____ _ ____
 72
    65
 73
     4
 40
2.0
 49
1.25
 49
-0.25
 49
0.25
 49
-0.25
  0
LTYPE
  2
HIDDEN
 70
     0
  3
_ _ _ _ _ _ _ _ _ _ _ _ _ _ _ _ _ _ _ _ _ _ _
 72
    65
 73
     2
 40
0.375
 49
0.25
 49
-0.125
  0
LTYPE
  2
PHANTOM2
 70
     0
  3
___ _ _ ___ _ _ ___ _ _ ___ _ _
 72
    65
 73
     6
 40
1.25
 49
0.625
 49
-0.125
 49
0.125
 49
-0.125
 49
0.125
 49
-0.125
  0
ENDTAB
  0
TABLE
  2
LAYER
 70
     4
  0
LAYER
  2
0
 70
     0
 62
     7
  6
CONTINUOUS
  0
LAYER
  2
1
 70
     0
 62
     1
  6
CENTER
  0
LAYER
  2
3
 70
     0
 62
     3
  6
CONTINUOUS
  0
LAYER
  2
2
 70
     0
 62
     2
  6
HIDDEN
  0
ENDTAB
  0
TABLE
  2
STYLE
 70
     2
  0
STYLE
  2
STANDARD
 70
     0
 40
0.0
 41
1.0
 50
0.0
 71
     0
 42
4.0
  3
TXT
  4
BIGFONT
  0
STYLE
  2
STANDARD1
 70
     0
 40
0.0
 41
1.0
 50
0.0
 71
     0
 42
3.0
  3
txt
  4

  0
ENDTAB
  0
TABLE
  2
VIEW
 70
     1
  0
VIEW
  2
ALL
 70
     0
 40
179.66152299999999
 10
141.903918
 20
89.830760999999995
 41
0.0
 11
0.0
 21
0.0
 31
1.0
 12
0.0
 22
0.0
 32
0.0
 42
0.0
 43
0.0
 44
0.0
 50
0.0
 71
     0
  0
ENDTAB
  0
TABLE
  2
UCS
 70
     0
  0
ENDTAB
  0
TABLE
  2
APPID
 70
     4
  0
APPID
  2
ACAD
 70
     0
  0
APPID
  2
DCO15
 70
     0
  0
APPID
  2
ACAD_MLEADERVER
 70
     0
  0
APPID
  2
ACAD_NAV_VCDISPLAY
 70
     0
  0
ENDTAB
  0
TABLE
  2
DIMSTYLE
 70
     1
  0
DIMSTYLE
  2
STANDARD
 70
     0
  3

  4

  5

  6

  7

 40
1.0
 41
0.18
 42
0.0625
 43
0.38
 44
0.18
 45
0.0
 46
0.0
 47
0.0
 48
0.0
140
0.18
141
0.09
142
0.0
143
25.399999999999999
144
1.0
145
0.0
146
1.0
147
0.09
 71
     0
 72
     0
 73
     1
 74
     1
 75
     0
 76
     0
 77
     0
 78
     0
170
     0
171
     2
172
     0
173
     0
174
     0
175
     0
176
     0
177
     0
178
     0
  0
ENDTAB
  0
ENDSEC
  0
SECTION
  2
BLOCKS
  0
BLOCK
  8
0
  2
$MODEL_SPACE
 70
     0
 10
0.0
 20
0.0
 30
0.0
  3
$MODEL_SPACE
  1

  0
ENDBLK
  5
1BD
  8
0
  0
BLOCK
 67
     1
  8
0
  2
$PAPER_SPACE
 70
     0
 10
0.0
 20
0.0
 30
0.0
  3
$PAPER_SPACE
  1

  0
ENDBLK
  5
1BB
 67
     1
  8
0
  0
ENDSEC
  0
SECTION
  2
ENTITIES
  0
LINE
  5
136F
  8
2
 10
34.250755169555482
 20
16.25246483544289
 30
0.0
 11
33.250755170369253
 21
14.75246483544289
 31
0.0
  0
LINE
  5
1370
  8
2
 10
33.250755170369253
 20
17.75246483544289
 30
0.0
 11
34.250755169555482
 21
16.25246483544289
 31
0.0
  0
LINE
  5
1371
  8
0
 10
54.550755170369229
 20
18.602464835442898
 30
0.0
 11
53.90075517036923
 21
19.25246483544289
 31
0.0
  0
LINE
  5
1372
  8
0
 10
53.90075517036923
 20
13.25246483544289
 30
0.0
 11
54.550755170369243
 21
13.902464835442901
 31
0.0
  0
ARC
  5
1373
  8
0
 10
54.22787951483695
 20
16.25246483544289
 30
0.0
 40
2.000000000000008
 50
48.59037789072908
 51
62.520073117245133
  0
ARC
  5
1374
  8
0
 10
54.227879514836943
 20
16.25246483544289
 30
0.0
 40
2.0000000000000262
 50
297.47992688275491
 51
311.40962210927091
  0
LINE
  5
1375
  8
0
 10
53.90075517036923
 20
13.25246483544289
 30
0.0
 11
53.90075517036923
 21
19.25246483544289
 31
0.0
  0
LINE
  5
1376
  8
0
 10
54.550755170369257
 20
13.902464835442901
 30
0.0
 11
54.550755170369243
 21
18.602464835442898
 31
0.0
  0
LINE
  5
1377
  8
0
 10
55.150755170369251
 20
13.90246483544291
 30
0.0
 11
55.150755170369251
 21
18.602464835442898
 31
0.0
  0
LINE
  5
1378
  8
0
 10
55.550755170369243
 20
14.75246483544289
 30
0.0
 11
55.550755170369243
 21
17.75246483544289
 31
0.0
  0
LINE
  5
1379
  8
1
 10
27.750755170369249
 20
16.25246483544289
 30
0.0
 11
58.050755170369243
 21
16.25246483544289
 31
0.0
  0
LINE
  5
137A
  8
2
 10
33.250755170369231
 20
17.752464835442911
 30
0.0
 11
33.250755170369253
 21
14.752464835442879
 31
0.0
  0
LINE
  5
137B
  8
2
 10
30.250755170369249
 20
17.75246483544289
 30
0.0
 11
33.250755170369253
 21
17.75246483544289
 31
0.0
  0
LINE
  5
137C
  8
2
 10
30.250755170369249
 20
16.252464835442609
 30
0.0
 11
33.250755170369253
 21
16.252464835442609
 31
0.0
  0
LINE
  5
137D
  8
2
 10
30.250755170369249
 20
14.75246483544289
 30
0.0
 11
33.250755170369253
 21
14.75246483544289
 31
0.0
  0
LINE
  5
137E
  8
0
 10
30.750755170369189
 20
19.25246483544176
 30
0.0
 11
30.250755170369249
 21
18.38643943165728
 31
0.0
  0
LINE
  5
137F
  8
0
 10
30.750755170369189
 20
13.25246483544414
 30
0.0
 11
30.250755170369249
 21
14.11849023922862
 31
0.0
  0
LINE
  5
1380
  8
0
 10
30.750755170369249
 20
19.25246483544181
 30
0.0
 11
30.750755170369249
 21
13.252464835444201
 31
0.0
  0
LINE
  5
1381
  8
0
 10
30.750755170369249
 20
19.25246483544181
 30
0.0
 11
53.900755170370317
 21
19.25246483544181
 31
0.0
  0
LINE
  5
1382
  8
3
 10
30.438119999602751
 20
18.71096483544132
 30
0.0
 11
54.442255170370821
 21
18.71096483544132
 31
0.0
  0
LINE
  5
1383
  8
3
 10
30.438119999602581
 20
13.793964835444809
 30
0.0
 11
54.442255170371169
 21
13.793964835444809
 31
0.0
  0
LINE
  5
1384
  8
0
 10
30.750755170369249
 20
13.252464835444201
 30
0.0
 11
53.90075517037053
 21
13.252464835444201
 31
0.0
  0
LINE
  5
1385
  8
0
 10
30.250755170369249
 20
18.38643943165728
 30
0.0
 11
30.250755170369249
 21
14.1184902392285
 31
0.0
  0
ARC
  5
1386
  8
2
 10
54.22787951483695
 20
16.25246483544289
 30
0.0
 40
2.000000000000008
 50
62.52007311724504
 51
297.47992688275491
  0
LINE
  5
1387
  8
0
 10
54.550755170369243
 20
18.602464835442898
 30
0.0
 11
55.150755170369251
 21
18.602464835442891
 31
0.0
  0
LINE
  5
1388
  8
0
 10
54.550755170369243
 20
13.902464835442901
 30
0.0
 11
55.150755170369251
 21
13.902464835442901
 31
0.0
  0
LINE
  5
1389
  8
1
 10
54.22787951483695
 20
20.752464835442911
 30
0.0
 11
54.22787951483695
 21
11.752464835442879
 31
0.0
  0
CIRCLE
  5
138A
  8
0
 10
73.550755170369243
 20
34.658519897436221
 30
0.0
 40
2.3499999999999939
  0
CIRCLE
  5
138B
  8
0
 10
73.550755170369243
 20
34.658519897436221
 30
0.0
 40
1.7743450973319339
  0
CIRCLE
  5
138C
  8
0
 10
73.550755170369243
 20
34.658519897436221
 30
0.0
 40
1.5
  0
CIRCLE
  5
138D
  8
0
 10
73.550755170369243
 20
34.658519897436221
 30
0.0
 40
3.0
  0
LINE
  5
138E
  8
1
 10
68.050755170369243
 20
34.658519897436221
 30
0.0
 11
79.050755170369243
 21
34.658519897436221
 31
0.0
  0
LINE
  5
138F
  8
1
 10
73.550755170369243
 20
29.158519897436221
 30
0.0
 11
73.550755170369243
 21
40.158519897436221
 31
0.0
  0
CIRCLE
  5
1390
  8
3
 10
73.550755170369243
 20
34.658519897436221
 30
0.0
 40
2.4584999999984158
  0
CIRCLE
  5
1391
  8
3
 10
12.25075517036924
 20
34.658519897436221
 30
0.0
 40
2.4584999999984158
  0
LINE
  5
1392
  8
1
 10
54.22787951483695
 20
39.158519897436243
 30
0.0
 11
54.22787951483695
 21
30.158519897436211
 31
0.0
  0
LINE
  5
1393
  8
0
 10
54.550755170369243
 20
32.308519897436227
 30
0.0
 11
55.150755170369251
 21
32.308519897436227
 31
0.0
  0
LINE
  5
1394
  8
0
 10
54.550755170369243
 20
37.00851989743623
 30
0.0
 11
55.150755170369251
 21
37.008519897436223
 31
0.0
  0
ARC
  5
1395
  8
2
 10
54.22787951483695
 20
34.658519897436221
 30
0.0
 40
2.000000000000008
 50
62.52007311724504
 51
297.47992688275491
  0
LINE
  5
1396
  8
0
 10
30.250755170369249
 20
36.792494493650608
 30
0.0
 11
30.250755170369249
 21
32.524545301221842
 31
0.0
  0
LINE
  5
1397
  8
0
 10
30.750755170369249
 20
31.658519897437529
 30
0.0
 11
53.90075517037053
 21
31.658519897437529
 31
0.0
  0
LINE
  5
1398
  8
3
 10
30.438119999602581
 20
32.200019897438139
 30
0.0
 11
54.442255170371169
 21
32.200019897438139
 31
0.0
  0
LINE
  5
1399
  8
3
 10
30.438119999602751
 20
37.117019897434652
 30
0.0
 11
54.442255170370821
 21
37.117019897434652
 31
0.0
  0
LINE
  5
139A
  8
0
 10
30.750755170369249
 20
37.658519897435141
 30
0.0
 11
53.900755170370317
 21
37.658519897435141
 31
0.0
  0
LINE
  5
139B
  8
0
 10
30.750755170369249
 20
37.658519897435141
 30
0.0
 11
30.750755170369249
 21
31.658519897437529
 31
0.0
  0
LINE
  5
139C
  8
0
 10
30.750755170369189
 20
31.658519897437468
 30
0.0
 11
30.250755170369249
 21
32.524545301221949
 31
0.0
  0
LINE
  5
139D
  8
0
 10
30.750755170369189
 20
37.658519897435077
 30
0.0
 11
30.250755170369249
 21
36.792494493650608
 31
0.0
  0
LINE
  5
139E
  8
2
 10
30.250755170369249
 20
32.926469091277212
 30
0.0
 11
33.250755170369253
 21
32.926469091277212
 31
0.0
  0
LINE
  5
139F
  8
2
 10
30.250755170369249
 20
33.792494494357513
 30
0.0
 11
33.250755170369253
 21
33.792494494357513
 31
0.0
  0
LINE
  5
13A0
  8
2
 10
30.250755170369249
 20
35.524545300515392
 30
0.0
 11
33.250755170369253
 21
35.524545300515392
 31
0.0
  0
LINE
  5
13A1
  8
2
 10
30.250755170369299
 20
36.390570703594662
 30
0.0
 11
33.250755170369253
 21
36.390570703594662
 31
0.0
  0
LINE
  5
13A2
  8
2
 10
33.250755170369253
 20
36.390570703594662
 30
0.0
 11
33.250755170369253
 21
32.926469091277212
 31
0.0
  0
LINE
  5
13A3
  8
2
 10
33.250755170369253
 20
32.926469091277212
 30
0.0
 11
34.250755169555418
 21
34.658519897436328
 31
0.0
  0
LINE
  5
13A4
  8
2
 10
33.250755170369253
 20
36.390570703595522
 30
0.0
 11
34.250755169555418
 21
34.658519897436328
 31
0.0
  0
LINE
  5
13A5
  8
1
 10
12.25075517036924
 20
29.158519897436221
 30
0.0
 11
12.25075517036924
 21
40.158519897436221
 31
0.0
  0
LINE
  5
13A6
  8
1
 10
6.7507551703692448
 20
34.658519897436221
 30
0.0
 11
17.750755170369239
 21
34.658519897436221
 31
0.0
  0
LINE
  5
13A7
  8
0
 10
13.75075517036924
 20
35.524545301220662
 30
0.0
 11
13.75075517036924
 21
33.792494493651787
 31
0.0
  0
LINE
  5
13A8
  8
0
 10
12.25075517036924
 20
36.390570705005103
 30
0.0
 11
13.75075517036924
 21
35.524545301220662
 31
0.0
  0
LINE
  5
13A9
  8
0
 10
10.75075517036924
 20
35.524545301220662
 30
0.0
 11
12.25075517036924
 21
36.390570705005103
 31
0.0
  0
LINE
  5
13AA
  8
0
 10
10.75075517036924
 20
33.792494493651787
 30
0.0
 11
10.75075517036924
 21
35.524545301220662
 31
0.0
  0
LINE
  5
13AB
  8
0
 10
13.75075517036924
 20
33.792494493651787
 30
0.0
 11
12.25075517036924
 21
32.926469089867339
 31
0.0
  0
LINE
  5
13AC
  8
0
 10
12.25075517036924
 20
32.926469089867339
 30
0.0
 11
10.75075517036924
 21
33.792494493651787
 31
0.0
  0
CIRCLE
  5
13AD
  8
0
 10
12.25075517036924
 20
34.658519897436221
 30
0.0
 40
3.0
  0
LINE
  5
13AE
  8
1
 10
27.750755170369249
 20
34.658519897436221
 30
0.0
 11
58.050755170369243
 21
34.658519897436221
 31
0.0
  0
LINE
  5
13AF
  8
0
 10
55.550755170369243
 20
33.158519897436221
 30
0.0
 11
55.550755170369243
 21
36.158519897436221
 31
0.0
  0
LINE
  5
13B0
  8
0
 10
55.150755170369251
 20
32.308519897436241
 30
0.0
 11
55.150755170369251
 21
37.00851989743623
 31
0.0
  0
LINE
  5
13B1
  8
0
 10
54.550755170369257
 20
32.308519897436227
 30
0.0
 11
54.550755170369243
 21
37.00851989743623
 31
0.0
  0
LINE
  5
13B2
  8
0
 10
53.90075517036923
 20
31.658519897436221
 30
0.0
 11
53.90075517036923
 21
37.658519897436221
 31
0.0
  0
ARC
  5
13B3
  8
0
 10
54.227879514836943
 20
34.658519897436221
 30
0.0
 40
2.0000000000000262
 50
297.47992688275491
 51
311.40962210927091
  0
ARC
  5
13B4
  8
0
 10
54.22787951483695
 20
34.658519897436221
 30
0.0
 40
2.000000000000008
 50
48.59037789072908
 51
62.520073117245133
  0
LINE
  5
13B5
  8
0
 10
53.90075517036923
 20
31.658519897436221
 30
0.0
 11
54.550755170369243
 21
32.308519897436227
 31
0.0
  0
LINE
  5
13B6
  8
0
 10
54.550755170369229
 20
37.00851989743623
 30
0.0
 11
53.90075517036923
 21
37.658519897436221
 31
0.0
  0
TEXT
  5
1470
  8
0
 62
     3
 10
0.0
 20
0.0
 30
0.0
 40
5.0
  1
BSFJ6X25
  7
STANDARD1
  0
ENDSEC
  0
EOF
