  0
SECTION
  2
HEADER
  9
$ACADVER
  1
AC1009
  9
$INSBASE
 10
0.0
 20
0.0
 30
0.0
  9
$EXTMIN
 10
0.0
 20
-1.4802182810368341
 30
0.0
  9
$EXTMAX
 10
65.396728315937253
 20
57.627547961630782
 30
0.0
  9
$LIMMIN
 10
0.0
 20
0.0
  9
$LIMMAX
 10
75.0
 20
54.0
  9
$ORTHOMODE
 70
     1
  9
$REGENMODE
 70
     1
  9
$FILLMODE
 70
     1
  9
$QTEXTMODE
 70
     0
  9
$MIRRTEXT
 70
     0
  9
$DRAGMODE
 70
     2
  9
$LTSCALE
 40
2.0
  9
$OSMODE
 70
  3071
  9
$ATTMODE
 70
     1
  9
$TEXTSIZE
 40
2.5000000000000488
  9
$TRACEWID
 40
0.05
  9
$TEXTSTYLE
  7
STANDARD
  9
$CLAYER
  8
0
  9
$CELTYPE
  6
BYLAYER
  9
$CECOLOR
 62
   256
  9
$DIMSCALE
 40
0.2
  9
$DIMASZ
 40
3.0
  9
$DIMEXO
 40
2.0
  9
$DIMDLI
 40
0.38
  9
$DIMRND
 40
0.0
  9
$DIMDLE
 40
0.0
  9
$DIMEXE
 40
2.0
  9
$DIMTP
 40
0.0
  9
$DIMTM
 40
0.0
  9
$DIMTXT
 40
3.2000000000000002
  9
$DIMCEN
 40
0.0
  9
$DIMTSZ
 40
0.0
  9
$DIMTOL
 70
     0
  9
$DIMLIM
 70
     0
  9
$DIMTIH
 70
     0
  9
$DIMTOH
 70
     0
  9
$DIMSE1
 70
     0
  9
$DIMSE2
 70
     0
  9
$DIMTAD
 70
     1
  9
$DIMZIN
 70
     0
  9
$DIMBLK
  1

  9
$DIMASO
 70
     0
  9
$DIMSHO
 70
     0
  9
$DIMPOST
  1

  9
$DIMAPOST
  1

  9
$DIMALT
 70
     0
  9
$DIMALTD
 70
     2
  9
$DIMALTF
 40
25.399999999999999
  9
$DIMLFAC
 40
1.0
  9
$DIMTOFL
 70
     1
  9
$DIMTVP
 40
1.6000000000000001
  9
$DIMTIX
 70
     1
  9
$DIMSOXD
 70
     0
  9
$DIMSAH
 70
     0
  9
$DIMBLK1
  1

  9
$DIMBLK2
  1

  9
$DIMSTYLE
  2
STANDARD
  9
$DIMCLRD
 70
     0
  9
$DIMCLRE
 70
     0
  9
$DIMCLRT
 70
     0
  9
$DIMTFAC
 40
1.0
  9
$DIMGAP
 40
0.09
  9
$LUNITS
 70
     2
  9
$LUPREC
 70
     4
  9
$SKETCHINC
 40
0.1
  9
$FILLETRAD
 40
0.0
  9
$AUNITS
 70
     0
  9
$AUPREC
 70
     4
  9
$MENU
  1
E:\r13\win\SUPPORT\ACAD
  9
$ELEVATION
 40
0.0
  9
$PELEVATION
 40
0.0
  9
$THICKNESS
 40
0.0
  9
$LIMCHECK
 70
     0
  9
$BLIPMODE
 70
     0
  9
$CHAMFERA
 40
0.0
  9
$CHAMFERB
 40
0.0
  9
$SKPOLY
 70
     0
  9
$TDCREATE
 40
2449840.6212384258
  9
$TDUPDATE
 40
2456602.615193889
  9
$TDINDWG
 40
0.0015734028
  9
$TDUSRTIMER
 40
2456598.4164417251
  9
$USRTIMER
 70
     1
  9
$ANGBASE
 50
0.0
  9
$ANGDIR
 70
     0
  9
$PDMODE
 70
     0
  9
$PDSIZE
 40
0.0
  9
$PLINEWID
 40
0.0
  9
$COORDS
 70
     1
  9
$SPLFRAME
 70
     0
  9
$SPLINETYPE
 70
     6
  9
$SPLINESEGS
 70
     8
  9
$ATTDIA
 70
     0
  9
$ATTREQ
 70
     1
  9
$HANDLING
 70
     1
  9
$HANDSEED
  5
220
  9
$SURFTAB1
 70
     6
  9
$SURFTAB2
 70
     6
  9
$SURFTYPE
 70
     6
  9
$SURFU
 70
     6
  9
$SURFV
 70
     6
  9
$UCSNAME
  2

  9
$UCSORG
 10
0.0
 20
0.0
 30
0.0
  9
$UCSXDIR
 10
1.0
 20
0.0
 30
0.0
  9
$UCSYDIR
 10
0.0
 20
1.0
 30
0.0
  9
$PUCSNAME
  2

  9
$PUCSORG
 10
0.0
 20
0.0
 30
0.0
  9
$PUCSXDIR
 10
1.0
 20
0.0
 30
0.0
  9
$PUCSYDIR
 10
0.0
 20
1.0
 30
0.0
  9
$USERI1
 70
     0
  9
$USERI2
 70
     1
  9
$USERI3
 70
     0
  9
$USERI4
 70
     0
  9
$USERI5
 70
     0
  9
$USERR1
 40
0.0
  9
$USERR2
 40
0.0
  9
$USERR3
 40
0.0
  9
$USERR4
 40
0.0
  9
$USERR5
 40
0.0
  9
$WORLDVIEW
 70
     1
  9
$SHADEDGE
 70
     3
  9
$SHADEDIF
 70
    70
  9
$TILEMODE
 70
     1
  9
$MAXACTVP
 70
    16
  9
$PLIMCHECK
 70
     0
  9
$PEXTMIN
 10
1.0000000000000000E+020
 20
1.0000000000000000E+020
 30
1.0000000000000000E+020
  9
$PEXTMAX
 10
-1.0000000000000000E+020
 20
-1.0000000000000000E+020
 30
-1.0000000000000000E+020
  9
$PLIMMIN
 10
0.0
 20
0.0
  9
$PLIMMAX
 10
12.0
 20
9.0
  9
$UNITMODE
 70
     0
  9
$VISRETAIN
 70
     0
  9
$PLINEGEN
 70
     0
  9
$PSLTSCALE
 70
     0
  0
ENDSEC
  0
SECTION
  2
TABLES
  0
TABLE
  2
VPORT
 70
     1
  0
VPORT
  2
*ACTIVE
 70
     0
 10
0.0
 20
0.0
 11
1.0
 21
1.0
 12
39.036165471588582
 22
26.259658875478959
 13
0.0
 23
0.0
 14
2.0
 24
2.0
 15
2.0
 25
2.0
 16
0.0
 26
0.0
 36
1.0
 17
0.0
 27
0.0
 37
0.0
 40
55.978266843203883
 41
1.831871345029239
 42
50.0
 43
0.0
 44
0.0
 50
0.0
 51
0.0
 71
     0
 72
   500
 73
     1
 74
     0
 75
     0
 76
     0
 77
     0
 78
     2
  0
ENDTAB
  0
TABLE
  2
LTYPE
 70
     4
  0
LTYPE
  2
CONTINUOUS
 70
     0
  3
Solid Line
 72
    65
 73
     0
 40
0.0
  0
LTYPE
  2
CENTER
 70
     0
  3
____ _ ____ _ ____ _ ____ _ ____ _ ____ _ ____
 72
    65
 73
     4
 40
2.0
 49
1.25
 49
-0.25
 49
0.25
 49
-0.25
  0
LTYPE
  2
HIDDEN
 70
     0
  3
_ _ _ _ _ _ _ _ _ _ _ _ _ _ _ _ _ _ _ _ _ _ _
 72
    65
 73
     2
 40
0.375
 49
0.25
 49
-0.125
  0
LTYPE
  2
PHANTOM2
 70
     0
  3
___ _ _ ___ _ _ ___ _ _ ___ _ _
 72
    65
 73
     6
 40
1.25
 49
0.625
 49
-0.125
 49
0.125
 49
-0.125
 49
0.125
 49
-0.125
  0
ENDTAB
  0
TABLE
  2
LAYER
 70
     4
  0
LAYER
  2
0
 70
     0
 62
     7
  6
CONTINUOUS
  0
LAYER
  2
1
 70
     0
 62
     1
  6
CENTER
  0
LAYER
  2
2
 70
     0
 62
     2
  6
HIDDEN
  0
LAYER
  2
3
 70
     0
 62
     3
  6
CONTINUOUS
  0
ENDTAB
  0
TABLE
  2
STYLE
 70
     2
  0
STYLE
  2
STANDARD
 70
     0
 40
0.0
 41
1.0
 50
0.0
 71
     0
 42
2.5000000000000488
  3
TXT
  4
BIGFONT
  0
STYLE
  2
STANDARD1
 70
     0
 40
0.0
 41
1.0
 50
0.0
 71
     0
 42
3.0
  3
txt
  4

  0
ENDTAB
  0
TABLE
  2
VIEW
 70
     1
  0
VIEW
  2
ALL
 70
     0
 40
87.5
 10
71.617647058823522
 20
43.75
 41
0.0
 11
0.0
 21
0.0
 31
1.0
 12
0.0
 22
0.0
 32
0.0
 42
0.0
 43
0.0
 44
0.0
 50
0.0
 71
     0
  0
ENDTAB
  0
TABLE
  2
UCS
 70
     0
  0
ENDTAB
  0
TABLE
  2
APPID
 70
     3
  0
APPID
  2
ACAD
 70
     0
  0
APPID
  2
ACAD_MLEADERVER
 70
     0
  0
APPID
  2
ACAD_NAV_VCDISPLAY
 70
     0
  0
ENDTAB
  0
TABLE
  2
DIMSTYLE
 70
     1
  0
DIMSTYLE
  2
STANDARD
 70
     0
  3

  4

  5

  6

  7

 40
1.0
 41
0.18
 42
0.0625
 43
0.38
 44
0.18
 45
0.0
 46
0.0
 47
0.0
 48
0.0
140
0.18
141
0.09
142
0.0
143
25.399999999999999
144
1.0
145
0.0
146
1.0
147
0.09
 71
     0
 72
     0
 73
     1
 74
     1
 75
     0
 76
     0
 77
     0
 78
     0
170
     0
171
     2
172
     0
173
     0
174
     0
175
     0
176
     0
177
     0
178
     0
  0
ENDTAB
  0
ENDSEC
  0
SECTION
  2
BLOCKS
  0
BLOCK
  8
0
  2
$MODEL_SPACE
 70
     0
 10
0.0
 20
0.0
 30
0.0
  3
$MODEL_SPACE
  1

  0
ENDBLK
  5
C4
  8
0
  0
BLOCK
 67
     1
  8
0
  2
$PAPER_SPACE
 70
     0
 10
0.0
 20
0.0
 30
0.0
  3
$PAPER_SPACE
  1

  0
ENDBLK
  5
C2
 67
     1
  8
0
  0
ENDSEC
  0
SECTION
  2
ENTITIES
  0
CIRCLE
  5
36
  8
3
 10
12.93316191153261
 20
37.836181055155883
 30
0.0
 40
2.458499999999999
  0
CIRCLE
  5
37
  8
0
 10
12.93316191153261
 20
37.836181055155883
 30
0.0
 40
3.0
  0
LINE
  5
38
  8
0
 10
14.433161910311719
 20
38.702206458235963
 30
0.0
 11
14.433161910311719
 21
36.970155650667117
 31
0.0
  0
LINE
  5
39
  8
0
 10
14.4331619103099
 20
36.970155652075931
 30
0.0
 11
12.933161910311719
 21
36.104130248291391
 31
0.0
  0
LINE
  5
3A
  8
0
 10
12.93316191153226
 20
36.104130248997393
 30
0.0
 11
11.43316191153227
 21
36.970155652781457
 31
0.0
  0
LINE
  5
3B
  8
0
 10
11.433161912753709
 20
36.970155652076841
 30
0.0
 11
11.433161912753709
 21
38.702206459645673
 31
0.0
  0
LINE
  5
3C
  8
0
 10
11.433161912753709
 20
38.702206458235729
 30
0.0
 11
12.93316191275372
 21
39.568231862020262
 31
0.0
  0
LINE
  5
3D
  8
0
 10
12.93316191153226
 20
39.568231861314267
 30
0.0
 11
14.43316191153227
 21
38.702206457530188
 31
0.0
  0
LINE
  5
3E
  8
0
 10
33.329547640334262
 20
39.970155651370213
 30
0.0
 11
33.329547640334262
 21
35.70220645894144
 31
0.0
  0
LINE
  5
3F
  8
0
 10
33.829547640334262
 20
34.836181055157127
 30
0.0
 11
41.530509534659792
 21
34.836181055157127
 31
0.0
  0
LINE
  5
40
  8
3
 10
33.5169124695676
 20
35.377681055157751
 30
0.0
 11
42.468415046959393
 21
35.377681055157751
 31
0.0
  0
LINE
  5
41
  8
3
 10
33.516912469567771
 20
40.29468105515425
 30
0.0
 11
42.468415046959002
 21
40.294681055154243
 31
0.0
  0
LINE
  5
42
  8
0
 10
33.829547640334262
 20
40.836181055154739
 30
0.0
 11
41.530509534659558
 21
40.836181055154739
 31
0.0
  0
LINE
  5
43
  8
0
 10
42.829547640334262
 20
40.086181055155883
 30
0.0
 11
42.829547640334262
 21
35.586181055155883
 31
0.0
  0
LINE
  5
44
  8
0
 10
33.829547640334262
 20
40.836181055154739
 30
0.0
 11
33.829547640334262
 21
34.836181055157127
 31
0.0
  0
LINE
  5
45
  8
0
 10
33.829547640334212
 20
34.836181055157077
 30
0.0
 11
33.329547640334262
 21
35.702206458941554
 31
0.0
  0
LINE
  5
46
  8
0
 10
33.829547640334212
 20
40.836181055154682
 30
0.0
 11
33.329547640334262
 21
39.970155651370213
 31
0.0
  0
LINE
  5
47
  8
2
 10
33.329547640334262
 20
36.104130248996817
 30
0.0
 11
36.329547640334262
 21
36.104130248996817
 31
0.0
  0
LINE
  5
48
  8
2
 10
33.329547640334262
 20
36.970155652077118
 30
0.0
 11
36.329547640334262
 21
36.970155652077118
 31
0.0
  0
LINE
  5
49
  8
2
 10
33.329547640334262
 20
38.70220645823499
 30
0.0
 11
36.329547640334262
 21
38.70220645823499
 31
0.0
  0
LINE
  5
4A
  8
2
 10
33.329547640334319
 20
39.568231861314267
 30
0.0
 11
36.329547640334262
 21
39.568231861314267
 31
0.0
  0
LINE
  5
4B
  8
2
 10
36.329547640334262
 20
39.568231861314267
 30
0.0
 11
36.329547640334262
 21
36.104130248996817
 31
0.0
  0
LINE
  5
4C
  8
2
 10
36.329547640334262
 20
36.104130248996817
 30
0.0
 11
37.329547639520442
 21
37.83618105515594
 31
0.0
  0
LINE
  5
4D
  8
2
 10
36.329547640334262
 20
39.56823186131512
 30
0.0
 11
37.329547639520442
 21
37.83618105515594
 31
0.0
  0
LINE
  5
4E
  8
1
 10
32.329547640334262
 20
37.836181055155883
 30
0.0
 11
45.229547640334381
 21
37.836181055155883
 31
0.0
  0
LINE
  5
4F
  8
1
 10
42.229547640334367
 20
40.836181055155961
 30
0.0
 11
42.229547640334367
 21
34.836181055155812
 31
0.0
  0
LINE
  5
50
  8
0
 10
42.829547640334262
 20
40.086181055155883
 30
0.0
 11
41.530509534659593
 21
40.836181055154739
 31
0.0
  0
LINE
  5
51
  8
0
 10
42.829547640334262
 20
35.586181055155883
 30
0.0
 11
41.530509534659593
 21
34.83618105515702
 31
0.0
  0
LINE
  5
52
  8
0
 10
41.530509534659558
 20
40.836181055154739
 30
0.0
 11
41.530509534659771
 21
34.836181055157127
 31
0.0
  0
ARC
  5
53
  8
0
 10
42.229547640334367
 20
37.836181055155883
 30
0.0
 40
2.0
 50
287.45760312371618
 51
72.542396876283803
  0
ARC
  5
54
  8
2
 10
42.229547640334367
 20
37.836181055155883
 30
0.0
 40
2.0
 50
72.542396876283803
 51
287.45760312371618
  0
LINE
  5
5E
  8
1
 10
16.933161911532611
 20
37.836181055155883
 30
0.0
 11
8.9331619115326077
 21
37.836181055155883
 31
0.0
  0
LINE
  5
5F
  8
1
 10
12.93316191153261
 20
41.836181055155883
 30
0.0
 11
12.93316191153261
 21
33.836181055155883
 31
0.0
  0
LINE
  5
60
  8
1
 10
61.396728315937253
 20
41.836181055155883
 30
0.0
 11
61.396728315937253
 21
33.836181055155883
 31
0.0
  0
LINE
  5
61
  8
1
 10
65.396728315937253
 20
37.836181055155883
 30
0.0
 11
57.396728315937253
 21
37.836181055155883
 31
0.0
  0
CIRCLE
  5
62
  8
0
 10
61.396728315937253
 20
37.836181055155883
 30
0.0
 40
3.0
  0
CIRCLE
  5
63
  8
3
 10
61.396728315937253
 20
37.836181055155883
 30
0.0
 40
2.458499999999999
  0
CIRCLE
  5
64
  8
0
 10
61.396728315937253
 20
37.836181055155883
 30
0.0
 40
1.9078784028339759
  0
ARC
  5
65
  8
2
 10
42.229547640334367
 20
54.627547961630711
 30
0.0
 40
2.0
 50
72.542396876283803
 51
287.45760312371618
  0
ARC
  5
66
  8
0
 10
42.229547640334367
 20
54.627547961630711
 30
0.0
 40
2.0
 50
287.45760312371618
 51
72.542396876283803
  0
LINE
  5
67
  8
0
 10
41.530509534659558
 20
57.62754796162956
 30
0.0
 11
41.530509534659771
 21
51.627547961631947
 31
0.0
  0
LINE
  5
68
  8
0
 10
42.829547640334262
 20
52.377547961630711
 30
0.0
 11
41.530509534659593
 21
51.627547961631841
 31
0.0
  0
LINE
  5
69
  8
0
 10
42.829547640334262
 20
56.877547961630711
 30
0.0
 11
41.530509534659593
 21
57.627547961629567
 31
0.0
  0
LINE
  5
6A
  8
1
 10
42.229547640334367
 20
57.627547961630782
 30
0.0
 11
42.229547640334367
 21
51.627547961630633
 31
0.0
  0
LINE
  5
6B
  8
1
 10
32.329547640334262
 20
54.627547961630711
 30
0.0
 11
45.229547640334381
 21
54.627547961630697
 31
0.0
  0
LINE
  5
6C
  8
2
 10
36.329547640334262
 20
56.127547960409807
 30
0.0
 11
36.329547640334262
 21
53.127547962851807
 31
0.0
  0
LINE
  5
6D
  8
0
 10
33.829547640334212
 20
57.62754796162951
 30
0.0
 11
33.329547640334262
 21
56.761522557845041
 31
0.0
  0
LINE
  5
6E
  8
0
 10
33.829547640334212
 20
51.627547961631898
 30
0.0
 11
33.329547640334262
 21
52.493573365416381
 31
0.0
  0
LINE
  5
6F
  8
0
 10
33.829547640334262
 20
57.627547961629567
 30
0.0
 11
33.829547640334262
 21
51.627547961631961
 31
0.0
  0
LINE
  5
70
  8
0
 10
42.829547640334262
 20
56.877547961630711
 30
0.0
 11
42.829547640334262
 21
52.377547961630697
 31
0.0
  0
LINE
  5
71
  8
0
 10
33.829547640334262
 20
57.627547961629567
 30
0.0
 11
41.530509534659558
 21
57.627547961629567
 31
0.0
  0
LINE
  5
72
  8
3
 10
33.516912469567771
 20
57.086047961629077
 30
0.0
 11
42.468415046959002
 21
57.086047961629063
 31
0.0
  0
LINE
  5
73
  8
3
 10
33.5169124695676
 20
52.169047961632572
 30
0.0
 11
42.468415046959393
 21
52.169047961632572
 31
0.0
  0
LINE
  5
74
  8
0
 10
33.829547640334262
 20
51.627547961631961
 30
0.0
 11
41.530509534659792
 21
51.627547961631961
 31
0.0
  0
LINE
  5
75
  8
0
 10
33.329547640334262
 20
56.761522557845041
 30
0.0
 11
33.329547640334262
 21
52.493573365416268
 31
0.0
  0
LINE
  5
76
  8
2
 10
33.329547640334262
 20
56.127547960409821
 30
0.0
 11
36.329547640334262
 21
56.127547960409821
 31
0.0
  0
LINE
  5
77
  8
2
 10
33.329547640334262
 20
54.627547961631493
 30
0.0
 11
36.329547640334262
 21
54.627547961631493
 31
0.0
  0
LINE
  5
78
  8
2
 10
33.329547640334262
 20
53.127547962851821
 30
0.0
 11
36.329547640334262
 21
53.127547962851807
 31
0.0
  0
LINE
  5
79
  8
2
 10
37.329547639520399
 20
54.627547961630697
 30
0.0
 11
36.329547640334262
 21
56.127547960409807
 31
0.0
  0
LINE
  5
7A
  8
2
 10
36.329547640334262
 20
53.1275479628518
 30
0.0
 11
37.329547639520399
 21
54.627547961630697
 31
0.0
  0
LINE
  5
7B
  8
0
 10
33.329547640334262
 20
22.544795939139998
 30
0.0
 11
33.329547640334262
 21
18.276846746711229
 31
0.0
  0
LINE
  5
7C
  8
0
 10
33.829547640334262
 20
17.410821342926919
 30
0.0
 11
41.530509534659792
 21
17.410821342926919
 31
0.0
  0
LINE
  5
7D
  8
3
 10
33.5169124695676
 20
17.952321342927529
 30
0.0
 11
42.468415046959393
 21
17.952321342927529
 31
0.0
  0
LINE
  5
7E
  8
3
 10
33.516912469567771
 20
22.869321342924039
 30
0.0
 11
42.468415046959002
 21
22.869321342924032
 31
0.0
  0
LINE
  5
7F
  8
0
 10
33.829547640334262
 20
23.410821342924539
 30
0.0
 11
41.530509534659558
 21
23.410821342924539
 31
0.0
  0
LINE
  5
80
  8
0
 10
42.829547640334262
 20
22.660821342925669
 30
0.0
 11
42.829547640334262
 21
18.160821342925662
 31
0.0
  0
LINE
  5
81
  8
0
 10
33.829547640334262
 20
23.410821342924539
 30
0.0
 11
33.829547640334262
 21
17.410821342926919
 31
0.0
  0
LINE
  5
82
  8
0
 10
33.829547640334212
 20
17.410821342926859
 30
0.0
 11
33.329547640334262
 21
18.276846746711339
 31
0.0
  0
LINE
  5
83
  8
0
 10
33.829547640334212
 20
23.410821342924478
 30
0.0
 11
33.329547640334262
 21
22.544795939139998
 31
0.0
  0
LINE
  5
84
  8
1
 10
32.329547640334262
 20
20.410821342925669
 30
0.0
 11
45.229547640334381
 21
20.410821342925662
 31
0.0
  0
LINE
  5
85
  8
1
 10
42.229547640334367
 20
23.41082134292574
 30
0.0
 11
42.229547640334367
 21
17.41082134292559
 31
0.0
  0
LINE
  5
86
  8
0
 10
42.829547640334262
 20
22.660821342925669
 30
0.0
 11
41.530509534659593
 21
23.410821342924539
 31
0.0
  0
LINE
  5
87
  8
0
 10
42.829547640334262
 20
18.160821342925669
 30
0.0
 11
41.530509534659593
 21
17.410821342926809
 31
0.0
  0
LINE
  5
88
  8
0
 10
41.530509534659558
 20
23.410821342924521
 30
0.0
 11
41.530509534659771
 21
17.410821342926909
 31
0.0
  0
ARC
  5
89
  8
0
 10
42.229547640334367
 20
20.410821342925669
 30
0.0
 40
2.0
 50
287.45760312371613
 51
72.54239687628386
  0
ARC
  5
8A
  8
2
 10
42.229547640334367
 20
20.410821342925669
 30
0.0
 40
2.0
 50
72.54239687628386
 51
287.45760312371613
  0
LINE
  5
8B
  8
2
 10
36.329547640334262
 20
21.910821341703979
 30
0.0
 11
36.329547640334262
 21
18.91082134414598
 31
0.0
  0
LINE
  5
8C
  8
2
 10
33.329547640334262
 20
21.91082134170399
 30
0.0
 11
36.329547640334262
 21
21.91082134170399
 31
0.0
  0
LINE
  5
8D
  8
2
 10
33.329547640334262
 20
20.410821342925669
 30
0.0
 11
36.329547640334262
 21
20.410821342925669
 31
0.0
  0
LINE
  5
8E
  8
2
 10
33.329547640334262
 20
18.91082134414599
 30
0.0
 11
36.329547640334262
 21
18.91082134414598
 31
0.0
  0
LINE
  5
8F
  8
2
 10
37.329547639520399
 20
20.410821342924869
 30
0.0
 11
36.329547640334262
 21
21.910821341703979
 31
0.0
  0
LINE
  5
90
  8
2
 10
36.329547640334262
 20
18.910821344145969
 30
0.0
 11
37.329547639520399
 21
20.410821342924869
 31
0.0
  0
TEXT
  5
180
  8
0
 62
     3
 10
0.0
 20
0.0
 30
0.0
 40
5.0
  1
BSR6X10-SUS
  7
STANDARD1
  0
ENDSEC
  0
EOF
