  0
SECTION
  2
HEADER
  9
$ACADVER
  1
AC1009
  9
$INSBASE
 10
0.0
 20
0.0
 30
0.0
  9
$EXTMIN
 10
0.0
 20
-1.4802182810368341
 30
0.0
  9
$EXTMAX
 10
62.438915605936089
 20
33.91408666208207
 30
0.0
  9
$LIMMIN
 10
0.0
 20
0.0
  9
$LIMMAX
 10
187.5
 20
135.0
  9
$ORTHOMODE
 70
     1
  9
$REGENMODE
 70
     1
  9
$FILLMODE
 70
     1
  9
$QTEXTMODE
 70
     0
  9
$MIRRTEXT
 70
     0
  9
$DRAGMODE
 70
     2
  9
$LTSCALE
 40
2.0
  9
$OSMODE
 70
    37
  9
$ATTMODE
 70
     1
  9
$TEXTSIZE
 40
4.0
  9
$TRACEWID
 40
0.05
  9
$TEXTSTYLE
  7
STANDARD
  9
$CLAYER
  8
0
  9
$CELTYPE
  6
BYLAYER
  9
$CECOLOR
 62
   256
  9
$DIMSCALE
 40
0.5
  9
$DIMASZ
 40
3.0
  9
$DIMEXO
 40
2.0
  9
$DIMDLI
 40
0.38
  9
$DIMRND
 40
0.0
  9
$DIMDLE
 40
0.0
  9
$DIMEXE
 40
2.0
  9
$DIMTP
 40
0.0
  9
$DIMTM
 40
0.0
  9
$DIMTXT
 40
3.0
  9
$DIMCEN
 40
0.0
  9
$DIMTSZ
 40
0.0
  9
$DIMTOL
 70
     0
  9
$DIMLIM
 70
     0
  9
$DIMTIH
 70
     0
  9
$DIMTOH
 70
     0
  9
$DIMSE1
 70
     0
  9
$DIMSE2
 70
     0
  9
$DIMTAD
 70
     1
  9
$DIMZIN
 70
     0
  9
$DIMBLK
  1

  9
$DIMASO
 70
     0
  9
$DIMSHO
 70
     0
  9
$DIMPOST
  1

  9
$DIMAPOST
  1

  9
$DIMALT
 70
     0
  9
$DIMALTD
 70
     2
  9
$DIMALTF
 40
25.399999999999999
  9
$DIMLFAC
 40
1.0
  9
$DIMTOFL
 70
     0
  9
$DIMTVP
 40
1.6000000000000001
  9
$DIMTIX
 70
     1
  9
$DIMSOXD
 70
     0
  9
$DIMSAH
 70
     0
  9
$DIMBLK1
  1

  9
$DIMBLK2
  1

  9
$DIMSTYLE
  2
STANDARD
  9
$DIMCLRD
 70
     0
  9
$DIMCLRE
 70
     0
  9
$DIMCLRT
 70
     0
  9
$DIMTFAC
 40
1.0
  9
$DIMGAP
 40
0.09
  9
$LUNITS
 70
     2
  9
$LUPREC
 70
     4
  9
$SKETCHINC
 40
0.1
  9
$FILLETRAD
 40
1.0
  9
$AUNITS
 70
     0
  9
$AUPREC
 70
     0
  9
$MENU
  1
E:\r13\win\SUPPORT\ACAD
  9
$ELEVATION
 40
0.0
  9
$PELEVATION
 40
0.0
  9
$THICKNESS
 40
0.0
  9
$LIMCHECK
 70
     0
  9
$BLIPMODE
 70
     0
  9
$CHAMFERA
 40
0.0
  9
$CHAMFERB
 40
0.0
  9
$SKPOLY
 70
     0
  9
$TDCREATE
 40
2449840.6143865739
  9
$TDUPDATE
 40
2457172.4988151388
  9
$TDINDWG
 40
0.2656813542
  9
$TDUSRTIMER
 40
0.2656813542
  9
$USRTIMER
 70
     1
  9
$ANGBASE
 50
0.0
  9
$ANGDIR
 70
     0
  9
$PDMODE
 70
     0
  9
$PDSIZE
 40
0.0
  9
$PLINEWID
 40
0.0
  9
$COORDS
 70
     1
  9
$SPLFRAME
 70
     0
  9
$SPLINETYPE
 70
     6
  9
$SPLINESEGS
 70
     8
  9
$ATTDIA
 70
     0
  9
$ATTREQ
 70
     1
  9
$HANDLING
 70
     1
  9
$HANDSEED
  5
190B
  9
$SURFTAB1
 70
     6
  9
$SURFTAB2
 70
     6
  9
$SURFTYPE
 70
     6
  9
$SURFU
 70
     6
  9
$SURFV
 70
     6
  9
$UCSNAME
  2

  9
$UCSORG
 10
0.0
 20
0.0
 30
0.0
  9
$UCSXDIR
 10
1.0
 20
0.0
 30
0.0
  9
$UCSYDIR
 10
0.0
 20
1.0
 30
0.0
  9
$PUCSNAME
  2

  9
$PUCSORG
 10
0.0
 20
0.0
 30
0.0
  9
$PUCSXDIR
 10
1.0
 20
0.0
 30
0.0
  9
$PUCSYDIR
 10
0.0
 20
1.0
 30
0.0
  9
$USERI1
 70
     0
  9
$USERI2
 70
     1
  9
$USERI3
 70
     1
  9
$USERI4
 70
     0
  9
$USERI5
 70
     0
  9
$USERR1
 40
0.0
  9
$USERR2
 40
0.0
  9
$USERR3
 40
0.0
  9
$USERR4
 40
0.0
  9
$USERR5
 40
0.0
  9
$WORLDVIEW
 70
     1
  9
$SHADEDGE
 70
     3
  9
$SHADEDIF
 70
    70
  9
$TILEMODE
 70
     1
  9
$MAXACTVP
 70
    16
  9
$PLIMCHECK
 70
     0
  9
$PEXTMIN
 10
1.0000000000000000E+020
 20
1.0000000000000000E+020
 30
1.0000000000000000E+020
  9
$PEXTMAX
 10
-1.0000000000000000E+020
 20
-1.0000000000000000E+020
 30
-1.0000000000000000E+020
  9
$PLIMMIN
 10
0.0
 20
0.0
  9
$PLIMMAX
 10
12.0
 20
9.0
  9
$UNITMODE
 70
     0
  9
$VISRETAIN
 70
     0
  9
$PLINEGEN
 70
     0
  9
$PSLTSCALE
 70
     0
  0
ENDSEC
  0
SECTION
  2
TABLES
  0
TABLE
  2
VPORT
 70
     1
  0
VPORT
  2
*ACTIVE
 70
     0
 10
0.0
 20
0.0
 11
1.0
 21
1.0
 12
42.206632774757487
 22
16.217061258778951
 13
0.0
 23
0.0
 14
5.0
 24
5.0
 15
5.0
 25
5.0
 16
0.0
 26
0.0
 36
1.0
 17
0.0
 27
0.0
 37
0.0
 40
35.713440189374232
 41
2.6019575856443709
 42
50.0
 43
0.0
 44
0.0
 50
0.0
 51
0.0
 71
     0
 72
   100
 73
     1
 74
     0
 75
     0
 76
     0
 77
     0
 78
     0
  0
ENDTAB
  0
TABLE
  2
LTYPE
 70
     4
  0
LTYPE
  2
CONTINUOUS
 70
     0
  3
Solid Line
 72
    65
 73
     0
 40
0.0
  0
LTYPE
  2
CENTER
 70
     0
  3
____ _ ____ _ ____ _ ____ _ ____ _ ____ _ ____
 72
    65
 73
     4
 40
2.0
 49
1.25
 49
-0.25
 49
0.25
 49
-0.25
  0
LTYPE
  2
HIDDEN
 70
     0
  3
_ _ _ _ _ _ _ _ _ _ _ _ _ _ _ _ _ _ _ _ _ _ _
 72
    65
 73
     2
 40
0.375
 49
0.25
 49
-0.125
  0
LTYPE
  2
PHANTOM2
 70
     0
  3
___ _ _ ___ _ _ ___ _ _ ___ _ _
 72
    65
 73
     6
 40
1.25
 49
0.625
 49
-0.125
 49
0.125
 49
-0.125
 49
0.125
 49
-0.125
  0
ENDTAB
  0
TABLE
  2
LAYER
 70
     4
  0
LAYER
  2
0
 70
     0
 62
     7
  6
CONTINUOUS
  0
LAYER
  2
1
 70
     0
 62
     1
  6
CENTER
  0
LAYER
  2
3
 70
     0
 62
     3
  6
CONTINUOUS
  0
LAYER
  2
2
 70
     0
 62
     2
  6
HIDDEN
  0
ENDTAB
  0
TABLE
  2
STYLE
 70
     2
  0
STYLE
  2
STANDARD
 70
     0
 40
0.0
 41
1.0
 50
0.0
 71
     0
 42
4.0
  3
TXT
  4
BIGFONT
  0
STYLE
  2
STANDARD1
 70
     0
 40
0.0
 41
1.0
 50
0.0
 71
     0
 42
3.0
  3
txt
  4

  0
ENDTAB
  0
TABLE
  2
VIEW
 70
     1
  0
VIEW
  2
ALL
 70
     0
 40
179.66152299999999
 10
141.903918
 20
89.830760999999995
 41
0.0
 11
0.0
 21
0.0
 31
1.0
 12
0.0
 22
0.0
 32
0.0
 42
0.0
 43
0.0
 44
0.0
 50
0.0
 71
     0
  0
ENDTAB
  0
TABLE
  2
UCS
 70
     0
  0
ENDTAB
  0
TABLE
  2
APPID
 70
     5
  0
APPID
  2
ACAD
 70
     0
  0
APPID
  2
DCO15
 70
     0
  0
APPID
  2
ACAD_MLEADERVER
 70
     0
  0
APPID
  2
ACAD_EXEMPT_FROM_CAD_STANDARDS
 70
     0
  0
APPID
  2
ACAD_NAV_VCDISPLAY
 70
     0
  0
ENDTAB
  0
TABLE
  2
DIMSTYLE
 70
     1
  0
DIMSTYLE
  2
STANDARD
 70
     0
  3

  4

  5

  6

  7

 40
1.0
 41
0.18
 42
0.0625
 43
0.38
 44
0.18
 45
0.0
 46
0.0
 47
0.0
 48
0.0
140
0.18
141
0.09
142
0.0
143
25.399999999999999
144
1.0
145
0.0
146
1.0
147
0.09
 71
     0
 72
     0
 73
     1
 74
     1
 75
     0
 76
     0
 77
     0
 78
     0
170
     0
171
     2
172
     0
173
     0
174
     0
175
     0
176
     0
177
     0
178
     0
  0
ENDTAB
  0
ENDSEC
  0
SECTION
  2
BLOCKS
  0
BLOCK
  8
0
  2
$MODEL_SPACE
 70
     0
 10
0.0
 20
0.0
 30
0.0
  3
$MODEL_SPACE
  1

  0
ENDBLK
  5
1BD
  8
0
  0
BLOCK
 67
     1
  8
0
  2
$PAPER_SPACE
 70
     0
 10
0.0
 20
0.0
 30
0.0
  3
$PAPER_SPACE
  1

  0
ENDBLK
  5
1BB
 67
     1
  8
0
  0
ENDSEC
  0
SECTION
  2
ENTITIES
  0
TEXT
  5
1417
  8
0
 62
     3
 10
0.0
 20
0.0
 30
0.0
 40
5.0
  1
BSRC5X20-SUS
  7
STANDARD1
  0
LINE
  5
154A
  8
0
 10
41.248415605936103
 20
26.91408666205707
 30
0.0
 11
41.738915605936093
 21
27.404586662057071
 31
0.0
  0
LINE
  5
154B
  8
0
 10
41.738915605936093
 20
31.42358666205708
 30
0.0
 11
41.248415605936103
 21
31.91408666205707
 31
0.0
  0
LINE
  5
154C
  8
0
 10
23.938915605936089
 20
31.91408666205707
 30
0.0
 11
23.438915605936089
 21
31.41408666205708
 31
0.0
  0
LINE
  5
154D
  8
0
 10
23.438915605936089
 20
27.414086662157079
 30
0.0
 11
23.938915605936089
 21
26.914086662157072
 31
0.0
  0
LINE
  5
154E
  8
0
 10
23.938915605936089
 20
26.91408666205707
 30
0.0
 11
41.248415605936103
 21
26.91408666205707
 31
0.0
  0
LINE
  5
154F
  8
0
 10
41.248415605936103
 20
31.91408666205707
 30
0.0
 11
23.938915605936089
 21
31.91408666205707
 31
0.0
  0
LINE
  5
1550
  8
0
 10
41.738915605936093
 20
27.564086662057079
 30
0.0
 11
42.638915605936099
 21
27.564086662057079
 31
0.0
  0
LINE
  5
1551
  8
0
 10
42.638915605936099
 20
31.264086662057071
 30
0.0
 11
41.738915605936093
 21
31.264086662057071
 31
0.0
  0
ARC
  5
1552
  8
0
 10
41.938915605936081
 20
29.41408666205708
 30
0.0
 40
1.4999999999999929
 50
297.81813928470001
 51
62.18186071529999
  0
LINE
  5
1554
  8
0
 10
41.738915605936093
 20
27.404586662057071
 30
0.0
 11
41.738915605936093
 21
31.42358666205708
 31
0.0
  0
LINE
  5
1555
  8
0
 10
41.248415605936103
 20
26.91408666205707
 30
0.0
 11
41.248415605936103
 21
31.91408666205707
 31
0.0
  0
LINE
  5
1556
  8
0
 10
23.938915605936089
 20
31.91408666205707
 30
0.0
 11
23.938915605936089
 21
26.91408666205707
 31
0.0
  0
LINE
  5
1557
  8
0
 10
23.438915605936089
 20
31.41408666205708
 30
0.0
 11
23.438915605936089
 21
27.414086662157079
 31
0.0
  0
LINE
  5
1559
  8
0
 10
42.638915605936099
 20
27.564086662057079
 30
0.0
 11
42.638915605936099
 21
31.264086662057071
 31
0.0
  0
LINE
  5
1560
  8
2
 10
26.438915605936089
 20
30.13577449855708
 30
0.0
 11
23.438915605936089
 21
30.13577449855708
 31
0.0
  0
LINE
  5
1562
  8
2
 10
26.438915605936089
 20
28.692398825557081
 30
0.0
 11
23.438915605936089
 21
28.692398825557081
 31
0.0
  0
LINE
  5
1564
  8
2
 10
26.438915605936099
 20
30.857462335057079
 30
0.0
 11
26.438915605936089
 21
27.970710989057078
 31
0.0
  0
LINE
  5
1567
  8
2
 10
23.438915605936089
 20
27.970710989057078
 30
0.0
 11
26.438915605936089
 21
27.970710989057078
 31
0.0
  0
LINE
  5
1568
  8
2
 10
26.438915605936089
 20
30.857462335057079
 30
0.0
 11
23.438915605936089
 21
30.857462335057079
 31
0.0
  0
LINE
  5
1573
  8
2
 10
26.438915605936089
 20
28.16408666205708
 30
0.0
 11
27.487790145036112
 21
29.41408666205708
 31
0.0
  0
LINE
  5
1574
  8
2
 10
27.487790145036112
 20
29.41408666205708
 30
0.0
 11
26.438915605936089
 21
30.66408666205707
 31
0.0
  0
LINE
  5
1578
  8
0
 10
41.248415605936103
 20
13.39043897142747
 30
0.0
 11
41.738915605936093
 21
13.88093897142747
 31
0.0
  0
LINE
  5
1579
  8
0
 10
41.738915605936093
 20
17.899938971427471
 30
0.0
 11
41.248415605936103
 21
18.390438971427471
 31
0.0
  0
LINE
  5
157A
  8
0
 10
23.938915605936089
 20
18.39043897132747
 30
0.0
 11
23.438915605936089
 21
17.89043897132747
 31
0.0
  0
LINE
  5
157B
  8
0
 10
23.438915605936089
 20
13.89043897142747
 30
0.0
 11
23.938915605936089
 21
13.39043897142747
 31
0.0
  0
LINE
  5
157C
  8
0
 10
23.938915605936089
 20
13.39043897142747
 30
0.0
 11
41.248415605936103
 21
13.39043897142747
 31
0.0
  0
LINE
  5
157D
  8
0
 10
41.248415605936103
 20
18.390438971427471
 30
0.0
 11
23.938915605936089
 21
18.390438971427471
 31
0.0
  0
LINE
  5
157E
  8
0
 10
41.738915605936093
 20
14.040438971427481
 30
0.0
 11
42.638915605936099
 21
14.040438971427481
 31
0.0
  0
LINE
  5
157F
  8
0
 10
42.638915605936099
 20
17.740438971427459
 30
0.0
 11
41.738915605936093
 21
17.740438971427459
 31
0.0
  0
ARC
  5
1580
  8
0
 10
41.938915605936081
 20
15.89043897142747
 30
0.0
 40
1.4999999999999929
 50
297.81813928470001
 51
62.18186071529999
  0
LINE
  5
1581
  8
0
 10
41.738915605936093
 20
13.88093897142747
 30
0.0
 11
41.738915605936093
 21
17.899938971427471
 31
0.0
  0
LINE
  5
1582
  8
0
 10
41.248415605936103
 20
13.39043897142747
 30
0.0
 11
41.248415605936103
 21
18.390438971427471
 31
0.0
  0
LINE
  5
1583
  8
0
 10
23.938915605936089
 20
18.390438971427471
 30
0.0
 11
23.938915605936089
 21
13.39043897142747
 31
0.0
  0
LINE
  5
1584
  8
0
 10
23.438915605936089
 20
17.89043897132747
 30
0.0
 11
23.438915605936089
 21
13.89043897142747
 31
0.0
  0
LINE
  5
1585
  8
0
 10
42.638915605936099
 20
14.040438971427481
 30
0.0
 11
42.638915605936099
 21
17.740438971427459
 31
0.0
  0
LINE
  5
158D
  8
2
 10
26.438915605936089
 20
15.89043897142747
 30
0.0
 11
23.438915605936089
 21
15.89043897142747
 31
0.0
  0
LINE
  5
158F
  8
2
 10
26.438915605936089
 20
17.140438971427471
 30
0.0
 11
26.438915605936089
 21
14.64043897142747
 31
0.0
  0
LINE
  5
1590
  8
2
 10
23.438915605936089
 20
17.140438971427471
 30
0.0
 11
26.438915605936089
 21
17.140438971427471
 31
0.0
  0
LINE
  5
1591
  8
2
 10
26.438915605936089
 20
14.64043897142747
 30
0.0
 11
23.438915605936089
 21
14.64043897142747
 31
0.0
  0
LINE
  5
159D
  8
2
 10
26.438915605936089
 20
14.64043897132747
 30
0.0
 11
27.487790145036101
 21
15.89043897142747
 31
0.0
  0
LINE
  5
159E
  8
2
 10
27.487790145036101
 20
15.89043897142747
 30
0.0
 11
26.438915605936089
 21
17.140438971427471
 31
0.0
  0
CIRCLE
  5
15A3
  8
0
 10
57.938915605936089
 20
29.41408666208207
 30
0.0
 40
1.850000000000023
  0
CIRCLE
  5
15A5
  8
0
 10
57.938915605936089
 20
29.41408666208207
 30
0.0
 40
2.5
  0
CIRCLE
  5
15BC
  8
0
 10
8.9389156059360886
 20
29.41408666208207
 30
0.0
 40
1.99999999995272
  0
LINE
  5
15BD
  8
0
 10
8.9389156059360886
 20
30.857462335082079
 30
0.0
 11
7.6889156059360877
 21
30.13577449858208
 31
0.0
  0
LINE
  5
15BE
  8
0
 10
7.6889156059360877
 20
30.13577449858208
 30
0.0
 11
7.6889156059360877
 21
28.692398825582082
 31
0.0
  0
LINE
  5
15BF
  8
0
 10
7.6889156059360877
 20
28.692398825582082
 30
0.0
 11
8.9389156059360886
 21
27.970710989082079
 31
0.0
  0
LINE
  5
15C0
  8
0
 10
8.9389156059360886
 20
27.970710989082079
 30
0.0
 11
10.188915605936099
 21
28.692398825582082
 31
0.0
  0
LINE
  5
15C1
  8
0
 10
10.188915605936099
 20
28.692398825582082
 30
0.0
 11
10.188915605936099
 21
30.13577449858208
 31
0.0
  0
LINE
  5
15C2
  8
0
 10
10.188915605936099
 20
30.13577449858208
 30
0.0
 11
8.9389156059360886
 21
30.857462335082079
 31
0.0
  0
CIRCLE
  5
15C3
  8
0
 10
8.9389156059360886
 20
29.41408666208207
 30
0.0
 40
2.4999999999999849
  0
ARC
  5
15D6
  8
2
 10
41.938915605936081
 20
29.41408666205708
 30
0.0
 40
1.4999999999999929
 50
62.181860715345273
 51
297.81813928465471
  0
ARC
  5
15D7
  8
2
 10
41.938915605936081
 20
15.89043897142747
 30
0.0
 40
1.4999999999999929
 50
62.181860715345273
 51
297.81813928465471
  0
CIRCLE
  5
15E6
  8
0
 10
57.938915605936089
 20
29.41408666208207
 30
0.0
 40
1.3266499161415899
  0
LINE
  5
15F1
  8
1
 10
21.438915605936089
 20
29.414086662107071
 30
0.0
 11
45.438915605936089
 21
29.41408666205708
 31
0.0
  0
LINE
  5
15F2
  8
1
 10
41.938915605936081
 20
32.914086662057073
 30
0.0
 11
41.938915605936081
 21
25.91408666205708
 31
0.0
  0
LINE
  5
15F3
  8
1
 10
21.438915605936089
 20
15.890438971377471
 30
0.0
 11
45.438915605936067
 21
15.89043897142747
 31
0.0
  0
LINE
  5
15F4
  8
1
 10
41.938915605936081
 20
19.390438971427461
 30
0.0
 11
41.938915605936081
 21
12.39043897142748
 31
0.0
  0
LINE
  5
15F5
  8
1
 10
53.438915605936089
 20
29.41408666208207
 30
0.0
 11
62.438915605936089
 21
29.41408666208207
 31
0.0
  0
LINE
  5
15F6
  8
1
 10
57.938915605936089
 20
24.91408666208207
 30
0.0
 11
57.938915605936089
 21
33.91408666208207
 31
0.0
  0
LINE
  5
15F7
  8
1
 10
8.9389156059360886
 20
33.914086662082063
 30
0.0
 11
8.9389156059360886
 21
24.914086662082081
 31
0.0
  0
LINE
  5
15F8
  8
1
 10
4.4389156059361019
 20
29.41408666208207
 30
0.0
 11
13.438915605936071
 21
29.41408666208207
 31
0.0
  0
CIRCLE
  5
15F9
  8
3
 10
8.9389156059360886
 20
29.41408666208207
 30
0.0
 40
2.0669999999998079
  0
LINE
  5
15FA
  8
3
 10
41.681415605894649
 20
31.481086662098519
 30
0.0
 11
23.50591560597757
 21
31.481086662098541
 31
0.0
  0
LINE
  5
15FB
  8
3
 10
41.681415605894699
 20
27.347086662098992
 30
0.0
 11
23.505915605994179
 21
27.347086662098992
 31
0.0
  0
LINE
  5
1643
  8
3
 10
41.681415605894649
 20
17.957438971368909
 30
0.0
 11
23.50591560597756
 21
17.95743897136893
 31
0.0
  0
LINE
  5
1644
  8
3
 10
41.681415605894699
 20
13.823438971369381
 30
0.0
 11
23.505915605994179
 21
13.823438971369381
 31
0.0
  0
CIRCLE
  5
1645
  8
3
 10
57.938915605936089
 20
29.41408666208207
 30
0.0
 40
2.0669999999998079
  0
ENDSEC
  0
EOF
