  0
SECTION
  2
HEADER
  9
$ACADVER
  1
AC1009
  9
$INSBASE
 10
0.0
 20
0.0
 30
0.0
  9
$EXTMIN
 10
0.0
 20
-1.4802182810368341
 30
0.0
  9
$EXTMAX
 10
97.148546641670436
 20
53.943176118504311
 30
0.0
  9
$LIMMIN
 10
0.0
 20
0.0
  9
$LIMMAX
 10
187.5
 20
135.0
  9
$ORTHOMODE
 70
     1
  9
$REGENMODE
 70
     1
  9
$FILLMODE
 70
     1
  9
$QTEXTMODE
 70
     0
  9
$MIRRTEXT
 70
     0
  9
$DRAGMODE
 70
     2
  9
$LTSCALE
 40
2.0
  9
$OSMODE
 70
    37
  9
$ATTMODE
 70
     1
  9
$TEXTSIZE
 40
4.0
  9
$TRACEWID
 40
0.05
  9
$TEXTSTYLE
  7
STANDARD
  9
$CLAYER
  8
0
  9
$CELTYPE
  6
BYLAYER
  9
$CECOLOR
 62
   256
  9
$DIMSCALE
 40
0.5
  9
$DIMASZ
 40
3.0
  9
$DIMEXO
 40
2.0
  9
$DIMDLI
 40
0.38
  9
$DIMRND
 40
0.0
  9
$DIMDLE
 40
0.0
  9
$DIMEXE
 40
2.0
  9
$DIMTP
 40
0.0
  9
$DIMTM
 40
0.0
  9
$DIMTXT
 40
3.0
  9
$DIMCEN
 40
0.0
  9
$DIMTSZ
 40
0.0
  9
$DIMTOL
 70
     0
  9
$DIMLIM
 70
     0
  9
$DIMTIH
 70
     0
  9
$DIMTOH
 70
     0
  9
$DIMSE1
 70
     0
  9
$DIMSE2
 70
     0
  9
$DIMTAD
 70
     1
  9
$DIMZIN
 70
     0
  9
$DIMBLK
  1

  9
$DIMASO
 70
     0
  9
$DIMSHO
 70
     0
  9
$DIMPOST
  1

  9
$DIMAPOST
  1

  9
$DIMALT
 70
     0
  9
$DIMALTD
 70
     2
  9
$DIMALTF
 40
25.399999999999999
  9
$DIMLFAC
 40
1.0
  9
$DIMTOFL
 70
     0
  9
$DIMTVP
 40
1.6000000000000001
  9
$DIMTIX
 70
     1
  9
$DIMSOXD
 70
     0
  9
$DIMSAH
 70
     0
  9
$DIMBLK1
  1

  9
$DIMBLK2
  1

  9
$DIMSTYLE
  2
STANDARD
  9
$DIMCLRD
 70
     0
  9
$DIMCLRE
 70
     0
  9
$DIMCLRT
 70
     0
  9
$DIMTFAC
 40
1.0
  9
$DIMGAP
 40
0.09
  9
$LUNITS
 70
     2
  9
$LUPREC
 70
     4
  9
$SKETCHINC
 40
0.1
  9
$FILLETRAD
 40
1.0
  9
$AUNITS
 70
     0
  9
$AUPREC
 70
     0
  9
$MENU
  1
E:\r13\win\SUPPORT\ACAD
  9
$ELEVATION
 40
0.0
  9
$PELEVATION
 40
0.0
  9
$THICKNESS
 40
0.0
  9
$LIMCHECK
 70
     0
  9
$BLIPMODE
 70
     0
  9
$CHAMFERA
 40
0.0
  9
$CHAMFERB
 40
0.0
  9
$SKPOLY
 70
     0
  9
$TDCREATE
 40
2449840.6143865739
  9
$TDUPDATE
 40
2457172.498882303
  9
$TDINDWG
 40
0.2645479398
  9
$TDUSRTIMER
 40
0.2645479398
  9
$USRTIMER
 70
     1
  9
$ANGBASE
 50
0.0
  9
$ANGDIR
 70
     0
  9
$PDMODE
 70
     0
  9
$PDSIZE
 40
0.0
  9
$PLINEWID
 40
0.0
  9
$COORDS
 70
     1
  9
$SPLFRAME
 70
     0
  9
$SPLINETYPE
 70
     6
  9
$SPLINESEGS
 70
     8
  9
$ATTDIA
 70
     0
  9
$ATTREQ
 70
     1
  9
$HANDLING
 70
     1
  9
$HANDSEED
  5
18A2
  9
$SURFTAB1
 70
     6
  9
$SURFTAB2
 70
     6
  9
$SURFTYPE
 70
     6
  9
$SURFU
 70
     6
  9
$SURFV
 70
     6
  9
$UCSNAME
  2

  9
$UCSORG
 10
0.0
 20
0.0
 30
0.0
  9
$UCSXDIR
 10
1.0
 20
0.0
 30
0.0
  9
$UCSYDIR
 10
0.0
 20
1.0
 30
0.0
  9
$PUCSNAME
  2

  9
$PUCSORG
 10
0.0
 20
0.0
 30
0.0
  9
$PUCSXDIR
 10
1.0
 20
0.0
 30
0.0
  9
$PUCSYDIR
 10
0.0
 20
1.0
 30
0.0
  9
$USERI1
 70
     0
  9
$USERI2
 70
     1
  9
$USERI3
 70
     1
  9
$USERI4
 70
     0
  9
$USERI5
 70
     0
  9
$USERR1
 40
0.0
  9
$USERR2
 40
0.0
  9
$USERR3
 40
0.0
  9
$USERR4
 40
0.0
  9
$USERR5
 40
0.0
  9
$WORLDVIEW
 70
     1
  9
$SHADEDGE
 70
     3
  9
$SHADEDIF
 70
    70
  9
$TILEMODE
 70
     1
  9
$MAXACTVP
 70
    16
  9
$PLIMCHECK
 70
     0
  9
$PEXTMIN
 10
1.0000000000000000E+020
 20
1.0000000000000000E+020
 30
1.0000000000000000E+020
  9
$PEXTMAX
 10
-1.0000000000000000E+020
 20
-1.0000000000000000E+020
 30
-1.0000000000000000E+020
  9
$PLIMMIN
 10
0.0
 20
0.0
  9
$PLIMMAX
 10
12.0
 20
9.0
  9
$UNITMODE
 70
     0
  9
$VISRETAIN
 70
     0
  9
$PLINEGEN
 70
     0
  9
$PSLTSCALE
 70
     0
  0
ENDSEC
  0
SECTION
  2
TABLES
  0
TABLE
  2
VPORT
 70
     1
  0
VPORT
  2
*ACTIVE
 70
     0
 10
0.0
 20
0.0
 11
1.0
 21
1.0
 12
65.774552295426275
 22
26.233996236440358
 13
0.0
 23
0.0
 14
5.0
 24
5.0
 15
5.0
 25
5.0
 16
0.0
 26
0.0
 36
1.0
 17
0.0
 27
0.0
 37
0.0
 40
55.923045846059523
 41
2.6019575856443709
 42
50.0
 43
0.0
 44
0.0
 50
0.0
 51
0.0
 71
     0
 72
   100
 73
     1
 74
     0
 75
     0
 76
     0
 77
     0
 78
     0
  0
ENDTAB
  0
TABLE
  2
LTYPE
 70
     4
  0
LTYPE
  2
CONTINUOUS
 70
     0
  3
Solid Line
 72
    65
 73
     0
 40
0.0
  0
LTYPE
  2
CENTER
 70
     0
  3
____ _ ____ _ ____ _ ____ _ ____ _ ____ _ ____
 72
    65
 73
     4
 40
2.0
 49
1.25
 49
-0.25
 49
0.25
 49
-0.25
  0
LTYPE
  2
HIDDEN
 70
     0
  3
_ _ _ _ _ _ _ _ _ _ _ _ _ _ _ _ _ _ _ _ _ _ _
 72
    65
 73
     2
 40
0.375
 49
0.25
 49
-0.125
  0
LTYPE
  2
PHANTOM2
 70
     0
  3
___ _ _ ___ _ _ ___ _ _ ___ _ _
 72
    65
 73
     6
 40
1.25
 49
0.625
 49
-0.125
 49
0.125
 49
-0.125
 49
0.125
 49
-0.125
  0
ENDTAB
  0
TABLE
  2
LAYER
 70
     4
  0
LAYER
  2
0
 70
     0
 62
     7
  6
CONTINUOUS
  0
LAYER
  2
1
 70
     0
 62
     1
  6
CENTER
  0
LAYER
  2
3
 70
     0
 62
     3
  6
CONTINUOUS
  0
LAYER
  2
2
 70
     0
 62
     2
  6
HIDDEN
  0
ENDTAB
  0
TABLE
  2
STYLE
 70
     2
  0
STYLE
  2
STANDARD
 70
     0
 40
0.0
 41
1.0
 50
0.0
 71
     0
 42
4.0
  3
TXT
  4
BIGFONT
  0
STYLE
  2
STANDARD1
 70
     0
 40
0.0
 41
1.0
 50
0.0
 71
     0
 42
3.0
  3
txt
  4

  0
ENDTAB
  0
TABLE
  2
VIEW
 70
     1
  0
VIEW
  2
ALL
 70
     0
 40
179.66152299999999
 10
141.903918
 20
89.830760999999995
 41
0.0
 11
0.0
 21
0.0
 31
1.0
 12
0.0
 22
0.0
 32
0.0
 42
0.0
 43
0.0
 44
0.0
 50
0.0
 71
     0
  0
ENDTAB
  0
TABLE
  2
UCS
 70
     0
  0
ENDTAB
  0
TABLE
  2
APPID
 70
     5
  0
APPID
  2
ACAD
 70
     0
  0
APPID
  2
DCO15
 70
     0
  0
APPID
  2
ACAD_MLEADERVER
 70
     0
  0
APPID
  2
ACAD_NAV_VCDISPLAY
 70
     0
  0
APPID
  2
ACAD_EXEMPT_FROM_CAD_STANDARDS
 70
     0
  0
ENDTAB
  0
TABLE
  2
DIMSTYLE
 70
     1
  0
DIMSTYLE
  2
STANDARD
 70
     0
  3

  4

  5

  6

  7

 40
1.0
 41
0.18
 42
0.0625
 43
0.38
 44
0.18
 45
0.0
 46
0.0
 47
0.0
 48
0.0
140
0.18
141
0.09
142
0.0
143
25.399999999999999
144
1.0
145
0.0
146
1.0
147
0.09
 71
     0
 72
     0
 73
     1
 74
     1
 75
     0
 76
     0
 77
     0
 78
     0
170
     0
171
     2
172
     0
173
     0
174
     0
175
     0
176
     0
177
     0
178
     0
  0
ENDTAB
  0
ENDSEC
  0
SECTION
  2
BLOCKS
  0
BLOCK
  8
0
  2
$MODEL_SPACE
 70
     0
 10
0.0
 20
0.0
 30
0.0
  3
$MODEL_SPACE
  1

  0
ENDBLK
  5
1BD
  8
0
  0
BLOCK
 67
     1
  8
0
  2
$PAPER_SPACE
 70
     0
 10
0.0
 20
0.0
 30
0.0
  3
$PAPER_SPACE
  1

  0
ENDBLK
  5
1BB
 67
     1
  8
0
  0
ENDSEC
  0
SECTION
  2
ENTITIES
  0
TEXT
  5
14AC
  8
0
 62
     3
 10
0.0
 20
0.0
 30
0.0
 40
5.0
  1
BSRC8X25-SUS
  7
STANDARD1
  0
LINE
  5
1599
  8
0
 10
65.281546641620437
 20
43.443176118554319
 30
0.0
 11
66.048546641620433
 21
44.210176118554322
 31
0.0
  0
LINE
  5
159A
  8
0
 10
66.048546641620433
 20
50.676176118454322
 30
0.0
 11
65.281546641620437
 21
51.443176118454318
 31
0.0
  0
LINE
  5
159B
  8
0
 10
43.448546641620439
 20
51.443176118454318
 30
0.0
 11
42.448546641720419
 21
50.443176118454318
 31
0.0
  0
LINE
  5
159C
  8
0
 10
42.448546641720419
 20
44.443176118554312
 30
0.0
 11
43.448546641620439
 21
43.443176118554319
 31
0.0
  0
LINE
  5
159D
  8
0
 10
43.448546641620439
 20
43.443176118454318
 30
0.0
 11
65.281546641620437
 21
43.443176118454318
 31
0.0
  0
LINE
  5
159E
  8
0
 10
65.281546641620437
 20
51.443176118454318
 30
0.0
 11
43.448546641620439
 21
51.443176118454318
 31
0.0
  0
LINE
  5
159F
  8
0
 10
66.048546641620433
 20
44.343176118454309
 30
0.0
 11
67.048546641620433
 21
44.343176118454309
 31
0.0
  0
LINE
  5
15A0
  8
0
 10
67.048546641620433
 20
50.543176118454312
 30
0.0
 11
66.048546641620433
 21
50.543176118454312
 31
0.0
  0
ARC
  5
15A1
  8
0
 10
65.898546641620428
 20
47.443176118454311
 30
0.0
 40
2.7500000000000111
 50
294.71985118290007
 51
65.280148817099828
  0
LINE
  5
15A3
  8
0
 10
66.048546641620433
 20
44.210176118554322
 30
0.0
 11
66.048546641620433
 21
50.676176118454322
 31
0.0
  0
LINE
  5
15A4
  8
0
 10
65.281546641620437
 20
43.443176118554319
 30
0.0
 11
65.281546641620437
 21
51.443176118454318
 31
0.0
  0
LINE
  5
15A5
  8
0
 10
43.448546641620439
 20
51.443176118454318
 30
0.0
 11
43.448546641620439
 21
43.443176118554319
 31
0.0
  0
LINE
  5
15A6
  8
0
 10
42.448546641720419
 20
50.443176118454318
 30
0.0
 11
42.448546641720419
 21
44.443176118554312
 31
0.0
  0
LINE
  5
15A8
  8
0
 10
67.048546641620433
 20
44.343176118454309
 30
0.0
 11
67.048546641620433
 21
50.543176118454312
 31
0.0
  0
LINE
  5
15B1
  8
2
 10
45.448546641620439
 20
48.597876656854311
 30
0.0
 11
42.448546641620432
 21
48.597876656854311
 31
0.0
  0
LINE
  5
15B3
  8
2
 10
45.448546641620439
 20
46.288475580154312
 30
0.0
 11
42.448546641620432
 21
46.288475580154312
 31
0.0
  0
LINE
  5
15B5
  8
2
 10
45.448546641620439
 20
49.752577195254311
 30
0.0
 11
45.448546641620439
 21
45.133775041754319
 31
0.0
  0
LINE
  5
15B8
  8
2
 10
45.448546641620439
 20
45.133775041754319
 30
0.0
 11
42.448546641620432
 21
45.133775041754319
 31
0.0
  0
LINE
  5
15B9
  8
2
 10
45.448546641620439
 20
49.752577195254318
 30
0.0
 11
42.448546641620432
 21
49.752577195254318
 31
0.0
  0
LINE
  5
15C4
  8
2
 10
45.448546641620439
 20
45.443176118454311
 30
0.0
 11
47.126745904120419
 21
47.443176118454311
 31
0.0
  0
LINE
  5
15C5
  8
2
 10
47.126745904120419
 20
47.443176118554312
 30
0.0
 11
45.448546641620439
 21
49.443176118554312
 31
0.0
  0
LINE
  5
15C9
  8
0
 10
65.281546641620423
 20
21.49783356362121
 30
0.0
 11
66.048546641620419
 21
22.26483356362121
 31
0.0
  0
LINE
  5
15CA
  8
0
 10
66.048546641620419
 20
28.73083356352122
 30
0.0
 11
65.281546641620423
 21
29.497833563521208
 31
0.0
  0
LINE
  5
15CB
  8
0
 10
43.448546641620432
 20
29.497833563521208
 30
0.0
 11
42.448546641720412
 21
28.497833563521208
 31
0.0
  0
LINE
  5
15CC
  8
0
 10
42.448546641720412
 20
22.49783356362121
 30
0.0
 11
43.448546641620432
 21
21.49783356362121
 31
0.0
  0
LINE
  5
15CD
  8
0
 10
43.448546641620432
 20
21.497833563521208
 30
0.0
 11
65.281546641620423
 21
21.497833563521208
 31
0.0
  0
LINE
  5
15CE
  8
0
 10
65.281546641620423
 20
29.497833563521208
 30
0.0
 11
43.448546641620432
 21
29.497833563521208
 31
0.0
  0
LINE
  5
15CF
  8
0
 10
66.048546641620419
 20
22.397833563521221
 30
0.0
 11
67.048546641620405
 21
22.397833563521221
 31
0.0
  0
LINE
  5
15D0
  8
0
 10
67.048546641620405
 20
28.59783356352121
 30
0.0
 11
66.048546641620419
 21
28.59783356352121
 31
0.0
  0
ARC
  5
15D1
  8
0
 10
65.898546641620413
 20
25.497833563521208
 30
0.0
 40
2.7500000000000111
 50
294.71985118290007
 51
65.280148817099828
  0
LINE
  5
15D2
  8
0
 10
66.048546641620419
 20
22.26483356362121
 30
0.0
 11
66.048546641620419
 21
28.73083356352122
 31
0.0
  0
LINE
  5
15D3
  8
0
 10
65.281546641620423
 20
21.497833563521208
 30
0.0
 11
65.281546641620423
 21
29.497833563521208
 31
0.0
  0
LINE
  5
15D4
  8
0
 10
43.448546641620432
 20
29.497833563521208
 30
0.0
 11
43.448546641620432
 21
21.497833563521208
 31
0.0
  0
LINE
  5
15D5
  8
0
 10
42.448546641720412
 20
28.497833563521208
 30
0.0
 11
42.448546641720412
 21
22.49783356362121
 31
0.0
  0
LINE
  5
15D6
  8
0
 10
67.048546641620405
 20
22.397833563521221
 30
0.0
 11
67.048546641620405
 21
28.59783356352121
 31
0.0
  0
LINE
  5
15DD
  8
2
 10
45.448546641620432
 20
25.497833563521208
 30
0.0
 11
42.448546641620432
 21
25.497833563521208
 31
0.0
  0
LINE
  5
15DE
  8
2
 10
45.448546641620432
 20
27.497833563521208
 30
0.0
 11
45.448546641620432
 21
23.497833563521208
 31
0.0
  0
LINE
  5
15E0
  8
2
 10
45.448546641620432
 20
23.497833563521208
 30
0.0
 11
42.448546641620432
 21
23.497833563521208
 31
0.0
  0
LINE
  5
15E1
  8
2
 10
45.448546641620432
 20
27.497833563521208
 30
0.0
 11
42.448546641620432
 21
27.497833563521208
 31
0.0
  0
LINE
  5
15ED
  8
2
 10
45.448546641620432
 20
23.497833563521208
 30
0.0
 11
47.126745904020403
 21
25.497833563521208
 31
0.0
  0
LINE
  5
15EE
  8
2
 10
47.126745904120412
 20
25.497833563521208
 30
0.0
 11
45.448546641620432
 21
27.49783356362121
 31
0.0
  0
CIRCLE
  5
15F3
  8
0
 10
90.648546641670436
 20
47.443176118504311
 30
0.0
 40
3.099999999999993
  0
CIRCLE
  5
15F5
  8
0
 10
90.648546641670436
 20
47.443176118504311
 30
0.0
 40
4.0
  0
CIRCLE
  5
160C
  8
0
 10
20.448546641670429
 20
47.443176118504311
 30
0.0
 40
2.9999999999859028
  0
LINE
  5
160D
  8
0
 10
20.448546641670429
 20
49.752577195304312
 30
0.0
 11
18.448546641670429
 21
48.597876656904297
 31
0.0
  0
LINE
  5
160E
  8
0
 10
18.448546641670429
 20
48.597876656904297
 30
0.0
 11
18.448546641670429
 21
46.288475580204313
 31
0.0
  0
LINE
  5
160F
  8
0
 10
18.448546641670429
 20
46.288475580204313
 30
0.0
 11
20.448546641670429
 21
45.133775041804313
 31
0.0
  0
LINE
  5
1610
  8
0
 10
20.448546641670429
 20
45.133775041804313
 30
0.0
 11
22.448546641670429
 21
46.288475580204313
 31
0.0
  0
LINE
  5
1611
  8
0
 10
22.448546641670429
 20
46.288475580204313
 30
0.0
 11
22.448546641670429
 21
48.597876656904297
 31
0.0
  0
LINE
  5
1612
  8
0
 10
22.448546641670429
 20
48.597876656904297
 30
0.0
 11
20.448546641670429
 21
49.752577195304312
 31
0.0
  0
CIRCLE
  5
1613
  8
0
 10
20.448546641670429
 20
47.443176118504311
 30
0.0
 40
4.0
  0
CIRCLE
  5
162A
  8
0
 10
90.648546641670436
 20
47.443176118504311
 30
0.0
 40
2.4979991993595831
  0
ARC
  5
162B
  8
2
 10
65.898546641620428
 20
47.443176118454311
 30
0.0
 40
2.7500000000000142
 50
65.280148817089582
 51
294.71985118291047
  0
ARC
  5
162C
  8
2
 10
65.898546641620413
 20
25.497833563521208
 30
0.0
 40
2.7500000000000142
 50
65.280148817089625
 51
294.71985118291047
  0
LINE
  5
162D
  8
1
 10
20.448546641670429
 20
40.943176118504297
 30
0.0
 11
20.448546641670429
 21
53.943176118504311
 31
0.0
  0
LINE
  5
162E
  8
1
 10
13.948546641670429
 20
47.443176118504311
 30
0.0
 11
26.948546641670429
 21
47.443176118504311
 31
0.0
  0
LINE
  5
1630
  8
1
 10
90.648546641670436
 20
40.943176118504297
 30
0.0
 11
90.648546641670436
 21
53.943176118504311
 31
0.0
  0
LINE
  5
1631
  8
1
 10
84.148546641670436
 20
47.443176118504311
 30
0.0
 11
97.148546641670436
 21
47.443176118504311
 31
0.0
  0
CIRCLE
  5
1633
  8
3
 10
20.448546641670429
 20
47.443176118504311
 30
0.0
 40
3.3235000000000801
  0
CIRCLE
  5
1634
  8
3
 10
90.648546641670436
 20
47.443176118504311
 30
0.0
 40
3.3235000000000801
  0
LINE
  5
1635
  8
3
 10
42.772046641738143
 20
50.766676118504392
 30
0.0
 11
65.958046641570348
 21
50.766676118504392
 31
0.0
  0
LINE
  5
1636
  8
3
 10
42.772046641738278
 20
44.11967611850411
 30
0.0
 11
65.958046641570235
 21
44.11967611850411
 31
0.0
  0
LINE
  5
163C
  8
1
 10
39.948546641720426
 20
47.443176118504311
 30
0.0
 11
71.148546641620442
 21
47.443176118504311
 31
0.0
  0
LINE
  5
163D
  8
1
 10
65.898546641620428
 20
52.693176118454332
 30
0.0
 11
65.898546641620428
 21
42.193176118454303
 31
0.0
  0
LINE
  5
163E
  8
1
 10
39.948546641720419
 20
25.49783356357122
 30
0.0
 11
71.148546641620442
 21
25.49783356357122
 31
0.0
  0
LINE
  5
163F
  8
1
 10
65.898546641620413
 20
30.74783356352124
 30
0.0
 11
65.898546641620413
 21
20.247833563521208
 31
0.0
  0
LINE
  5
1640
  8
3
 10
42.772046641738129
 20
28.821333563571301
 30
0.0
 11
65.958046641570348
 21
28.821333563571301
 31
0.0
  0
LINE
  5
1641
  8
3
 10
42.772046641738271
 20
22.174333563571029
 30
0.0
 11
65.958046641570235
 21
22.174333563571029
 31
0.0
  0
ENDSEC
  0
EOF
