  0
SECTION
  2
HEADER
  9
$ACADVER
  1
AC1009
  9
$INSBASE
 10
0.0
 20
0.0
 30
0.0
  9
$EXTMIN
 10
0.0
 20
-2.960436562073669
 30
0.0
  9
$EXTMAX
 10
263.05210199999999
 20
157.97617
 30
0.0
  9
$LIMMIN
 10
0.0
 20
0.0
  9
$LIMMAX
 10
275.0
 20
175.0
  9
$ORTHOMODE
 70
     1
  9
$REGENMODE
 70
     1
  9
$FILLMODE
 70
     1
  9
$QTEXTMODE
 70
     0
  9
$MIRRTEXT
 70
     0
  9
$DRAGMODE
 70
     2
  9
$LTSCALE
 40
10.0
  9
$OSMODE
 70
  3071
  9
$ATTMODE
 70
     1
  9
$TEXTSIZE
 40
0.2
  9
$TRACEWID
 40
0.05
  9
$TEXTSTYLE
  7
STANDARD
  9
$CLAYER
  8
0
  9
$CELTYPE
  6
BYLAYER
  9
$CECOLOR
 62
   256
  9
$DIMSCALE
 40
1.0
  9
$DIMASZ
 40
3.0
  9
$DIMEXO
 40
2.0
  9
$DIMDLI
 40
10.0
  9
$DIMRND
 40
0.0
  9
$DIMDLE
 40
0.0
  9
$DIMEXE
 40
2.0
  9
$DIMTP
 40
0.0
  9
$DIMTM
 40
0.0
  9
$DIMTXT
 40
3.2000000000000002
  9
$DIMCEN
 40
0.0
  9
$DIMTSZ
 40
0.0
  9
$DIMTOL
 70
     0
  9
$DIMLIM
 70
     0
  9
$DIMTIH
 70
     0
  9
$DIMTOH
 70
     0
  9
$DIMSE1
 70
     0
  9
$DIMSE2
 70
     0
  9
$DIMTAD
 70
     1
  9
$DIMZIN
 70
     0
  9
$DIMBLK
  1

  9
$DIMASO
 70
     0
  9
$DIMSHO
 70
     0
  9
$DIMPOST
  1

  9
$DIMAPOST
  1

  9
$DIMALT
 70
     0
  9
$DIMALTD
 70
     2
  9
$DIMALTF
 40
25.399999999999999
  9
$DIMLFAC
 40
1.0
  9
$DIMTOFL
 70
     1
  9
$DIMTVP
 40
1.6000000000000001
  9
$DIMTIX
 70
     1
  9
$DIMSOXD
 70
     0
  9
$DIMSAH
 70
     0
  9
$DIMBLK1
  1

  9
$DIMBLK2
  1

  9
$DIMSTYLE
  2
STANDARD
  9
$DIMCLRD
 70
     0
  9
$DIMCLRE
 70
     0
  9
$DIMCLRT
 70
     0
  9
$DIMTFAC
 40
1.0
  9
$DIMGAP
 40
0.09
  9
$LUNITS
 70
     2
  9
$LUPREC
 70
     4
  9
$SKETCHINC
 40
0.1
  9
$FILLETRAD
 40
0.0
  9
$AUNITS
 70
     0
  9
$AUPREC
 70
     4
  9
$MENU
  1
E:\r13\win\SUPPORT\ACAD
  9
$ELEVATION
 40
0.0
  9
$PELEVATION
 40
0.0
  9
$THICKNESS
 40
0.0
  9
$LIMCHECK
 70
     0
  9
$BLIPMODE
 70
     0
  9
$CHAMFERA
 40
0.0
  9
$CHAMFERB
 40
0.0
  9
$SKPOLY
 70
     0
  9
$TDCREATE
 40
2449840.6266203709
  9
$TDUPDATE
 40
2456598.4019117709
  9
$TDINDWG
 40
0.0000802778
  9
$TDUSRTIMER
 40
0.0000802778
  9
$USRTIMER
 70
     1
  9
$ANGBASE
 50
0.0
  9
$ANGDIR
 70
     0
  9
$PDMODE
 70
    35
  9
$PDSIZE
 40
0.0
  9
$PLINEWID
 40
0.0
  9
$COORDS
 70
     1
  9
$SPLFRAME
 70
     0
  9
$SPLINETYPE
 70
     6
  9
$SPLINESEGS
 70
     8
  9
$ATTDIA
 70
     0
  9
$ATTREQ
 70
     1
  9
$HANDLING
 70
     1
  9
$HANDSEED
  5
201
  9
$SURFTAB1
 70
     6
  9
$SURFTAB2
 70
     6
  9
$SURFTYPE
 70
     6
  9
$SURFU
 70
     6
  9
$SURFV
 70
     6
  9
$UCSNAME
  2

  9
$UCSORG
 10
0.0
 20
0.0
 30
0.0
  9
$UCSXDIR
 10
1.0
 20
0.0
 30
0.0
  9
$UCSYDIR
 10
0.0
 20
1.0
 30
0.0
  9
$PUCSNAME
  2

  9
$PUCSORG
 10
0.0
 20
0.0
 30
0.0
  9
$PUCSXDIR
 10
1.0
 20
0.0
 30
0.0
  9
$PUCSYDIR
 10
0.0
 20
1.0
 30
0.0
  9
$USERI1
 70
     0
  9
$USERI2
 70
     1
  9
$USERI3
 70
     0
  9
$USERI4
 70
     0
  9
$USERI5
 70
     0
  9
$USERR1
 40
0.0
  9
$USERR2
 40
0.0
  9
$USERR3
 40
0.0
  9
$USERR4
 40
0.0
  9
$USERR5
 40
0.0
  9
$WORLDVIEW
 70
     1
  9
$SHADEDGE
 70
     3
  9
$SHADEDIF
 70
    70
  9
$TILEMODE
 70
     1
  9
$MAXACTVP
 70
    16
  9
$PLIMCHECK
 70
     0
  9
$PEXTMIN
 10
1.0000000000000000E+020
 20
1.0000000000000000E+020
 30
1.0000000000000000E+020
  9
$PEXTMAX
 10
-1.0000000000000000E+020
 20
-1.0000000000000000E+020
 30
-1.0000000000000000E+020
  9
$PLIMMIN
 10
0.0
 20
0.0
  9
$PLIMMAX
 10
12.0
 20
9.0
  9
$UNITMODE
 70
     0
  9
$VISRETAIN
 70
     0
  9
$PLINEGEN
 70
     0
  9
$PSLTSCALE
 70
     0
  0
ENDSEC
  0
SECTION
  2
TABLES
  0
TABLE
  2
VPORT
 70
     1
  0
VPORT
  2
*ACTIVE
 70
     0
 10
0.0
 20
0.0
 11
1.0
 21
1.0
 12
142.4271429343581
 22
86.015320026217182
 13
0.0
 23
0.0
 14
10.0
 24
10.0
 15
10.0
 25
10.0
 16
0.0
 26
0.0
 36
1.0
 17
0.0
 27
0.0
 37
0.0
 40
179.56549770494291
 41
1.831871345029239
 42
50.0
 43
0.0
 44
0.0
 50
0.0
 51
0.0
 71
     0
 72
   500
 73
     1
 74
     0
 75
     0
 76
     0
 77
     0
 78
     2
  0
ENDTAB
  0
TABLE
  2
LTYPE
 70
     3
  0
LTYPE
  2
CONTINUOUS
 70
     0
  3
Solid Line
 72
    65
 73
     0
 40
0.0
  0
LTYPE
  2
CENTER
 70
     0
  3
____ _ ____ _ ____ _ ____ _ ____ _ ____ _ ____
 72
    65
 73
     4
 40
2.0
 49
1.25
 49
-0.25
 49
0.25
 49
-0.25
  0
LTYPE
  2
PHANTOM2
 70
     0
  3
___ _ _ ___ _ _ ___ _ _ ___ _ _
 72
    65
 73
     6
 40
1.25
 49
0.625
 49
-0.125
 49
0.125
 49
-0.125
 49
0.125
 49
-0.125
  0
ENDTAB
  0
TABLE
  2
LAYER
 70
     4
  0
LAYER
  2
0
 70
     0
 62
     7
  6
CONTINUOUS
  0
LAYER
  2
1
 70
     0
 62
     1
  6
CENTER
  0
LAYER
  2
3
 70
     0
 62
     3
  6
CONTINUOUS
  0
LAYER
  2
4
 70
     0
 62
     4
  6
CONTINUOUS
  0
ENDTAB
  0
TABLE
  2
STYLE
 70
     2
  0
STYLE
  2
STANDARD
 70
     0
 40
0.0
 41
1.0
 50
0.0
 71
     0
 42
0.2
  3
ROMANS
  4
BIGFONT
  0
STYLE
  2
STANDARD1
 70
     0
 40
0.0
 41
1.0
 50
0.0
 71
     0
 42
3.0
  3
txt
  4

  0
ENDTAB
  0
TABLE
  2
VIEW
 70
     1
  0
VIEW
  2
ALL
 70
     0
 40
175.0
 10
143.23529411764699
 20
87.5
 41
0.0
 11
0.0
 21
0.0
 31
1.0
 12
0.0
 22
0.0
 32
0.0
 42
0.0
 43
0.0
 44
0.0
 50
0.0
 71
     0
  0
ENDTAB
  0
TABLE
  2
UCS
 70
     0
  0
ENDTAB
  0
TABLE
  2
APPID
 70
     3
  0
APPID
  2
ACAD
 70
     0
  0
APPID
  2
ACAD_MLEADERVER
 70
     0
  0
APPID
  2
ACAD_NAV_VCDISPLAY
 70
     0
  0
ENDTAB
  0
TABLE
  2
DIMSTYLE
 70
     1
  0
DIMSTYLE
  2
STANDARD
 70
     0
  3

  4

  5

  6

  7

 40
1.0
 41
0.18
 42
0.0625
 43
0.38
 44
0.18
 45
0.0
 46
0.0
 47
0.0
 48
0.0
140
0.18
141
0.09
142
0.0
143
25.399999999999999
144
1.0
145
0.0
146
1.0
147
0.09
 71
     0
 72
     0
 73
     1
 74
     1
 75
     0
 76
     0
 77
     0
 78
     0
170
     0
171
     2
172
     0
173
     0
174
     0
175
     0
176
     0
177
     0
178
     0
  0
ENDTAB
  0
ENDSEC
  0
SECTION
  2
BLOCKS
  0
BLOCK
  8
0
  2
$MODEL_SPACE
 70
     0
 10
0.0
 20
0.0
 30
0.0
  3
$MODEL_SPACE
  1

  0
ENDBLK
  5
B5
  8
0
  0
BLOCK
 67
     1
  8
0
  2
$PAPER_SPACE
 70
     0
 10
0.0
 20
0.0
 30
0.0
  3
$PAPER_SPACE
  1

  0
ENDBLK
  5
B3
 67
     1
  8
0
  0
BLOCK
  8
0
  2
STDGX5
 70
     0
 10
0.0
 20
0.0
 30
0.0
  3
STDGX5
  1

  0
ENDBLK
  5
3B
  8
0
  0
ENDSEC
  0
SECTION
  2
ENTITIES
  0
INSERT
  5
45
  8
0
  2
STDGX5
 10
0.0
 20
0.0
 30
0.0
  0
INSERT
  5
46
  8
4
  2
STDGX5
 10
0.0
 20
0.0
 30
0.0
  0
LINE
  5
47
  8
0
 10
239.05210199999999
 20
153.47617
 30
0.0
 11
255.05210199999999
 21
153.47617
 31
0.0
  0
LINE
  5
48
  8
0
 10
239.05210199999999
 20
149.933683
 30
0.0
 11
255.05210199999999
 21
149.933683
 31
0.0
  0
LINE
  5
49
  8
0
 10
239.05210199999999
 20
97.01865699999999
 30
0.0
 11
255.05210199999999
 21
97.01865699999999
 31
0.0
  0
CIRCLE
  5
4A
  8
0
 10
146.2773
 20
123.47617
 30
0.0
 40
10.0
  0
CIRCLE
  5
4B
  8
0
 10
146.2773
 20
123.47617
 30
0.0
 40
21.0
  0
ARC
  5
4C
  8
0
 10
147.5273
 20
123.47617
 30
0.0
 40
19.5
 50
35.00076
 51
324.99923999999999
  0
LINE
  5
4D
  8
0
 10
161.902839
 20
133.623513
 30
0.0
 11
163.50061600000001
 21
134.66112200000001
 31
0.0
  0
LINE
  5
50
  8
0
 10
164.09451899999999
 20
128.92344
 30
0.0
 11
166.3597
 21
129.61597599999999
 31
0.0
  0
CIRCLE
  5
51
  8
0
 10
162.99867900000001
 20
131.27347700000001
 30
0.0
 40
1.25
  0
ARC
  5
52
  8
0
 10
163.615769
 20
131.56123099999999
 30
0.0
 40
2.6808839999999989
 50
129.71300500000001
 51
280.28699499999999
  0
ARC
  5
53
  8
0
 10
163.615769
 20
115.391109
 30
0.0
 40
2.6808839999999989
 50
79.71300500000001
 51
230.28699499999999
  0
CIRCLE
  5
54
  8
0
 10
162.99867900000001
 20
115.67886300000001
 30
0.0
 40
1.25
  0
LINE
  5
55
  8
0
 10
164.09451899999999
 20
118.02889999999999
 30
0.0
 11
166.3597
 21
117.336364
 31
0.0
  0
LINE
  5
56
  8
0
 10
161.902839
 20
113.328827
 30
0.0
 11
163.50061600000001
 21
112.291218
 31
0.0
  0
ARC
  5
57
  8
0
 10
255.25210200000001
 20
148.67617000000001
 30
0.0
 40
0.2
 50
180.0
 51
270.0
  0
ARC
  5
58
  8
0
 10
255.25210200000001
 20
98.276169999999993
 30
0.0
 40
0.2
 50
90.0
 51
180.0
  0
ARC
  5
59
  8
0
 10
146.2773
 20
123.47617
 30
0.0
 40
40.0
 50
221.40962200000001
 51
228.59037799999999
  0
ARC
  5
5A
  8
0
 10
146.2773
 20
123.47617
 30
0.0
 40
40.0
 50
131.40962200000001
 51
138.59037799999999
  0
ARC
  5
5B
  8
0
 10
146.2773
 20
123.47617
 30
0.0
 40
40.0
 50
41.409621999999992
 51
48.590378000000001
  0
ARC
  5
5C
  8
0
 10
146.2773
 20
123.47617
 30
0.0
 40
40.0
 50
311.40962200000001
 51
318.59037799999999
  0
LINE
  5
5D
  8
0
 10
176.2773
 20
149.933683
 30
0.0
 11
176.2773
 21
97.01865699999999
 31
0.0
  0
LINE
  5
5E
  8
1
 10
176.32933800000001
 20
153.52820800000001
 30
0.0
 11
161.480096
 21
138.678966
 31
0.0
  0
LINE
  5
5F
  8
0
 10
119.81978700000001
 20
153.47617
 30
0.0
 11
172.734813
 21
153.47617
 31
0.0
  0
LINE
  5
60
  8
0
 10
116.2773
 20
149.933683
 30
0.0
 11
116.2773
 21
97.01865699999999
 31
0.0
  0
LINE
  5
61
  8
0
 10
119.81978700000001
 20
93.476169999999996
 30
0.0
 11
172.734813
 21
93.476169999999996
 31
0.0
  0
CIRCLE
  5
62
  8
1
 10
146.2773
 20
123.47617
 30
0.0
 40
32.0
  0
LINE
  5
63
  8
1
 10
116.225262
 20
93.424132000000014
 30
0.0
 11
131.07450399999999
 21
108.273374
 31
0.0
  0
CIRCLE
  5
64
  8
0
 10
123.649883
 20
100.848753
 30
0.0
 40
5.5
  0
CIRCLE
  5
65
  8
3
 10
123.649883
 20
100.848753
 30
0.0
 40
4.0
  0
CIRCLE
  5
66
  8
0
 10
123.649883
 20
100.848753
 30
0.0
 40
3.375
  0
CIRCLE
  5
67
  8
0
 10
168.90471700000001
 20
100.848753
 30
0.0
 40
3.375
  0
CIRCLE
  5
68
  8
3
 10
168.90471700000001
 20
100.848753
 30
0.0
 40
4.0
  0
CIRCLE
  5
69
  8
0
 10
168.90471700000001
 20
100.848753
 30
0.0
 40
5.5
  0
LINE
  5
6A
  8
1
 10
176.32933800000001
 20
93.424132000000014
 30
0.0
 11
161.480096
 21
108.273374
 31
0.0
  0
CIRCLE
  5
6B
  8
0
 10
168.90471700000001
 20
146.103587
 30
0.0
 40
5.5
  0
CIRCLE
  5
6C
  8
3
 10
168.90471700000001
 20
146.103587
 30
0.0
 40
4.0
  0
CIRCLE
  5
6D
  8
0
 10
168.90471700000001
 20
146.103587
 30
0.0
 40
3.375
  0
CIRCLE
  5
6E
  8
0
 10
123.649883
 20
146.103587
 30
0.0
 40
3.375
  0
CIRCLE
  5
6F
  8
3
 10
123.649883
 20
146.103587
 30
0.0
 40
4.0
  0
CIRCLE
  5
70
  8
0
 10
123.649883
 20
146.103587
 30
0.0
 40
5.5
  0
LINE
  5
71
  8
0
 10
260.05210199999999
 20
148.47617
 30
0.0
 11
255.25210200000001
 21
148.47617
 31
0.0
  0
LINE
  5
72
  8
0
 10
255.05210199999999
 20
148.67617000000001
 30
0.0
 11
255.05210199999999
 21
153.47617
 31
0.0
  0
LINE
  5
73
  8
1
 10
116.225262
 20
153.52820800000001
 30
0.0
 11
131.07450399999999
 21
138.678966
 31
0.0
  0
LINE
  5
74
  8
0
 10
255.05210199999999
 20
98.276169999999993
 30
0.0
 11
255.05210199999999
 21
93.476169999999996
 31
0.0
  0
LINE
  5
75
  8
0
 10
260.05210199999999
 20
98.476169999999996
 30
0.0
 11
255.25210200000001
 21
98.476169999999996
 31
0.0
  0
LINE
  5
76
  8
1
 10
263.05210199999999
 20
123.47617
 30
0.0
 11
234.05210199999999
 21
123.47617
 31
0.0
  0
LINE
  5
77
  8
0
 10
239.05210199999999
 20
93.476169999999996
 30
0.0
 11
255.05210199999999
 21
93.476169999999996
 31
0.0
  0
LINE
  5
78
  8
0
 10
239.05210199999999
 20
153.47617
 30
0.0
 11
239.05210199999999
 21
93.476169999999996
 31
0.0
  0
LINE
  5
79
  8
0
 10
260.05210199999999
 20
148.47617
 30
0.0
 11
260.05210199999999
 21
98.476169999999996
 31
0.0
  0
LINE
  5
7A
  8
1
 10
111.7773
 20
123.47617
 30
0.0
 11
175.7773
 21
123.47617
 31
0.0
  0
LINE
  5
7B
  8
1
 10
146.2773
 20
157.97617
 30
0.0
 11
146.2773
 21
88.976169999999996
 31
0.0
  0
LINE
  5
7D
  8
0
 10
255.05210199999999
 20
149.933683
 30
0.0
 11
255.05210199999999
 21
97.01865699999999
 31
0.0
  0
TEXT
  5
170
  8
0
 62
     3
 10
0.0
 20
0.0
 30
0.0
 40
10.0
  1
BSRN4220
  7
STANDARD1
  0
ENDSEC
  0
EOF
