  0
SECTION
  2
HEADER
  9
$ACADVER
  1
AC1009
  9
$INSBASE
 10
0.0
 20
0.0
 30
0.0
  9
$EXTMIN
 10
0.0
 20
-1.4802182810368341
 30
0.0
  9
$EXTMAX
 10
73.385147811611603
 20
50.567120528113051
 30
0.0
  9
$LIMMIN
 10
0.0
 20
0.0
  9
$LIMMAX
 10
75.0
 20
54.0
  9
$ORTHOMODE
 70
     0
  9
$REGENMODE
 70
     1
  9
$FILLMODE
 70
     1
  9
$QTEXTMODE
 70
     0
  9
$MIRRTEXT
 70
     0
  9
$DRAGMODE
 70
     2
  9
$LTSCALE
 40
2.0
  9
$OSMODE
 70
  3071
  9
$ATTMODE
 70
     1
  9
$TEXTSIZE
 40
0.2
  9
$TRACEWID
 40
0.05
  9
$TEXTSTYLE
  7
STANDARD
  9
$CLAYER
  8
0
  9
$CELTYPE
  6
BYLAYER
  9
$CECOLOR
 62
   256
  9
$DIMSCALE
 40
0.2
  9
$DIMASZ
 40
3.0
  9
$DIMEXO
 40
2.0
  9
$DIMDLI
 40
10.0
  9
$DIMRND
 40
0.0
  9
$DIMDLE
 40
0.0
  9
$DIMEXE
 40
2.0
  9
$DIMTP
 40
0.0
  9
$DIMTM
 40
0.0
  9
$DIMTXT
 40
3.2000000000000002
  9
$DIMCEN
 40
0.09
  9
$DIMTSZ
 40
0.0
  9
$DIMTOL
 70
     0
  9
$DIMLIM
 70
     0
  9
$DIMTIH
 70
     0
  9
$DIMTOH
 70
     0
  9
$DIMSE1
 70
     0
  9
$DIMSE2
 70
     0
  9
$DIMTAD
 70
     1
  9
$DIMZIN
 70
     0
  9
$DIMBLK
  1

  9
$DIMASO
 70
     1
  9
$DIMSHO
 70
     0
  9
$DIMPOST
  1

  9
$DIMAPOST
  1

  9
$DIMALT
 70
     0
  9
$DIMALTD
 70
     2
  9
$DIMALTF
 40
25.399999999999999
  9
$DIMLFAC
 40
1.0
  9
$DIMTOFL
 70
     1
  9
$DIMTVP
 40
1.6000000000000001
  9
$DIMTIX
 70
     1
  9
$DIMSOXD
 70
     0
  9
$DIMSAH
 70
     0
  9
$DIMBLK1
  1

  9
$DIMBLK2
  1

  9
$DIMSTYLE
  2
STANDARD
  9
$DIMCLRD
 70
     0
  9
$DIMCLRE
 70
     0
  9
$DIMCLRT
 70
     0
  9
$DIMTFAC
 40
1.0
  9
$DIMGAP
 40
0.09
  9
$LUNITS
 70
     2
  9
$LUPREC
 70
     4
  9
$SKETCHINC
 40
0.1
  9
$FILLETRAD
 40
0.0
  9
$AUNITS
 70
     0
  9
$AUPREC
 70
     0
  9
$MENU
  1
E:\r13\win\SUPPORT\ACAD
  9
$ELEVATION
 40
0.0
  9
$PELEVATION
 40
0.0
  9
$THICKNESS
 40
0.0
  9
$LIMCHECK
 70
     0
  9
$BLIPMODE
 70
     0
  9
$CHAMFERA
 40
0.0
  9
$CHAMFERB
 40
0.0
  9
$SKPOLY
 70
     0
  9
$TDCREATE
 40
2449840.618865741
  9
$TDUPDATE
 40
2456598.4061458101
  9
$TDINDWG
 40
0.0020543519
  9
$TDUSRTIMER
 40
0.0020543519
  9
$USRTIMER
 70
     1
  9
$ANGBASE
 50
0.0
  9
$ANGDIR
 70
     0
  9
$PDMODE
 70
     0
  9
$PDSIZE
 40
0.0
  9
$PLINEWID
 40
0.0
  9
$COORDS
 70
     1
  9
$SPLFRAME
 70
     0
  9
$SPLINETYPE
 70
     6
  9
$SPLINESEGS
 70
     8
  9
$ATTDIA
 70
     0
  9
$ATTREQ
 70
     1
  9
$HANDLING
 70
     1
  9
$HANDSEED
  5
290
  9
$SURFTAB1
 70
     6
  9
$SURFTAB2
 70
     6
  9
$SURFTYPE
 70
     6
  9
$SURFU
 70
     6
  9
$SURFV
 70
     6
  9
$UCSNAME
  2

  9
$UCSORG
 10
0.0
 20
0.0
 30
0.0
  9
$UCSXDIR
 10
1.0
 20
0.0
 30
0.0
  9
$UCSYDIR
 10
0.0
 20
1.0
 30
0.0
  9
$PUCSNAME
  2

  9
$PUCSORG
 10
0.0
 20
0.0
 30
0.0
  9
$PUCSXDIR
 10
1.0
 20
0.0
 30
0.0
  9
$PUCSYDIR
 10
0.0
 20
1.0
 30
0.0
  9
$USERI1
 70
     0
  9
$USERI2
 70
     1
  9
$USERI3
 70
     1
  9
$USERI4
 70
     0
  9
$USERI5
 70
     0
  9
$USERR1
 40
0.0
  9
$USERR2
 40
0.0
  9
$USERR3
 40
0.0
  9
$USERR4
 40
0.0
  9
$USERR5
 40
0.0
  9
$WORLDVIEW
 70
     1
  9
$SHADEDGE
 70
     3
  9
$SHADEDIF
 70
    70
  9
$TILEMODE
 70
     1
  9
$MAXACTVP
 70
    16
  9
$PLIMCHECK
 70
     0
  9
$PEXTMIN
 10
1.0000000000000000E+020
 20
1.0000000000000000E+020
 30
1.0000000000000000E+020
  9
$PEXTMAX
 10
-1.0000000000000000E+020
 20
-1.0000000000000000E+020
 30
-1.0000000000000000E+020
  9
$PLIMMIN
 10
0.0
 20
0.0
  9
$PLIMMAX
 10
12.0
 20
9.0
  9
$UNITMODE
 70
     0
  9
$VISRETAIN
 70
     0
  9
$PLINEGEN
 70
     0
  9
$PSLTSCALE
 70
     0
  0
ENDSEC
  0
SECTION
  2
TABLES
  0
TABLE
  2
VPORT
 70
     1
  0
VPORT
  2
*ACTIVE
 70
     0
 10
0.0
 20
0.0
 11
1.0
 21
1.0
 12
39.036165471588582
 22
26.259658875478959
 13
0.0
 23
0.0
 14
2.0
 24
2.0
 15
2.0
 25
2.0
 16
0.0
 26
0.0
 36
1.0
 17
0.0
 27
0.0
 37
0.0
 40
55.978266843203883
 41
1.831871345029239
 42
50.0
 43
0.0
 44
0.0
 50
0.0
 51
0.0
 71
     0
 72
   100
 73
     1
 74
     0
 75
     0
 76
     0
 77
     0
 78
     1
  0
ENDTAB
  0
TABLE
  2
LTYPE
 70
     4
  0
LTYPE
  2
CONTINUOUS
 70
     0
  3
Solid Line
 72
    65
 73
     0
 40
0.0
  0
LTYPE
  2
CENTER
 70
     0
  3
____ _ ____ _ ____ _ ____ _ ____ _ ____ _ ____
 72
    65
 73
     4
 40
2.0
 49
1.25
 49
-0.25
 49
0.25
 49
-0.25
  0
LTYPE
  2
HIDDEN
 70
     0
  3
_ _ _ _ _ _ _ _ _ _ _ _ _ _ _ _ _ _ _ _ _ _ _
 72
    65
 73
     2
 40
0.375
 49
0.25
 49
-0.125
  0
LTYPE
  2
PHANTOM2
 70
     0
  3
___ _ _ ___ _ _ ___ _ _ ___ _ _
 72
    65
 73
     6
 40
1.25
 49
0.625
 49
-0.125
 49
0.125
 49
-0.125
 49
0.125
 49
-0.125
  0
ENDTAB
  0
TABLE
  2
LAYER
 70
     4
  0
LAYER
  2
0
 70
     0
 62
     7
  6
CONTINUOUS
  0
LAYER
  2
1
 70
     0
 62
     1
  6
CENTER
  0
LAYER
  2
2
 70
     0
 62
     2
  6
HIDDEN
  0
LAYER
  2
3
 70
     0
 62
     3
  6
CONTINUOUS
  0
ENDTAB
  0
TABLE
  2
STYLE
 70
     2
  0
STYLE
  2
STANDARD
 70
     0
 40
0.0
 41
1.0
 50
0.0
 71
     0
 42
0.2
  3
TXT
  4
BIGFONT
  0
STYLE
  2
STANDARD1
 70
     0
 40
0.0
 41
1.0
 50
0.0
 71
     0
 42
3.0
  3
txt
  4

  0
ENDTAB
  0
TABLE
  2
VIEW
 70
     1
  0
VIEW
  2
ALL
 70
     0
 40
54.0
 10
44.198318999999998
 20
27.0
 41
0.0
 11
0.0
 21
0.0
 31
1.0
 12
0.0
 22
0.0
 32
0.0
 42
0.0
 43
0.0
 44
0.0
 50
0.0
 71
     0
  0
ENDTAB
  0
TABLE
  2
UCS
 70
     0
  0
ENDTAB
  0
TABLE
  2
APPID
 70
     3
  0
APPID
  2
ACAD
 70
     0
  0
APPID
  2
ACAD_MLEADERVER
 70
     0
  0
APPID
  2
ACAD_NAV_VCDISPLAY
 70
     0
  0
ENDTAB
  0
TABLE
  2
DIMSTYLE
 70
     1
  0
DIMSTYLE
  2
STANDARD
 70
     0
  3

  4

  5

  6

  7

 40
1.0
 41
0.18
 42
0.0625
 43
0.38
 44
0.18
 45
0.0
 46
0.0
 47
0.0
 48
0.0
140
0.18
141
0.09
142
0.0
143
25.399999999999999
144
1.0
145
0.0
146
1.0
147
0.09
 71
     0
 72
     0
 73
     1
 74
     1
 75
     0
 76
     0
 77
     0
 78
     0
170
     0
171
     2
172
     0
173
     0
174
     0
175
     0
176
     0
177
     0
178
     0
  0
ENDTAB
  0
ENDSEC
  0
SECTION
  2
BLOCKS
  0
BLOCK
  8
0
  2
$MODEL_SPACE
 70
     0
 10
0.0
 20
0.0
 30
0.0
  3
$MODEL_SPACE
  1

  0
ENDBLK
  5
BC
  8
0
  0
BLOCK
 67
     1
  8
0
  2
$PAPER_SPACE
 70
     0
 10
0.0
 20
0.0
 30
0.0
  3
$PAPER_SPACE
  1

  0
ENDBLK
  5
BA
 67
     1
  8
0
  0
ENDSEC
  0
SECTION
  2
ENTITIES
  0
LINE
  5
110
  8
0
 10
50.335147811611591
 20
30.008675948461011
 30
0.0
 11
40.075647811611589
 21
30.008675948461011
 31
0.0
  0
LINE
  5
111
  8
3
 10
50.768147811611577
 20
29.575675948461011
 30
0.0
 11
39.642647811611603
 21
29.575675948461011
 31
0.0
  0
LINE
  5
112
  8
0
 10
40.075647811611589
 20
25.008675948461011
 30
0.0
 11
50.335147811611527
 21
25.008675948461011
 31
0.0
  0
LINE
  5
113
  8
3
 10
50.768147811611549
 20
25.441675948461
 30
0.0
 11
39.642647811611603
 21
25.441675948461
 31
0.0
  0
LINE
  5
114
  8
0
 10
50.335147811611563
 20
25.008675948461011
 30
0.0
 11
50.985147811611562
 21
25.658675948460981
 31
0.0
  0
LINE
  5
115
  8
0
 10
50.985147811611562
 20
29.35867594846092
 30
0.0
 11
50.335147811611563
 21
30.008675948461011
 31
0.0
  0
LINE
  5
116
  8
0
 10
51.485147811611569
 20
29.35867594846097
 30
0.0
 11
51.485147811611569
 21
25.658675948460981
 31
0.0
  0
LINE
  5
117
  8
0
 10
50.985147811611562
 20
29.35867594846103
 30
0.0
 11
50.985147811611562
 21
25.658675948460981
 31
0.0
  0
LINE
  5
118
  8
0
 10
50.335147811611563
 20
30.008675948461011
 30
0.0
 11
50.335147811611563
 21
25.008675948461011
 31
0.0
  0
ARC
  5
119
  8
0
 10
50.885147811611603
 20
27.508675948461011
 30
0.0
 40
1.5
 50
293.57817847820132
 51
66.421821521798719
  0
LINE
  5
11A
  8
0
 10
51.485147811611569
 20
29.35867594846097
 30
0.0
 11
50.985147811611562
 21
29.35867594846097
 31
0.0
  0
LINE
  5
11B
  8
0
 10
51.485147811611569
 20
25.658675948460981
 30
0.0
 11
50.98514781161154
 21
25.658675948460981
 31
0.0
  0
ARC
  5
11C
  8
2
 10
49.985147811611569
 20
27.508675948461011
 30
0.0
 40
1.5
 50
293.57817847820132
 51
66.421821521798719
  0
ARC
  5
11D
  8
2
 10
49.98514781161159
 20
46.067120528113051
 30
0.0
 40
1.5
 50
293.57817847820132
 51
66.421821521798719
  0
LINE
  5
11F
  8
0
 10
39.485147811611597
 20
29.418175948460981
 30
0.0
 11
40.075647811611589
 21
30.008675948461011
 31
0.0
  0
ARC
  5
120
  8
3
 10
22.985147811611601
 20
46.067120528113051
 30
0.0
 40
2.0670000000000068
 50
191.1581140683985
 51
348.8418859316015
  0
LINE
  5
121
  8
0
 10
25.452940347462199
 20
45.66712052811301
 30
0.0
 11
20.517355275760991
 21
45.66712052811301
 31
0.0
  0
LINE
  5
122
  8
0
 10
25.452940347462199
 20
46.467120528113021
 30
0.0
 11
20.517355275760991
 21
46.467120528113021
 31
0.0
  0
CIRCLE
  5
123
  8
0
 10
22.985147811611601
 20
46.067120528113051
 30
0.0
 40
2.5
  0
ARC
  5
124
  8
3
 10
22.985147811611601
 20
46.067120528113051
 30
0.0
 40
2.0670000000000068
 50
11.158114068398559
 51
168.84188593160141
  0
LINE
  5
125
  8
1
 10
18.485147811611601
 20
46.067120528113051
 30
0.0
 11
27.485147811611601
 21
46.067120528113051
 31
0.0
  0
LINE
  5
126
  8
1
 10
22.985147811611601
 20
41.567120528113051
 30
0.0
 11
22.985147811611601
 21
50.567120528113051
 31
0.0
  0
CIRCLE
  5
127
  8
0
 10
68.885147811611603
 20
46.067120528113051
 30
0.0
 40
1.5
  0
CIRCLE
  5
128
  8
0
 10
68.885147811611603
 20
46.067120528113051
 30
0.0
 40
1.8500000000000001
  0
LINE
  5
129
  8
1
 10
68.885147811611603
 20
41.567120528113051
 30
0.0
 11
68.885147811611603
 21
50.567120528113051
 31
0.0
  0
LINE
  5
12A
  8
1
 10
64.385147811611603
 20
46.067120528113051
 30
0.0
 11
73.385147811611603
 21
46.067120528113051
 31
0.0
  0
CIRCLE
  5
12B
  8
3
 10
68.885147811611603
 20
46.067120528113051
 30
0.0
 40
2.0670000000000068
  0
CIRCLE
  5
12C
  8
0
 10
68.885147811611603
 20
46.067120528113051
 30
0.0
 40
2.5
  0
LINE
  5
12D
  8
0
 10
39.485147811611597
 20
25.599175948461031
 30
0.0
 11
40.075647811611589
 21
25.008675948461011
 31
0.0
  0
LINE
  5
12E
  8
0
 10
39.485147811611597
 20
29.418175948460981
 30
0.0
 11
39.485147811611597
 21
25.599175948461031
 31
0.0
  0
LINE
  5
12F
  8
0
 10
40.075647811611589
 20
30.008675948461011
 30
0.0
 11
40.075647811611589
 21
25.008675948461011
 31
0.0
  0
LINE
  5
130
  8
1
 10
54.385147811611603
 20
27.508675948461011
 30
0.0
 11
37.485147811611597
 21
27.508675948461011
 31
0.0
  0
LINE
  5
131
  8
0
 10
51.485147811611597
 20
44.21712052811305
 30
0.0
 11
50.985147811611562
 21
44.217120528113028
 31
0.0
  0
LINE
  5
132
  8
0
 10
51.485147811611569
 20
47.91712052811301
 30
0.0
 11
50.985147811611562
 21
47.91712052811301
 31
0.0
  0
ARC
  5
133
  8
0
 10
50.885147811611603
 20
46.067120528113051
 30
0.0
 40
1.5
 50
293.57817847820132
 51
66.421821521798719
  0
LINE
  5
134
  8
3
 10
50.768147811611549
 20
44.000120528113008
 30
0.0
 11
39.642647811611603
 21
44.000120528113037
 31
0.0
  0
LINE
  5
135
  8
3
 10
50.768147811611577
 20
48.134120528113058
 30
0.0
 11
39.642647811611603
 21
48.134120528113058
 31
0.0
  0
LINE
  5
136
  8
1
 10
54.385147811611603
 20
46.067120528113051
 30
0.0
 11
37.485147811611597
 21
46.067120528113051
 31
0.0
  0
LINE
  5
137
  8
0
 10
40.98514781161159
 20
45.66712052811301
 30
0.0
 11
39.485147811611597
 21
45.66712052811301
 31
0.0
  0
LINE
  5
138
  8
0
 10
40.98514781161159
 20
46.467120528113021
 30
0.0
 11
40.98514781161159
 21
45.66712052811301
 31
0.0
  0
LINE
  5
139
  8
0
 10
39.485147811611597
 20
46.467120528113021
 30
0.0
 11
40.98514781161159
 21
46.467120528113021
 31
0.0
  0
LINE
  5
13A
  8
0
 10
40.075647811611589
 20
48.567120528113051
 30
0.0
 11
40.075647811611589
 21
46.467120528113021
 31
0.0
  0
LINE
  5
13B
  8
0
 10
40.075647811611589
 20
45.66712052811301
 30
0.0
 11
40.075647811611589
 21
43.567120528113051
 31
0.0
  0
LINE
  5
13C
  8
0
 10
50.335147811611591
 20
48.567120528113051
 30
0.0
 11
50.335147811611591
 21
43.567120528113051
 31
0.0
  0
LINE
  5
13D
  8
0
 10
39.485147811611597
 20
47.976620528113031
 30
0.0
 11
39.485147811611597
 21
46.467120528113021
 31
0.0
  0
LINE
  5
13E
  8
0
 10
39.485147811611597
 20
45.66712052811301
 30
0.0
 11
39.485147811611597
 21
44.157620528113043
 31
0.0
  0
LINE
  5
13F
  8
0
 10
50.985147811611562
 20
47.917120528113053
 30
0.0
 11
50.985147811611562
 21
44.217120528113028
 31
0.0
  0
LINE
  5
140
  8
0
 10
51.485147811611569
 20
47.91712052811301
 30
0.0
 11
51.485147811611597
 21
44.21712052811305
 31
0.0
  0
LINE
  5
141
  8
0
 10
50.335147811611591
 20
48.567120528113051
 30
0.0
 11
40.075647811611589
 21
48.567120528113051
 31
0.0
  0
LINE
  5
142
  8
0
 10
40.075647811611589
 20
43.567120528113051
 30
0.0
 11
50.335147811611563
 21
43.567120528113023
 31
0.0
  0
LINE
  5
143
  8
0
 10
40.075647811611589
 20
48.567120528113051
 30
0.0
 11
39.485147811611597
 21
47.976620528113031
 31
0.0
  0
LINE
  5
144
  8
0
 10
39.485147811611597
 20
44.157620528113043
 30
0.0
 11
40.075647811611589
 21
43.567120528113051
 31
0.0
  0
LINE
  5
145
  8
0
 10
50.985147811611562
 20
47.91712052811301
 30
0.0
 11
50.335147811611591
 21
48.567120528113051
 31
0.0
  0
LINE
  5
146
  8
0
 10
50.335147811611591
 20
43.567120528113051
 30
0.0
 11
50.985147811611597
 21
44.21712052811305
 31
0.0
  0
TEXT
  5
201
  8
0
 62
     3
 10
0.0
 20
0.0
 30
0.0
 40
5.0
  1
BSUH5
  7
STANDARD1
  0
ENDSEC
  0
EOF
