  0
SECTION
  2
HEADER
  9
$ACADVER
  1
AC1009
  9
$INSBASE
 10
0.0
 20
0.0
 30
0.0
  9
$EXTMIN
 10
0.0
 20
-2.960436562073669
 30
0.0
  9
$EXTMAX
 10
160.42218876070461
 20
113.5
 30
0.0
  9
$LIMMIN
 10
0.0
 20
0.0
  9
$LIMMAX
 10
187.5
 20
135.0
  9
$ORTHOMODE
 70
     1
  9
$REGENMODE
 70
     1
  9
$FILLMODE
 70
     1
  9
$QTEXTMODE
 70
     0
  9
$MIRRTEXT
 70
     0
  9
$DRAGMODE
 70
     2
  9
$LTSCALE
 40
5.0
  9
$OSMODE
 70
    37
  9
$ATTMODE
 70
     1
  9
$TEXTSIZE
 40
1.6000000000000489
  9
$TRACEWID
 40
0.05
  9
$TEXTSTYLE
  7
STANDARD
  9
$CLAYER
  8
0
  9
$CELTYPE
  6
BYLAYER
  9
$CECOLOR
 62
   256
  9
$DIMSCALE
 40
0.5
  9
$DIMASZ
 40
3.0
  9
$DIMEXO
 40
2.0
  9
$DIMDLI
 40
0.38
  9
$DIMRND
 40
0.0
  9
$DIMDLE
 40
0.0
  9
$DIMEXE
 40
2.0
  9
$DIMTP
 40
0.0
  9
$DIMTM
 40
0.0
  9
$DIMTXT
 40
3.2000000000000002
  9
$DIMCEN
 40
0.0
  9
$DIMTSZ
 40
0.0
  9
$DIMTOL
 70
     0
  9
$DIMLIM
 70
     0
  9
$DIMTIH
 70
     0
  9
$DIMTOH
 70
     0
  9
$DIMSE1
 70
     0
  9
$DIMSE2
 70
     0
  9
$DIMTAD
 70
     1
  9
$DIMZIN
 70
     8
  9
$DIMBLK
  1

  9
$DIMASO
 70
     1
  9
$DIMSHO
 70
     0
  9
$DIMPOST
  1

  9
$DIMAPOST
  1

  9
$DIMALT
 70
     0
  9
$DIMALTD
 70
     2
  9
$DIMALTF
 40
25.399999999999999
  9
$DIMLFAC
 40
1.0
  9
$DIMTOFL
 70
     1
  9
$DIMTVP
 40
1.6000000000000001
  9
$DIMTIX
 70
     1
  9
$DIMSOXD
 70
     0
  9
$DIMSAH
 70
     0
  9
$DIMBLK1
  1

  9
$DIMBLK2
  1

  9
$DIMSTYLE
  2
STANDARD
  9
$DIMCLRD
 70
     0
  9
$DIMCLRE
 70
     0
  9
$DIMCLRT
 70
     0
  9
$DIMTFAC
 40
1.0
  9
$DIMGAP
 40
0.09
  9
$LUNITS
 70
     2
  9
$LUPREC
 70
     1
  9
$SKETCHINC
 40
0.1
  9
$FILLETRAD
 40
5.0
  9
$AUNITS
 70
     0
  9
$AUPREC
 70
     1
  9
$MENU
  1
E:\r13\win\SUPPORT\ACAD
  9
$ELEVATION
 40
0.0
  9
$PELEVATION
 40
0.0
  9
$THICKNESS
 40
0.0
  9
$LIMCHECK
 70
     0
  9
$BLIPMODE
 70
     0
  9
$CHAMFERA
 40
0.0
  9
$CHAMFERB
 40
0.0
  9
$SKPOLY
 70
     0
  9
$TDCREATE
 40
2449839.7906597219
  9
$TDUPDATE
 40
2459788.716835185
  9
$TDINDWG
 40
0.0419085648
  9
$TDUSRTIMER
 40
0.0419085648
  9
$USRTIMER
 70
     1
  9
$ANGBASE
 50
0.0
  9
$ANGDIR
 70
     0
  9
$PDMODE
 70
     0
  9
$PDSIZE
 40
0.0
  9
$PLINEWID
 40
0.0
  9
$COORDS
 70
     1
  9
$SPLFRAME
 70
     0
  9
$SPLINETYPE
 70
     6
  9
$SPLINESEGS
 70
     8
  9
$ATTDIA
 70
     0
  9
$ATTREQ
 70
     1
  9
$HANDLING
 70
     1
  9
$HANDSEED
  5
998
  9
$SURFTAB1
 70
     6
  9
$SURFTAB2
 70
     6
  9
$SURFTYPE
 70
     6
  9
$SURFU
 70
     6
  9
$SURFV
 70
     6
  9
$UCSNAME
  2

  9
$UCSORG
 10
0.0
 20
0.0
 30
0.0
  9
$UCSXDIR
 10
1.0
 20
0.0
 30
0.0
  9
$UCSYDIR
 10
0.0
 20
1.0
 30
0.0
  9
$PUCSNAME
  2

  9
$PUCSORG
 10
0.0
 20
0.0
 30
0.0
  9
$PUCSXDIR
 10
1.0
 20
0.0
 30
0.0
  9
$PUCSYDIR
 10
0.0
 20
1.0
 30
0.0
  9
$USERI1
 70
     0
  9
$USERI2
 70
     1
  9
$USERI3
 70
     1
  9
$USERI4
 70
     0
  9
$USERI5
 70
     0
  9
$USERR1
 40
0.0
  9
$USERR2
 40
0.0
  9
$USERR3
 40
0.0
  9
$USERR4
 40
0.0
  9
$USERR5
 40
0.0
  9
$WORLDVIEW
 70
     1
  9
$SHADEDGE
 70
     3
  9
$SHADEDIF
 70
    70
  9
$TILEMODE
 70
     1
  9
$MAXACTVP
 70
    16
  9
$PLIMCHECK
 70
     0
  9
$PEXTMIN
 10
1.0000000000000000E+020
 20
1.0000000000000000E+020
 30
1.0000000000000000E+020
  9
$PEXTMAX
 10
-1.0000000000000000E+020
 20
-1.0000000000000000E+020
 30
-1.0000000000000000E+020
  9
$PLIMMIN
 10
0.0
 20
0.0
  9
$PLIMMAX
 10
12.0
 20
9.0
  9
$UNITMODE
 70
     0
  9
$VISRETAIN
 70
     0
  9
$PLINEGEN
 70
     0
  9
$PSLTSCALE
 70
     0
  0
ENDSEC
  0
SECTION
  2
TABLES
  0
TABLE
  2
VPORT
 70
     1
  0
VPORT
  2
*ACTIVE
 70
     0
 10
0.0
 20
0.0
 11
1.0
 21
1.0
 12
241.48802017654481
 22
100.0
 13
0.0
 23
0.0
 14
5.0
 24
5.0
 15
5.0
 25
5.0
 16
0.0
 26
0.0
 36
1.0
 17
0.0
 27
0.0
 37
0.0
 40
200.0
 41
2.4148802017654472
 42
50.0
 43
0.0
 44
0.0
 50
0.0
 51
0.0
 71
     0
 72
   500
 73
     1
 74
     0
 75
     0
 76
     0
 77
     0
 78
     2
  0
ENDTAB
  0
TABLE
  2
LTYPE
 70
     4
  0
LTYPE
  2
CONTINUOUS
 70
     0
  3
Solid Line
 72
    65
 73
     0
 40
0.0
  0
LTYPE
  2
CENTER
 70
     0
  3
____ _ ____ _ ____ _ ____ _ ____ _ ____ _ ____
 72
    65
 73
     4
 40
2.0
 49
1.25
 49
-0.25
 49
0.25
 49
-0.25
  0
LTYPE
  2
HIDDEN
 70
     0
  3
_ _ _ _ _ _ _ _ _ _ _ _ _ _ _ _ _ _ _ _ _ _ _
 72
    65
 73
     2
 40
0.375
 49
0.25
 49
-0.125
  0
LTYPE
  2
PHANTOM2
 70
     0
  3
Phantom (.5x) ___ _ _ ___ _ _ ___ _ _ ___ _ _
 72
    65
 73
     6
 40
1.25
 49
0.625
 49
-0.125
 49
0.125
 49
-0.125
 49
0.125
 49
-0.125
  0
ENDTAB
  0
TABLE
  2
LAYER
 70
     4
  0
LAYER
  2
0
 70
     0
 62
     7
  6
CONTINUOUS
  0
LAYER
  2
1
 70
     0
 62
     1
  6
CENTER
  0
LAYER
  2
2
 70
     0
 62
     2
  6
HIDDEN
  0
LAYER
  2
DEFPOINTS
 70
     0
 62
     7
  6
CONTINUOUS
  0
ENDTAB
  0
TABLE
  2
STYLE
 70
     2
  0
STYLE
  2
STANDARD
 70
     0
 40
0.0
 41
1.0
 50
0.0
 71
     0
 42
1.6000000000000489
  3
TXT
  4
BIGFONT
  0
STYLE
  2
STANDARD1
 70
     0
 40
0.0
 41
1.0
 50
0.0
 71
     0
 42
3.0
  3
txt
  4

  0
ENDTAB
  0
TABLE
  2
VIEW
 70
     1
  0
VIEW
  2
ALL
 70
     0
 40
135.0
 10
110.4957983193277
 20
67.5
 41
0.0
 11
0.0
 21
0.0
 31
1.0
 12
0.0
 22
0.0
 32
0.0
 42
0.0
 43
0.0
 44
0.0
 50
0.0
 71
     0
  0
ENDTAB
  0
TABLE
  2
UCS
 70
     0
  0
ENDTAB
  0
TABLE
  2
APPID
 70
    15
  0
APPID
  2
ACAD
 70
     0
  0
APPID
  2
ACAD_MLEADERVER
 70
     0
  0
APPID
  2
MCAD_NO_VIS
 70
     0
  0
APPID
  2
ACAD_TEMP_GRAPHIC
 70
     0
  0
APPID
  2
ACATTRIBSERVICES
 70
     0
  0
APPID
  2
DESIGNERASSEMBLIES
 70
     0
  0
APPID
  2
ACAD_DSTYLE_DIMJAG
 70
     0
  0
APPID
  2
ACAD_DSTYLE_DIMBREAK
 70
     0
  0
APPID
  2
ACAD_NAV_VCDISPLAY
 70
     0
  0
APPID
  2
ACAD_EXEMPT_FROM_CAD_STANDARDS
 70
     0
  0
APPID
  2
ACAD_DSTYLE_DIMARC_LENGTH_
 70
     0
  0
APPID
  2
ACAD_DSTYLE_DIM_LINETYPE
 70
     0
  0
APPID
  2
ACAD_DSTYLE_DIM_EXT1_LINETYPE
 70
     0
  0
APPID
  2
ACAD_DSTYLE_DIM_EXT2_LINETYPE
 70
     0
  0
APPID
  2
ACAD_DSTYLE_DIMTALN
 70
     0
  0
ENDTAB
  0
TABLE
  2
DIMSTYLE
 70
     1
  0
DIMSTYLE
  2
STANDARD
 70
     0
  3

  4

  5

  6

  7

 40
1.0
 41
0.18
 42
0.0625
 43
0.38
 44
0.18
 45
0.0
 46
0.0
 47
0.0
 48
0.0
140
0.18
141
0.09
142
0.0
143
25.399999999999999
144
1.0
145
0.0
146
1.0
147
0.09
 71
     0
 72
     0
 73
     1
 74
     1
 75
     0
 76
     0
 77
     0
 78
     0
170
     0
171
     2
172
     0
173
     0
174
     0
175
     0
176
     0
177
     0
178
     0
  0
ENDTAB
  0
ENDSEC
  0
SECTION
  2
BLOCKS
  0
BLOCK
  8
0
  2
$MODEL_SPACE
 70
     0
 10
0.0
 20
0.0
 30
0.0
  3
$MODEL_SPACE
  1

  0
ENDBLK
  5
12C
  8
0
  0
BLOCK
 67
     1
  8
0
  2
$PAPER_SPACE
 70
     0
 10
0.0
 20
0.0
 30
0.0
  3
$PAPER_SPACE
  1

  0
ENDBLK
  5
12A
 67
     1
  8
0
  0
ENDSEC
  0
SECTION
  2
ENTITIES
  0
TEXT
  5
21C
  8
0
 62
     3
 10
0.0
 20
0.0
 30
0.0
 40
10.0
  1
BTK30-SUS
  7
STANDARD1
  0
ARC
  5
2D5
  8
0
 10
96.871451612903243
 20
-0.6058064516127928
 30
0.0
 40
58.635679248929478
 50
91.828997180476577
 51
107.7454101488359
  0
ARC
  5
2D6
  8
0
 10
93.128548387096771
 20
-0.6058064516127928
 30
0.0
 40
58.635679248929492
 50
76.950468401801089
 51
88.171002819523395
  0
LINE
  5
2D7
  8
0
 10
79.0
 20
47.4576436068253
 30
0.0
 11
84.439999999999927
 21
46.000000000000007
 31
0.0
  0
LINE
  5
2D8
  8
0
 10
105.5599999999999
 20
46.000000000000007
 30
0.0
 11
106.3562512552529
 21
46.213354880817278
 31
0.0
  0
LINE
  5
2D9
  8
0
 10
104.5
 20
35.600000000000009
 30
0.0
 11
104.5
 21
46.000000000000007
 31
0.0
  0
LINE
  5
2DA
  8
0
 10
85.5
 20
46.000000000000007
 30
0.0
 11
85.5
 21
35.600000000000009
 31
0.0
  0
LINE
  5
2DB
  8
0
 10
85.5
 20
35.600000000000009
 30
0.0
 11
85.799999999999955
 21
35.300000000000033
 31
0.0
  0
LINE
  5
2DC
  8
0
 10
104.1999999999999
 20
35.300000000000033
 30
0.0
 11
104.5
 21
35.600000000000009
 31
0.0
  0
LINE
  5
2DD
  8
0
 10
108.716294102443
 20
47.301201811430772
 30
0.0
 11
108.716294102443
 21
55.423300985116711
 31
0.0
  0
LINE
  5
2DE
  8
0
 10
100.0
 20
35.000000000000021
 30
0.0
 11
100.0
 21
35.300000000000033
 31
0.0
  0
LINE
  5
2DF
  8
0
 10
90.0
 20
35.300000000000033
 30
0.0
 11
90.0
 21
35.000000000000021
 31
0.0
  0
LINE
  5
2E0
  8
0
 10
79.0
 20
55.240000000000023
 30
0.0
 11
79.0
 21
47.4576436068253
 31
0.0
  0
LINE
  5
2E4
  8
0
 10
108.1333407860331
 20
55.240000000000023
 30
0.0
 11
107.74982081432729
 21
55.240000000000023
 31
0.0
  0
LINE
  5
2EA
  8
0
 10
90.367030177276078
 20
55.240000000000023
 30
0.0
 11
89.746481827692264
 21
55.240000000000023
 31
0.0
  0
LINE
  5
2F0
  8
0
 10
79.003326394671035
 20
55.240000000000023
 30
0.0
 11
79.0
 21
55.240000000000023
 31
0.0
  0
LINE
  5
2F6
  8
0
 10
90.367030177276547
 20
47.457643606825243
 30
0.0
 11
89.746481827691809
 21
47.457643606825243
 31
0.0
  0
LINE
  5
2FC
  8
0
 10
108.1333407860332
 20
47.457643606825272
 30
0.0
 11
107.74982081432709
 21
47.457643606825272
 31
0.0
  0
LINE
  5
300
  8
0
 10
79.003326394671035
 20
47.4576436068253
 30
0.0
 11
79.0
 21
47.4576436068253
 31
0.0
  0
LINE
  5
301
  8
0
 10
105.5599999999999
 20
46.000000000000007
 30
0.0
 11
84.439999999999998
 21
46.000000000000007
 31
0.0
  0
LINE
  5
302
  8
0
 10
90.367030177276547
 20
47.457643606825243
 30
0.0
 11
90.367030177276078
 21
55.240000000000023
 31
0.0
  0
LINE
  5
303
  8
0
 10
89.746481827692264
 20
55.240000000000023
 30
0.0
 11
89.746481827691809
 21
47.457643606825243
 31
0.0
  0
LINE
  5
304
  8
0
 10
107.74982081432729
 20
55.240000000000023
 30
0.0
 11
107.74982081432709
 21
47.457643606825272
 31
0.0
  0
LINE
  5
305
  8
0
 10
108.1333407860332
 20
47.457643606825272
 30
0.0
 11
108.1333407860331
 21
55.240000000000023
 31
0.0
  0
LINE
  5
306
  8
0
 10
104.5
 20
35.600000000000009
 30
0.0
 11
85.5
 21
35.600000000000009
 31
0.0
  0
LINE
  5
307
  8
0
 10
104.1999999999999
 20
35.300000000000033
 30
0.0
 11
85.799999999999955
 21
35.300000000000033
 31
0.0
  0
LINE
  5
308
  8
0
 10
100.0
 20
35.000000000000021
 30
0.0
 11
90.0
 21
35.000000000000021
 31
0.0
  0
ARC
  5
30D
  8
0
 10
95.0
 20
94.999999999999957
 30
0.0
 40
16.000000000000028
 50
106.83165245195519
 51
109.16834754804459
  0
ARC
  5
313
  8
0
 10
95.0
 20
94.999999999999957
 30
0.0
 40
16.000000000000021
 50
34.83165245195616
 51
37.168347548044473
  0
ARC
  5
319
  8
0
 10
95.0
 20
94.999999999999957
 30
0.0
 40
16.000000000000028
 50
322.83165245195562
 51
325.16834754804648
  0
ARC
  5
31F
  8
0
 10
95.0
 20
94.999999999999957
 30
0.0
 40
16.000000000000021
 50
250.8316524519571
 51
253.16834754804481
  0
ARC
  5
325
  8
0
 10
95.0
 20
94.999999999999957
 30
0.0
 40
16.0
 50
178.8316524519548
 51
181.168347548046
  0
LINE
  5
327
  8
0
 10
131.82316529852281
 20
46.701178744986478
 30
0.0
 11
134.4399999999998
 21
45.999999999999957
 31
0.0
  0
LINE
  5
328
  8
0
 10
155.55999999999989
 20
46.000000000000043
 30
0.0
 11
158.18760556641519
 21
46.704064789548582
 31
0.0
  0
ARC
  5
329
  8
0
 10
146.8687803681143
 20
-0.5758135558442206
 30
0.0
 40
58.605616401444642
 50
91.827322844827918
 51
105.1264085737174
  0
ARC
  5
32A
  8
0
 10
143.14500333083791
 20
-0.421149000399538
 30
0.0
 40
58.450591640884952
 50
74.407273524692414
 51
88.181347247043291
  0
LINE
  5
32B
  8
0
 10
156.0593008800324
 20
47.113103746771237
 30
0.0
 11
156.0593008800324
 21
55.634902750127722
 31
0.0
  0
LINE
  5
32C
  8
0
 10
133.94069911996721
 20
55.634535972614181
 30
0.0
 11
133.94069911996729
 21
47.113552472406369
 31
0.0
  0
LINE
  5
32D
  8
0
 10
135.49999999999989
 20
35.59999999999998
 30
0.0
 11
135.7999999999999
 21
35.299999999999969
 31
0.0
  0
LINE
  5
32E
  8
0
 10
154.19999999999979
 20
35.300000000000033
 30
0.0
 11
154.49999999999989
 21
35.600000000000037
 31
0.0
  0
LINE
  5
32F
  8
0
 10
154.49999999999989
 20
35.600000000000037
 30
0.0
 11
154.4999999999998
 21
46.000000000000043
 31
0.0
  0
LINE
  5
330
  8
0
 10
135.4999999999998
 20
45.999999999999957
 30
0.0
 11
135.49999999999989
 21
35.59999999999998
 31
0.0
  0
LINE
  5
331
  8
0
 10
149.99999999999989
 20
35.000000000000021
 30
0.0
 11
149.99999999999989
 21
35.300000000000033
 31
0.0
  0
LINE
  5
332
  8
0
 10
139.99999999999989
 20
35.299999999999969
 30
0.0
 11
139.99999999999989
 21
35.000000000000021
 31
0.0
  0
LINE
  5
333
  8
0
 10
160.42218876070461
 20
47.418181686986273
 30
0.0
 11
160.42218876070461
 21
55.28685289166215
 31
0.0
  0
LINE
  5
334
  8
0
 10
129.57781123929499
 20
55.287064390407593
 30
0.0
 11
129.57781123929499
 21
47.417972913331383
 31
0.0
  0
LINE
  5
33A
  8
0
 10
135.86132614664919
 20
47.457643606825272
 30
0.0
 11
135.33345619145331
 21
47.457643606825272
 31
0.0
  0
LINE
  5
340
  8
0
 10
154.66654380854629
 20
47.45764360682535
 30
0.0
 11
154.13867385335061
 21
47.45764360682535
 31
0.0
  0
LINE
  5
346
  8
0
 10
155.55999999999989
 20
46.000000000000057
 30
0.0
 11
134.43999999999991
 21
45.999999999999957
 31
0.0
  0
LINE
  5
347
  8
0
 10
135.86132614664919
 20
47.457643606825272
 30
0.0
 11
135.86132614664899
 21
55.240000000000023
 31
0.0
  0
LINE
  5
349
  8
0
 10
154.13867385335089
 20
55.240000000000023
 30
0.0
 11
154.13867385335061
 21
47.45764360682535
 31
0.0
  0
LINE
  5
34F
  8
0
 10
154.66654380854601
 20
55.240000000000023
 30
0.0
 11
154.13867385335089
 21
55.240000000000023
 31
0.0
  0
LINE
  5
353
  8
0
 10
135.86132614664899
 20
55.240000000000023
 30
0.0
 11
135.33345619145339
 21
55.240000000000023
 31
0.0
  0
LINE
  5
359
  8
0
 10
135.33345619145339
 20
55.240000000000023
 30
0.0
 11
135.33345619145331
 21
47.457643606825272
 31
0.0
  0
LINE
  5
35A
  8
0
 10
154.66654380854629
 20
47.45764360682535
 30
0.0
 11
154.66654380854601
 21
55.240000000000023
 31
0.0
  0
LINE
  5
35B
  8
0
 10
154.49999999999989
 20
35.600000000000037
 30
0.0
 11
135.49999999999989
 21
35.59999999999998
 31
0.0
  0
LINE
  5
35C
  8
0
 10
154.1999999999999
 20
35.30000000000009
 30
0.0
 11
135.7999999999999
 21
35.299999999999969
 31
0.0
  0
LINE
  5
35D
  8
0
 10
149.99999999999989
 20
35.000000000000021
 30
0.0
 11
139.99999999999989
 21
35.000000000000021
 31
0.0
  0
ARC
  5
35E
  8
0
 10
46.871451612903108
 20
-0.6058064516127928
 30
0.0
 40
58.635679248929492
 50
91.828997180478211
 51
104.8820013502544
  0
ARC
  5
35F
  8
0
 10
43.12854838709665
 20
-0.6058064516127786
 30
0.0
 40
58.635679248929478
 50
75.129173789384765
 51
88.171002819521775
  0
LINE
  5
360
  8
0
 10
31.81239443358459
 20
46.704064789548582
 30
0.0
 11
34.439999999999941
 21
46.000000000000043
 31
0.0
  0
LINE
  5
361
  8
0
 10
55.560000000000059
 20
45.999999999999957
 30
0.0
 11
58.176834701476878
 21
46.701178744986422
 31
0.0
  0
LINE
  5
362
  8
0
 10
54.5
 20
35.59999999999998
 30
0.0
 11
54.5
 21
45.999999999999957
 31
0.0
  0
LINE
  5
363
  8
0
 10
35.5
 20
46.000000000000043
 30
0.0
 11
35.5
 21
35.600000000000037
 31
0.0
  0
LINE
  5
364
  8
0
 10
35.5
 20
35.600000000000037
 30
0.0
 11
35.799999999999962
 21
35.300000000000033
 31
0.0
  0
LINE
  5
365
  8
0
 10
54.199999999999932
 20
35.299999999999969
 30
0.0
 11
54.5
 21
35.59999999999998
 31
0.0
  0
LINE
  5
366
  8
0
 10
50.0
 20
35.000000000000021
 30
0.0
 11
50.0
 21
35.299999999999969
 31
0.0
  0
LINE
  5
367
  8
0
 10
40.0
 20
35.300000000000033
 30
0.0
 11
40.0
 21
35.000000000000021
 31
0.0
  0
LINE
  5
368
  8
0
 10
60.422188760704778
 20
47.417972913331383
 30
0.0
 11
60.422188760704898
 21
55.287064390407593
 31
0.0
  0
LINE
  5
369
  8
0
 10
29.577811239295212
 20
55.28685289166215
 30
0.0
 11
29.577811239295212
 21
47.418181686986273
 31
0.0
  0
LINE
  5
36E
  8
0
 10
29.88707351922767
 20
55.240000000000023
 30
0.0
 11
29.685445137982921
 21
55.240000000000023
 31
0.0
  0
LINE
  5
371
  8
0
 10
31.812556326475828
 20
56.061267904730762
 30
0.0
 11
31.57567505076873
 21
55.999262259799671
 31
0.0
  0
LINE
  5
372
  8
0
 10
58.42432494923127
 20
55.999262259799551
 30
0.0
 11
58.176629204821772
 21
56.06517047910863
 31
0.0
  0
LINE
  5
375
  8
0
 10
60.314554862017069
 20
55.240000000000023
 30
0.0
 11
60.112926480772437
 21
55.240000000000023
 31
0.0
  0
LINE
  5
37B
  8
0
 10
45.326241573950711
 20
55.240000000000023
 30
0.0
 11
44.673758426049289
 21
55.240000000000023
 31
0.0
  0
LINE
  5
382
  8
0
 10
60.314554862017189
 20
47.457643606825243
 30
0.0
 11
60.11292648077233
 21
47.457643606825243
 31
0.0
  0
LINE
  5
385
  8
0
 10
58.42432494923127
 20
46.767916560897064
 30
0.0
 11
58.176740209510058
 21
46.70153139380762
 31
0.0
  0
LINE
  5
386
  8
0
 10
31.812612118211749
 20
46.70487719963738
 30
0.0
 11
31.57567505076873
 21
46.767916560897177
 31
0.0
  0
LINE
  5
389
  8
0
 10
29.887073519227791
 20
47.45764360682535
 30
0.0
 11
29.685445137982811
 21
47.457643606825378
 31
0.0
  0
LINE
  5
38F
  8
0
 10
45.326241573950931
 20
47.4576436068253
 30
0.0
 11
44.673758426049169
 21
47.4576436068253
 31
0.0
  0
LINE
  5
390
  8
0
 10
55.559999999999938
 20
45.999999999999957
 30
0.0
 11
34.440000000000062
 21
46.000000000000043
 31
0.0
  0
LINE
  5
391
  8
0
 10
45.326241573950931
 20
47.4576436068253
 30
0.0
 11
45.326241573950711
 21
55.240000000000023
 31
0.0
  0
LINE
  5
392
  8
0
 10
44.673758426049289
 20
55.240000000000023
 30
0.0
 11
44.673758426049169
 21
47.4576436068253
 31
0.0
  0
LINE
  5
393
  8
0
 10
54.5
 20
35.59999999999998
 30
0.0
 11
35.5
 21
35.600000000000037
 31
0.0
  0
LINE
  5
394
  8
0
 10
54.199999999999932
 20
35.299999999999969
 30
0.0
 11
35.799999999999962
 21
35.300000000000033
 31
0.0
  0
LINE
  5
395
  8
0
 10
60.112926480772437
 20
55.240000000000023
 30
0.0
 11
60.11292648077233
 21
47.457643606825243
 31
0.0
  0
LINE
  5
396
  8
0
 10
29.887073519227791
 20
47.45764360682535
 30
0.0
 11
29.88707351922767
 21
55.240000000000023
 31
0.0
  0
LINE
  5
397
  8
0
 10
50.0
 20
35.000000000000021
 30
0.0
 11
40.0
 21
35.000000000000021
 31
0.0
  0
LINE
  5
398
  8
1
 10
95.0
 20
113.5
 30
0.0
 11
94.999999999999943
 21
76.499999999999986
 31
0.0
  0
LINE
  5
399
  8
1
 10
76.500000000000057
 20
94.999999999999986
 30
0.0
 11
113.5
 21
94.999999999999986
 31
0.0
  0
LINE
  5
39A
  8
1
 10
144.99999999999989
 20
59.500000000000007
 30
0.0
 11
144.99999999999989
 21
32.500000000000021
 31
0.0
  0
LINE
  5
39B
  8
1
 10
94.999999999999943
 20
59.500000000000043
 30
0.0
 11
94.999999999999943
 21
32.500000000000043
 31
0.0
  0
LINE
  5
39C
  8
1
 10
44.999999999999943
 20
59.500000000000007
 30
0.0
 11
44.999999999999943
 21
32.500000000000021
 31
0.0
  0
LINE
  5
39D
  8
2
 10
42.0
 20
35.458500000000143
 30
0.0
 11
42.0
 21
47.000000000000028
 31
0.0
  0
LINE
  5
39E
  8
2
 10
42.541499999999921
 20
36.000000000000043
 30
0.0
 11
42.541499999999921
 21
49.000000000000028
 31
0.0
  0
LINE
  5
39F
  8
2
 10
42.0
 20
47.000000000000028
 30
0.0
 11
48.0
 21
47.000000000000028
 31
0.0
  0
LINE
  5
3A0
  8
2
 10
42.541499999999921
 20
49.000000000000028
 30
0.0
 11
47.458499999999958
 21
49.000000000000028
 31
0.0
  0
LINE
  5
3A1
  8
2
 10
42.541499999999978
 20
49.000000000000007
 30
0.0
 11
45.000000000000057
 21
50.477215831879342
 31
0.0
  0
LINE
  5
3A2
  8
2
 10
42.000000000000107
 20
47.000000000000028
 30
0.0
 11
42.541500000000042
 21
47.937905512298421
 31
0.0
  0
LINE
  5
3A3
  8
2
 10
41.541499999999928
 20
35.000000000000028
 30
0.0
 11
42.541499999999978
 21
36.000000000000071
 31
0.0
  0
LINE
  5
3A4
  8
2
 10
42.541499999999921
 20
36.000000000000043
 30
0.0
 11
47.458500000000072
 21
36.00000000000005
 31
0.0
  0
LINE
  5
3A5
  8
2
 10
47.458500000000008
 20
49.000000000000007
 30
0.0
 11
44.999999999999943
 21
50.477215831879342
 31
0.0
  0
LINE
  5
3A6
  8
2
 10
47.458500000000072
 20
36.000000000000043
 30
0.0
 11
47.458500000000072
 21
49.000000000000028
 31
0.0
  0
LINE
  5
3A7
  8
2
 10
47.999999999999893
 20
47.000000000000028
 30
0.0
 11
47.458499999999958
 21
47.937905512298421
 31
0.0
  0
LINE
  5
3A8
  8
2
 10
48.0
 20
35.458500000000143
 30
0.0
 11
48.0
 21
47.000000000000028
 31
0.0
  0
LINE
  5
3A9
  8
2
 10
48.458500000000072
 20
35.000000000000028
 30
0.0
 11
47.458500000000008
 21
36.000000000000071
 31
0.0
  0
LINE
  5
3AA
  8
2
 10
92.0
 20
35.458500000000143
 30
0.0
 11
92.0
 21
47.000000000000028
 31
0.0
  0
LINE
  5
3AB
  8
2
 10
92.541499999999928
 20
36.000000000000043
 30
0.0
 11
92.541499999999928
 21
49.000000000000028
 31
0.0
  0
LINE
  5
3AC
  8
2
 10
92.0
 20
47.000000000000028
 30
0.0
 11
98.0
 21
47.000000000000028
 31
0.0
  0
LINE
  5
3AD
  8
2
 10
92.541499999999928
 20
49.000000000000028
 30
0.0
 11
97.458499999999972
 21
49.000000000000028
 31
0.0
  0
LINE
  5
3AE
  8
2
 10
92.541499999999928
 20
49.000000000000007
 30
0.0
 11
95.0
 21
50.477215831879342
 31
0.0
  0
LINE
  5
3AF
  8
2
 10
92.000000000000114
 20
47.000000000000028
 30
0.0
 11
92.541500000000042
 21
47.937905512298421
 31
0.0
  0
LINE
  5
3B0
  8
2
 10
91.541499999999914
 20
35.000000000000028
 30
0.0
 11
92.541499999999928
 21
36.000000000000071
 31
0.0
  0
LINE
  5
3B1
  8
2
 10
92.541499999999928
 20
36.000000000000043
 30
0.0
 11
97.458500000000072
 21
36.00000000000005
 31
0.0
  0
LINE
  5
3B2
  8
2
 10
97.458499999999972
 20
49.000000000000007
 30
0.0
 11
94.999999999999886
 21
50.477215831879342
 31
0.0
  0
LINE
  5
3B3
  8
2
 10
97.458500000000072
 20
36.000000000000043
 30
0.0
 11
97.458500000000072
 21
49.000000000000028
 31
0.0
  0
LINE
  5
3B4
  8
2
 10
97.999999999999901
 20
47.000000000000028
 30
0.0
 11
97.458499999999972
 21
47.937905512298421
 31
0.0
  0
LINE
  5
3B5
  8
2
 10
98.0
 20
35.458500000000143
 30
0.0
 11
98.0
 21
47.000000000000028
 31
0.0
  0
LINE
  5
3B6
  8
2
 10
98.458500000000072
 20
35.000000000000028
 30
0.0
 11
97.458499999999972
 21
36.000000000000071
 31
0.0
  0
LINE
  5
3B7
  8
2
 10
142.0
 20
35.458500000000143
 30
0.0
 11
142.0
 21
47.000000000000028
 31
0.0
  0
LINE
  5
3B8
  8
2
 10
142.5414999999999
 20
36.000000000000043
 30
0.0
 11
142.5414999999999
 21
49.000000000000028
 31
0.0
  0
LINE
  5
3B9
  8
2
 10
142.0
 20
47.000000000000028
 30
0.0
 11
148.0
 21
47.000000000000028
 31
0.0
  0
LINE
  5
3BA
  8
2
 10
142.5414999999999
 20
49.000000000000028
 30
0.0
 11
147.4584999999999
 21
49.000000000000028
 31
0.0
  0
LINE
  5
3BB
  8
2
 10
142.5414999999999
 20
49.000000000000007
 30
0.0
 11
145.0
 21
50.477215831879342
 31
0.0
  0
LINE
  5
3BC
  8
2
 10
142.00000000000011
 20
47.000000000000028
 30
0.0
 11
142.54150000000001
 21
47.937905512298421
 31
0.0
  0
LINE
  5
3BD
  8
2
 10
141.5414999999999
 20
35.000000000000028
 30
0.0
 11
142.5414999999999
 21
36.000000000000071
 31
0.0
  0
LINE
  5
3BE
  8
2
 10
142.5414999999999
 20
36.000000000000043
 30
0.0
 11
147.45849999999999
 21
36.00000000000005
 31
0.0
  0
LINE
  5
3BF
  8
2
 10
147.4584999999999
 20
49.000000000000007
 30
0.0
 11
144.99999999999989
 21
50.477215831879342
 31
0.0
  0
LINE
  5
3C0
  8
2
 10
147.45849999999999
 20
36.000000000000043
 30
0.0
 11
147.45849999999999
 21
49.000000000000028
 31
0.0
  0
LINE
  5
3C1
  8
2
 10
147.99999999999989
 20
47.000000000000028
 30
0.0
 11
147.4584999999999
 21
47.937905512298421
 31
0.0
  0
LINE
  5
3C2
  8
2
 10
148.0
 20
35.458500000000143
 30
0.0
 11
148.0
 21
47.000000000000028
 31
0.0
  0
LINE
  5
3C3
  8
2
 10
148.45849999999999
 20
35.000000000000028
 30
0.0
 11
147.4584999999999
 21
36.000000000000071
 31
0.0
  0
POLYLINE
  5
422
  8
0
 66
     1
 10
0.0
 20
0.0
 30
0.0
  0
VERTEX
  5
4F8
  8
0
 10
44.673758426049169
 20
47.457643606825279
 30
0.0
  0
VERTEX
  5
4F9
  8
0
 10
44.255672037079862
 20
47.446303072294199
 30
0.0
  0
VERTEX
  5
4FA
  8
0
 10
43.848790738142498
 20
47.426203515120193
 30
0.0
  0
VERTEX
  5
4FB
  8
0
 10
43.453120406008992
 20
47.39730269340324
 30
0.0
  0
VERTEX
  5
4FC
  8
0
 10
43.073832892190097
 20
47.359786424565378
 30
0.0
  0
VERTEX
  5
4FD
  8
0
 10
42.719234848528437
 20
47.31433519513709
 30
0.0
  0
VERTEX
  5
4FE
  8
0
 10
42.389012579687389
 20
47.260757389978181
 30
0.0
  0
VERTEX
  5
4FF
  8
0
 10
42.086663903945087
 20
47.199296161367919
 30
0.0
  0
VERTEX
  5
500
  8
0
 10
41.818819848255892
 20
47.131087879672741
 30
0.0
  0
VERTEX
  5
501
  8
0
 10
41.585430674783332
 20
47.055995874634931
 30
0.0
  0
VERTEX
  5
502
  8
0
 10
41.387913464438668
 20
46.97409291177879
 30
0.0
  0
VERTEX
  5
503
  8
0
 10
41.229074279787937
 20
46.886051567988993
 30
0.0
  0
SEQEND
  5
504
  8
0
  0
POLYLINE
  5
423
  8
0
 66
     1
 10
0.0
 20
0.0
 30
0.0
  0
VERTEX
  5
505
  8
0
 10
41.229074279787937
 20
46.886051567988993
 30
0.0
  0
VERTEX
  5
506
  8
0
 10
41.183684012458947
 20
46.856339810424849
 30
0.0
  0
VERTEX
  5
507
  8
0
 10
41.138285247827618
 20
46.826744721761969
 30
0.0
  0
VERTEX
  5
508
  8
0
 10
41.09287782373822
 20
46.797269304439617
 30
0.0
  0
VERTEX
  5
509
  8
0
 10
41.04746157803504
 20
46.767916560897113
 30
0.0
  0
SEQEND
  5
50A
  8
0
  0
POLYLINE
  5
424
  8
0
 66
     1
 10
0.0
 20
0.0
 30
0.0
  0
VERTEX
  5
50B
  8
0
 10
34.018478137382893
 20
46.767916560897163
 30
0.0
  0
VERTEX
  5
50C
  8
0
 10
34.720329993885912
 20
46.623810627866533
 30
0.0
  0
VERTEX
  5
50D
  8
0
 10
35.413057815411648
 20
46.497006064580113
 30
0.0
  0
VERTEX
  5
50E
  8
0
 10
36.096911786588301
 20
46.389721572341777
 30
0.0
  0
VERTEX
  5
50F
  8
0
 10
36.768386720833632
 20
46.304855205308371
 30
0.0
  0
VERTEX
  5
510
  8
0
 10
37.412974370989517
 20
46.246529141107089
 30
0.0
  0
VERTEX
  5
511
  8
0
 10
38.025512761666818
 20
46.216695353413648
 30
0.0
  0
VERTEX
  5
512
  8
0
 10
38.606069416163109
 20
46.21645774325637
 30
0.0
  0
VERTEX
  5
513
  8
0
 10
39.145764502718023
 20
46.246118940916169
 30
0.0
  0
VERTEX
  5
514
  8
0
 10
39.634009675764311
 20
46.303997990698058
 30
0.0
  0
VERTEX
  5
515
  8
0
 10
40.07184807229315
 20
46.388158807327983
 30
0.0
  0
VERTEX
  5
516
  8
0
 10
40.456708566677818
 20
46.496166452186174
 30
0.0
  0
VERTEX
  5
517
  8
0
 10
40.78195324128022
 20
46.623636860607881
 30
0.0
  0
VERTEX
  5
518
  8
0
 10
41.04746157803504
 20
46.767916560897113
 30
0.0
  0
SEQEND
  5
519
  8
0
  0
POLYLINE
  5
425
  8
0
 66
     1
 10
0.0
 20
0.0
 30
0.0
  0
VERTEX
  5
51A
  8
0
 10
34.018478137382893
 20
46.767916560897163
 30
0.0
  0
VERTEX
  5
51B
  8
0
 10
33.882364738003353
 20
46.797269304439681
 30
0.0
  0
VERTEX
  5
51C
  8
0
 10
33.74627777717722
 20
46.826744721762019
 30
0.0
  0
VERTEX
  5
51D
  8
0
 10
33.610216768920552
 20
46.856339810424878
 30
0.0
  0
VERTEX
  5
51E
  8
0
 10
33.47418122724946
 20
46.886051567988993
 30
0.0
  0
SEQEND
  5
51F
  8
0
  0
POLYLINE
  5
426
  8
0
 66
     1
 10
0.0
 20
0.0
 30
0.0
  0
VERTEX
  5
520
  8
0
 10
33.47418122724946
 20
46.886051567988993
 30
0.0
  0
VERTEX
  5
521
  8
0
 10
33.06228203016186
 20
46.973654553409801
 30
0.0
  0
VERTEX
  5
522
  8
0
 10
32.657438249401899
 20
47.054895084847828
 30
0.0
  0
VERTEX
  5
523
  8
0
 10
32.25973855940056
 20
47.130149136133802
 30
0.0
  0
VERTEX
  5
524
  8
0
 10
31.87316460866505
 20
47.198980874903519
 30
0.0
  0
VERTEX
  5
525
  8
0
 10
31.50722942047042
 20
47.260034756666947
 30
0.0
  0
VERTEX
  5
526
  8
0
 10
31.162224717406229
 20
47.313608313350812
 30
0.0
  0
VERTEX
  5
527
  8
0
 10
30.840674201563921
 20
47.359548668730518
 30
0.0
  0
VERTEX
  5
528
  8
0
 10
30.55077575759152
 20
47.396919373839353
 30
0.0
  0
VERTEX
  5
529
  8
0
 10
30.29387491054257
 20
47.425795445692522
 30
0.0
  0
VERTEX
  5
52A
  8
0
 10
30.07141525825141
 20
47.44613968969341
 30
0.0
  0
VERTEX
  5
52B
  8
0
 10
29.887073519227791
 20
47.457643606825371
 30
0.0
  0
SEQEND
  5
52C
  8
0
  0
POLYLINE
  5
427
  8
0
 66
     1
 10
0.0
 20
0.0
 30
0.0
  0
VERTEX
  5
52D
  8
0
 10
29.685445137982811
 20
47.457643606825343
 30
0.0
  0
VERTEX
  5
52E
  8
0
 10
29.609835927015862
 20
47.446303069863717
 30
0.0
  0
VERTEX
  5
52F
  8
0
 10
29.57866223008979
 20
47.426203507513122
 30
0.0
  0
VERTEX
  5
530
  8
0
 10
29.591566407885178
 20
47.397302677810011
 30
0.0
  0
VERTEX
  5
531
  8
0
 10
29.648485701791081
 20
47.359786398669513
 30
0.0
  0
VERTEX
  5
532
  8
0
 10
29.747785943835101
 20
47.31433515656019
 30
0.0
  0
VERTEX
  5
533
  8
0
 10
29.889032499000201
 20
47.260757336044882
 30
0.0
  0
VERTEX
  5
534
  8
0
 10
30.07079873310434
 20
47.199296090492233
 30
0.0
  0
VERTEX
  5
535
  8
0
 10
30.288557988319688
 20
47.131087790318126
 30
0.0
  0
VERTEX
  5
536
  8
0
 10
30.541348430927339
 20
47.055995761101052
 30
0.0
  0
VERTEX
  5
537
  8
0
 10
30.827609727381098
 20
46.974092801576262
 30
0.0
  0
VERTEX
  5
538
  8
0
 10
31.14362096310731
 20
46.886051567989057
 30
0.0
  0
SEQEND
  5
539
  8
0
  0
POLYLINE
  5
428
  8
0
 66
     1
 10
0.0
 20
0.0
 30
0.0
  0
VERTEX
  5
53A
  8
0
 10
31.14362096310731
 20
46.886051567989057
 30
0.0
  0
VERTEX
  5
53B
  8
0
 10
31.251603776810601
 20
46.856339810424913
 30
0.0
  0
VERTEX
  5
53C
  8
0
 10
31.35960680547781
 20
46.826744721762019
 30
0.0
  0
VERTEX
  5
53D
  8
0
 10
31.467630434875129
 20
46.797269304439681
 30
0.0
  0
VERTEX
  5
53E
  8
0
 10
31.57567505076873
 20
46.767916560897163
 30
0.0
  0
SEQEND
  5
53F
  8
0
  0
POLYLINE
  5
429
  8
0
 66
     1
 10
0.0
 20
0.0
 30
0.0
  0
VERTEX
  5
540
  8
0
 10
58.42432494923127
 20
46.767916560897042
 30
0.0
  0
VERTEX
  5
541
  8
0
 10
58.532369565124888
 20
46.797269304439567
 30
0.0
  0
VERTEX
  5
542
  8
0
 10
58.640393194522233
 20
46.826744721761912
 30
0.0
  0
VERTEX
  5
543
  8
0
 10
58.748396223189452
 20
46.856339810424799
 30
0.0
  0
VERTEX
  5
544
  8
0
 10
58.85637903689269
 20
46.886051567988943
 30
0.0
  0
SEQEND
  5
545
  8
0
  0
POLYLINE
  5
42A
  8
0
 66
     1
 10
0.0
 20
0.0
 30
0.0
  0
VERTEX
  5
546
  8
0
 10
58.85637903689269
 20
46.886051567988943
 30
0.0
  0
VERTEX
  5
547
  8
0
 10
59.170893170586837
 20
46.973654250746328
 30
0.0
  0
VERTEX
  5
548
  8
0
 10
59.454917566013407
 20
47.054894779964307
 30
0.0
  0
VERTEX
  5
549
  8
0
 10
59.708349504149041
 20
47.130149039574214
 30
0.0
  0
VERTEX
  5
54A
  8
0
 10
59.928225797749619
 20
47.198980706392149
 30
0.0
  0
VERTEX
  5
54B
  8
0
 10
60.108956615698823
 20
47.260034538295031
 30
0.0
  0
VERTEX
  5
54C
  8
0
 10
60.250424151293529
 20
47.313608231384933
 30
0.0
  0
VERTEX
  5
54D
  8
0
 10
60.35106839569341
 20
47.359548616246308
 30
0.0
  0
VERTEX
  5
54E
  8
0
 10
60.408043154324758
 20
47.39691926354805
 30
0.0
  0
VERTEX
  5
54F
  8
0
 10
60.421240219686709
 20
47.425795377806793
 30
0.0
  0
VERTEX
  5
550
  8
0
 10
60.390190099787063
 20
47.446139668054279
 30
0.0
  0
VERTEX
  5
551
  8
0
 10
60.314554862017182
 20
47.457643606825279
 30
0.0
  0
SEQEND
  5
552
  8
0
  0
POLYLINE
  5
42B
  8
0
 66
     1
 10
0.0
 20
0.0
 30
0.0
  0
VERTEX
  5
553
  8
0
 10
60.11292648077233
 20
47.457643606825279
 30
0.0
  0
VERTEX
  5
554
  8
0
 10
59.930144087962169
 20
47.446303072546122
 30
0.0
  0
VERTEX
  5
555
  8
0
 10
59.709851322641619
 20
47.426203515908838
 30
0.0
  0
VERTEX
  5
556
  8
0
 10
59.452409456264469
 20
47.397302695019839
 30
0.0
  0
VERTEX
  5
557
  8
0
 10
59.161077626206009
 20
47.3597864272501
 30
0.0
  0
VERTEX
  5
558
  8
0
 10
58.842623792810961
 20
47.314335199136501
 30
0.0
  0
VERTEX
  5
559
  8
0
 10
58.497288717363119
 20
47.260757395569698
 30
0.0
  0
VERTEX
  5
55A
  8
0
 10
58.128660800186537
 20
47.199296168715982
 30
0.0
  0
VERTEX
  5
55B
  8
0
 10
57.745364897718098
 20
47.131087888936577
 30
0.0
  0
VERTEX
  5
55C
  8
0
 10
57.348332121059919
 20
47.055995886405611
 30
0.0
  0
VERTEX
  5
55D
  8
0
 10
56.939998470874791
 20
46.974092923204097
 30
0.0
  0
VERTEX
  5
55E
  8
0
 10
56.52581877275054
 20
46.886051567988943
 30
0.0
  0
SEQEND
  5
55F
  8
0
  0
POLYLINE
  5
42C
  8
0
 66
     1
 10
0.0
 20
0.0
 30
0.0
  0
VERTEX
  5
560
  8
0
 10
56.52581877275054
 20
46.886051567988943
 30
0.0
  0
VERTEX
  5
561
  8
0
 10
56.389783231079512
 20
46.856339810424799
 30
0.0
  0
VERTEX
  5
562
  8
0
 10
56.253722222822873
 20
46.826744721761941
 30
0.0
  0
VERTEX
  5
563
  8
0
 10
56.11763526199671
 20
46.797269304439617
 30
0.0
  0
VERTEX
  5
564
  8
0
 10
55.981521862617107
 20
46.767916560897113
 30
0.0
  0
SEQEND
  5
565
  8
0
  0
POLYLINE
  5
42D
  8
0
 66
     1
 10
0.0
 20
0.0
 30
0.0
  0
VERTEX
  5
566
  8
0
 10
48.952538421964952
 20
46.767916560897113
 30
0.0
  0
VERTEX
  5
567
  8
0
 10
49.217081629167097
 20
46.623810652969659
 30
0.0
  0
VERTEX
  5
568
  8
0
 10
49.539759702513592
 20
46.4970060908121
 30
0.0
  0
VERTEX
  5
569
  8
0
 10
49.921344874826133
 20
46.389721583635072
 30
0.0
  0
VERTEX
  5
56A
  8
0
 10
50.36071600461171
 20
46.304855209628073
 30
0.0
  0
VERTEX
  5
56B
  8
0
 10
50.849412563517689
 20
46.246529152162253
 30
0.0
  0
VERTEX
  5
56C
  8
0
 10
51.383310427868459
 20
46.216695356731798
 30
0.0
  0
VERTEX
  5
56D
  8
0
 10
51.963243908032652
 20
46.216457741094871
 30
0.0
  0
VERTEX
  5
56E
  8
0
 10
52.581116600592061
 20
46.246118932264011
 30
0.0
  0
VERTEX
  5
56F
  8
0
 10
53.224023344918614
 20
46.303997974305268
 30
0.0
  0
VERTEX
  5
570
  8
0
 10
53.891955752481579
 20
46.388158794322997
 30
0.0
  0
VERTEX
  5
571
  8
0
 10
54.581009708703363
 20
46.496166436623241
 30
0.0
  0
VERTEX
  5
572
  8
0
 10
55.278173314947033
 20
46.623636842795747
 30
0.0
  0
VERTEX
  5
573
  8
0
 10
55.981521862617107
 20
46.767916560897113
 30
0.0
  0
SEQEND
  5
574
  8
0
  0
POLYLINE
  5
42E
  8
0
 66
     1
 10
0.0
 20
0.0
 30
0.0
  0
VERTEX
  5
575
  8
0
 10
48.952538421964952
 20
46.767916560897113
 30
0.0
  0
VERTEX
  5
576
  8
0
 10
48.907122176261772
 20
46.797269304439617
 30
0.0
  0
VERTEX
  5
577
  8
0
 10
48.861714752172382
 20
46.826744721761969
 30
0.0
  0
VERTEX
  5
578
  8
0
 10
48.816315987541039
 20
46.856339810424821
 30
0.0
  0
VERTEX
  5
579
  8
0
 10
48.770925720212063
 20
46.886051567988943
 30
0.0
  0
SEQEND
  5
57A
  8
0
  0
POLYLINE
  5
42F
  8
0
 66
     1
 10
0.0
 20
0.0
 30
0.0
  0
VERTEX
  5
57B
  8
0
 10
48.770925720212063
 20
46.886051567988943
 30
0.0
  0
VERTEX
  5
57C
  8
0
 10
48.61335516869481
 20
46.973654524975132
 30
0.0
  0
VERTEX
  5
57D
  8
0
 10
48.41786527580534
 20
47.0548950562019
 30
0.0
  0
VERTEX
  5
57E
  8
0
 10
48.184433923698137
 20
47.130149127055709
 30
0.0
  0
VERTEX
  5
57F
  8
0
 10
47.914711815071591
 20
47.198980859072769
 30
0.0
  0
VERTEX
  5
580
  8
0
 10
47.615045045373478
 20
47.260034736150629
 30
0.0
  0
VERTEX
  5
581
  8
0
 10
47.285714276873918
 20
47.313608305648472
 30
0.0
  0
VERTEX
  5
582
  8
0
 10
46.92828023241033
 20
47.359548663800553
 30
0.0
  0
VERTEX
  5
583
  8
0
 10
46.551401898814753
 20
47.396919363477842
 30
0.0
  0
VERTEX
  5
584
  8
0
 10
46.157080687157318
 20
47.425795439314122
 30
0.0
  0
VERTEX
  5
585
  8
0
 10
45.746893169262961
 20
47.446139687660057
 30
0.0
  0
VERTEX
  5
586
  8
0
 10
45.326241573950817
 20
47.457643606825307
 30
0.0
  0
SEQEND
  5
587
  8
0
  0
POLYLINE
  5
430
  8
0
 66
     1
 10
0.0
 20
0.0
 30
0.0
  0
VERTEX
  5
588
  8
0
 10
44.673758426049289
 20
55.240000000000002
 30
0.0
  0
VERTEX
  5
589
  8
0
 10
44.254902699182267
 20
55.253569173124127
 30
0.0
  0
VERTEX
  5
58A
  8
0
 10
43.847449298926612
 20
55.277516002990211
 30
0.0
  0
VERTEX
  5
58B
  8
0
 10
43.451394713171709
 20
55.311739735637303
 30
0.0
  0
VERTEX
  5
58C
  8
0
 10
43.072041922441421
 20
55.355794612051064
 30
0.0
  0
VERTEX
  5
58D
  8
0
 10
42.717558978101351
 20
55.408620011260332
 30
0.0
  0
VERTEX
  5
58E
  8
0
 10
42.387576175997971
 20
55.470133195069558
 30
0.0
  0
VERTEX
  5
58F
  8
0
 10
42.085683451961458
 20
55.539671819943983
 30
0.0
  0
VERTEX
  5
590
  8
0
 10
41.81826924167391
 20
55.61562242326454
 30
0.0
  0
VERTEX
  5
591
  8
0
 10
41.585170790907817
 20
55.697796085353978
 30
0.0
  0
VERTEX
  5
592
  8
0
 10
41.38784541824748
 20
55.785710978956253
 30
0.0
  0
VERTEX
  5
593
  8
0
 10
41.22907427978781
 20
55.878267840209752
 30
0.0
  0
SEQEND
  5
594
  8
0
  0
POLYLINE
  5
431
  8
0
 66
     1
 10
0.0
 20
0.0
 30
0.0
  0
VERTEX
  5
595
  8
0
 10
48.770925720212063
 20
55.878267840209787
 30
0.0
  0
VERTEX
  5
596
  8
0
 10
48.613389425662341
 20
55.78617447936
 30
0.0
  0
VERTEX
  5
597
  8
0
 10
48.418075984499502
 20
55.69898147655411
 30
0.0
  0
VERTEX
  5
598
  8
0
 10
48.184987573403781
 20
55.616660962152793
 30
0.0
  0
VERTEX
  5
599
  8
0
 10
47.915637855819618
 20
55.54001232311515
 30
0.0
  0
VERTEX
  5
59A
  8
0
 10
47.616341680764023
 20
55.470930149315897
 30
0.0
  0
VERTEX
  5
59B
  8
0
 10
47.287415515136168
 20
55.409462955313302
 30
0.0
  0
VERTEX
  5
59C
  8
0
 10
46.930098836649421
 20
55.356076281448537
 30
0.0
  0
VERTEX
  5
59D
  8
0
 10
46.55300042603298
 20
55.312179200381081
 30
0.0
  0
VERTEX
  5
59E
  8
0
 10
46.15837857154424
 20
55.27799622703435
 30
0.0
  0
VERTEX
  5
59F
  8
0
 10
45.747674290711331
 20
55.25376335028681
 30
0.0
  0
VERTEX
  5
5A0
  8
0
 10
45.326241573950718
 20
55.239999999999981
 30
0.0
  0
SEQEND
  5
5A1
  8
0
  0
POLYLINE
  5
432
  8
0
 66
     1
 10
0.0
 20
0.0
 30
0.0
  0
VERTEX
  5
5A2
  8
0
 10
48.952538421964952
 20
55.99926225979965
 30
0.0
  0
VERTEX
  5
5A3
  8
0
 10
48.929814802042593
 20
55.98443787386185
 30
0.0
  0
VERTEX
  5
5A4
  8
0
 10
48.907097376367183
 20
55.969527630181737
 30
0.0
  0
VERTEX
  5
5A5
  8
0
 10
48.884386195272832
 20
55.95453161241462
 30
0.0
  0
VERTEX
  5
5A6
  8
0
 10
48.861681309093711
 20
55.93944990421582
 30
0.0
  0
VERTEX
  5
5A7
  8
0
 10
48.838982768163937
 20
55.924282589240619
 30
0.0
  0
VERTEX
  5
5A8
  8
0
 10
48.816290622817647
 20
55.909029751144352
 30
0.0
  0
VERTEX
  5
5A9
  8
0
 10
48.793604923388983
 20
55.893691473582301
 30
0.0
  0
VERTEX
  5
5AA
  8
0
 10
48.770925720212063
 20
55.878267840209787
 30
0.0
  0
SEQEND
  5
5AB
  8
0
  0
POLYLINE
  5
433
  8
0
 66
     1
 10
0.0
 20
0.0
 30
0.0
  0
VERTEX
  5
5AC
  8
0
 10
48.952538421964952
 20
55.99926225979965
 30
0.0
  0
VERTEX
  5
5AD
  8
0
 10
49.1783478010991
 20
56.124025811734299
 30
0.0
  0
VERTEX
  5
5AE
  8
0
 10
49.447931248821448
 20
56.23268430323261
 30
0.0
  0
VERTEX
  5
5AF
  8
0
 10
49.761762194418992
 20
56.324990236346991
 30
0.0
  0
VERTEX
  5
5B0
  8
0
 10
50.12017614930835
 20
56.400646091437238
 30
0.0
  0
VERTEX
  5
5B1
  8
0
 10
50.51917503668632
 20
56.45822844776486
 30
0.0
  0
VERTEX
  5
5B2
  8
0
 10
50.953210053381468
 20
56.496813910086978
 30
0.0
  0
VERTEX
  5
5B3
  8
0
 10
51.421291221104873
 20
56.516319872145317
 30
0.0
  0
VERTEX
  5
5B4
  8
0
 10
51.924334856018461
 20
56.516488954873303
 30
0.0
  0
VERTEX
  5
5B5
  8
0
 10
52.455604807942493
 20
56.497110904527659
 30
0.0
  0
VERTEX
  5
5B6
  8
0
 10
53.006528212900697
 20
56.458745557446917
 30
0.0
  0
VERTEX
  5
5B7
  8
0
 10
53.576669299830002
 20
56.401767249476933
 30
0.0
  0
VERTEX
  5
5B8
  8
0
 10
54.165634936651628
 20
56.326268723169818
 30
0.0
  0
VERTEX
  5
5B9
  8
0
 10
54.766762082361083
 20
56.233227342758958
 30
0.0
  0
VERTEX
  5
5BA
  8
0
 10
55.371965647770942
 20
56.124148377667836
 30
0.0
  0
VERTEX
  5
5BB
  8
0
 10
55.981521862617107
 20
55.999262259799792
 30
0.0
  0
SEQEND
  5
5BC
  8
0
  0
POLYLINE
  5
434
  8
0
 66
     1
 10
0.0
 20
0.0
 30
0.0
  0
VERTEX
  5
5BD
  8
0
 10
56.52581877275054
 20
55.878267840209787
 30
0.0
  0
VERTEX
  5
5BE
  8
0
 10
56.457848745905899
 20
55.893691473582301
 30
0.0
  0
VERTEX
  5
5BF
  8
0
 10
56.389859249664418
 20
55.909029751144352
 30
0.0
  0
VERTEX
  5
5C0
  8
0
 10
56.321850434878542
 20
55.924282589240619
 30
0.0
  0
VERTEX
  5
5C1
  8
0
 10
56.253822452400641
 20
55.93944990421582
 30
0.0
  0
VERTEX
  5
5C2
  8
0
 10
56.185775453083153
 20
55.95453161241462
 30
0.0
  0
VERTEX
  5
5C3
  8
0
 10
56.11770958777845
 20
55.969527630181723
 30
0.0
  0
VERTEX
  5
5C4
  8
0
 10
56.049625007338967
 20
55.984437873861822
 30
0.0
  0
VERTEX
  5
5C5
  8
0
 10
55.981521862617107
 20
55.9992622597996
 30
0.0
  0
SEQEND
  5
5C6
  8
0
  0
POLYLINE
  5
435
  8
0
 66
     1
 10
0.0
 20
0.0
 30
0.0
  0
VERTEX
  5
5C7
  8
0
 10
60.112926480772437
 20
55.239999999999952
 30
0.0
  0
VERTEX
  5
5C8
  8
0
 10
59.929769373143102
 20
55.25356917281254
 30
0.0
  0
VERTEX
  5
5C9
  8
0
 10
59.709054320220623
 20
55.277516002021223
 30
0.0
  0
VERTEX
  5
5CA
  8
0
 10
59.451187900392839
 20
55.311739733666137
 30
0.0
  0
VERTEX
  5
5CB
  8
0
 10
59.159587883299309
 20
55.355794608809163
 30
0.0
  0
VERTEX
  5
5CC
  8
0
 10
58.840999187068228
 20
55.408620006484568
 30
0.0
  0
VERTEX
  5
5CD
  8
0
 10
58.495667300957159
 20
55.47013318848235
 30
0.0
  0
VERTEX
  5
5CE
  8
0
 10
58.127366358016957
 20
55.5396718114213
 30
0.0
  0
VERTEX
  5
5CF
  8
0
 10
57.744507691273711
 20
55.615622412694307
 30
0.0
  0
VERTEX
  5
5D0
  8
0
 10
57.347856875615129
 20
55.697796072318987
 30
0.0
  0
VERTEX
  5
5D1
  8
0
 10
56.939858457669061
 20
55.785710966727947
 30
0.0
  0
VERTEX
  5
5D2
  8
0
 10
56.52581877275054
 20
55.878267840209702
 30
0.0
  0
SEQEND
  5
5D3
  8
0
  0
POLYLINE
  5
436
  8
0
 66
     1
 10
0.0
 20
0.0
 30
0.0
  0
VERTEX
  5
5D4
  8
0
 10
58.856379036892797
 20
55.87826784020973
 30
0.0
  0
VERTEX
  5
5D5
  8
0
 10
59.170842528998463
 20
55.786174769128223
 30
0.0
  0
VERTEX
  5
5D6
  8
0
 10
59.45465727514889
 20
55.698981777742148
 30
0.0
  0
VERTEX
  5
5D7
  8
0
 10
59.707827539619132
 20
55.616661066277459
 30
0.0
  0
VERTEX
  5
5D8
  8
0
 10
59.927574529935612
 20
55.540012493646003
 30
0.0
  0
VERTEX
  5
5D9
  8
0
 10
60.108291547695671
 20
55.470930379113703
 30
0.0
  0
VERTEX
  5
5DA
  8
0
 10
60.249826944796581
 20
55.409463044267142
 30
0.0
  0
VERTEX
  5
5DB
  8
0
 10
60.350678144877143
 20
55.356076332424912
 30
0.0
  0
VERTEX
  5
5DC
  8
0
 10
60.407897055379209
 20
55.312179320992179
 30
0.0
  0
VERTEX
  5
5DD
  8
0
 10
60.421269644374917
 20
55.277996305255961
 30
0.0
  0
VERTEX
  5
5DE
  8
0
 10
60.390292458148053
 20
55.253763375964262
 30
0.0
  0
VERTEX
  5
5DF
  8
0
 10
60.314554862017069
 20
55.239999999999917
 30
0.0
  0
SEQEND
  5
5E0
  8
0
  0
POLYLINE
  5
437
  8
0
 66
     1
 10
0.0
 20
0.0
 30
0.0
  0
VERTEX
  5
5E1
  8
0
 10
58.424324949231391
 20
55.9992622597996
 30
0.0
  0
VERTEX
  5
5E2
  8
0
 10
58.478384124493758
 20
55.984437873861793
 30
0.0
  0
VERTEX
  5
5E3
  8
0
 10
58.532428563728899
 20
55.969527630181688
 30
0.0
  0
VERTEX
  5
5E4
  8
0
 10
58.586458147192609
 20
55.95453161241457
 30
0.0
  0
VERTEX
  5
5E5
  8
0
 10
58.640472755140713
 20
55.939449904215763
 30
0.0
  0
VERTEX
  5
5E6
  8
0
 10
58.694472267828971
 20
55.924282589240562
 30
0.0
  0
VERTEX
  5
5E7
  8
0
 10
58.748456565513223
 20
55.909029751144288
 30
0.0
  0
VERTEX
  5
5E8
  8
0
 10
58.80242552844922
 20
55.89369147358223
 30
0.0
  0
VERTEX
  5
5E9
  8
0
 10
58.856379036892797
 20
55.87826784020973
 30
0.0
  0
SEQEND
  5
5EA
  8
0
  0
POLYLINE
  5
438
  8
0
 66
     1
 10
0.0
 20
0.0
 30
0.0
  0
VERTEX
  5
5EB
  8
0
 10
31.14362096310731
 20
55.878267840209837
 30
0.0
  0
VERTEX
  5
5EC
  8
0
 10
31.19757447155089
 20
55.893691473582351
 30
0.0
  0
VERTEX
  5
5ED
  8
0
 10
31.251543434486901
 20
55.909029751144402
 30
0.0
  0
VERTEX
  5
5EE
  8
0
 10
31.305527732171139
 20
55.924282589240669
 30
0.0
  0
VERTEX
  5
5EF
  8
0
 10
31.359527244859411
 20
55.93944990421587
 30
0.0
  0
VERTEX
  5
5F0
  8
0
 10
31.413541852807501
 20
55.954531612414691
 30
0.0
  0
VERTEX
  5
5F1
  8
0
 10
31.467571436271221
 20
55.969527630181801
 30
0.0
  0
VERTEX
  5
5F2
  8
0
 10
31.52161587550636
 20
55.984437873861907
 30
0.0
  0
VERTEX
  5
5F3
  8
0
 10
31.57567505076873
 20
55.9992622597997
 30
0.0
  0
SEQEND
  5
5F4
  8
0
  0
POLYLINE
  5
439
  8
0
 66
     1
 10
0.0
 20
0.0
 30
0.0
  0
VERTEX
  5
5F5
  8
0
 10
29.685445137982921
 20
55.240000000000073
 30
0.0
  0
VERTEX
  5
5F6
  8
0
 10
29.609735164699369
 20
55.253569176128757
 30
0.0
  0
VERTEX
  5
5F7
  8
0
 10
29.578630177695398
 20
55.277516012335667
 30
0.0
  0
VERTEX
  5
5F8
  8
0
 10
29.591721428045151
 20
55.311739754649459
 30
0.0
  0
VERTEX
  5
5F9
  8
0
 10
29.648868566949648
 20
55.355794643319491
 30
0.0
  0
VERTEX
  5
5FA
  8
0
 10
29.748374808845021
 20
55.408620057323638
 30
0.0
  0
VERTEX
  5
5FB
  8
0
 10
29.889766175316652
 20
55.470133258605159
 30
0.0
  0
VERTEX
  5
5FC
  8
0
 10
30.071487231053311
 20
55.539671902148093
 30
0.0
  0
VERTEX
  5
5FD
  8
0
 10
30.28907491229603
 20
55.615622525218242
 30
0.0
  0
VERTEX
  5
5FE
  8
0
 10
30.54166307107684
 20
55.697796211081616
 30
0.0
  0
VERTEX
  5
5FF
  8
0
 10
30.827707692390501
 20
55.7857110969031
 30
0.0
  0
VERTEX
  5
600
  8
0
 10
31.143620963106969
 20
55.878267840209787
 30
0.0
  0
SEQEND
  5
601
  8
0
  0
POLYLINE
  5
43A
  8
0
 66
     1
 10
0.0
 20
0.0
 30
0.0
  0
VERTEX
  5
602
  8
0
 10
33.474181227249566
 20
55.878267840209837
 30
0.0
  0
VERTEX
  5
603
  8
0
 10
33.062353846894389
 20
55.78617444931416
 30
0.0
  0
VERTEX
  5
604
  8
0
 10
32.657828757413682
 20
55.698981445321103
 30
0.0
  0
VERTEX
  5
605
  8
0
 10
32.26060267264949
 20
55.616660951348649
 30
0.0
  0
VERTEX
  5
606
  8
0
 10
31.874388204538452
 20
55.54001230543377
 30
0.0
  0
VERTEX
  5
607
  8
0
 10
31.508695840124219
 20
55.470930125487712
 30
0.0
  0
VERTEX
  5
608
  8
0
 10
31.163873336085889
 20
55.409462946087757
 30
0.0
  0
VERTEX
  5
609
  8
0
 10
30.842188421788212
 20
55.35607627616406
 30
0.0
  0
VERTEX
  5
60A
  8
0
 10
30.551909795489209
 20
55.312179187875437
 30
0.0
  0
VERTEX
  5
60B
  8
0
 10
30.29464761612493
 20
55.27799621892305
 30
0.0
  0
VERTEX
  5
60C
  8
0
 10
30.071795656827319
 20
55.253763347624037
 30
0.0
  0
VERTEX
  5
60D
  8
0
 10
29.88707351922767
 20
55.240000000000073
 30
0.0
  0
SEQEND
  5
60E
  8
0
  0
POLYLINE
  5
43B
  8
0
 66
     1
 10
0.0
 20
0.0
 30
0.0
  0
VERTEX
  5
60F
  8
0
 10
34.018478137382999
 20
55.9992622597997
 30
0.0
  0
VERTEX
  5
610
  8
0
 10
33.950374992661153
 20
55.984437873861907
 30
0.0
  0
VERTEX
  5
611
  8
0
 10
33.882290412221657
 20
55.969527630181801
 30
0.0
  0
VERTEX
  5
612
  8
0
 10
33.814224546916982
 20
55.954531612414691
 30
0.0
  0
VERTEX
  5
613
  8
0
 10
33.74617754759948
 20
55.93944990421587
 30
0.0
  0
VERTEX
  5
614
  8
0
 10
33.678149565121579
 20
55.924282589240669
 30
0.0
  0
VERTEX
  5
615
  8
0
 10
33.610140750335688
 20
55.909029751144402
 30
0.0
  0
VERTEX
  5
616
  8
0
 10
33.542151254094222
 20
55.893691473582351
 30
0.0
  0
VERTEX
  5
617
  8
0
 10
33.474181227249566
 20
55.878267840209837
 30
0.0
  0
SEQEND
  5
618
  8
0
  0
POLYLINE
  5
43C
  8
0
 66
     1
 10
0.0
 20
0.0
 30
0.0
  0
VERTEX
  5
619
  8
0
 10
34.018478137382999
 20
55.9992622597997
 30
0.0
  0
VERTEX
  5
61A
  8
0
 10
34.62694249683301
 20
56.12402583547464
 30
0.0
  0
VERTEX
  5
61B
  8
0
 10
35.229033369772473
 20
56.23268433064203
 30
0.0
  0
VERTEX
  5
61C
  8
0
 10
35.824694895737338
 20
56.324990253808487
 30
0.0
  0
VERTEX
  5
61D
  8
0
 10
36.413582796767948
 20
56.400646093307778
 30
0.0
  0
VERTEX
  5
61E
  8
0
 10
36.9876422588884
 20
56.458228454784198
 30
0.0
  0
VERTEX
  5
61F
  8
0
 10
37.538798936982062
 20
56.496813918499207
 30
0.0
  0
VERTEX
  5
620
  8
0
 10
38.066029063587081
 20
56.516319874412169
 30
0.0
  0
VERTEX
  5
621
  8
0
 10
38.569583193024179
 20
56.516488954231328
 30
0.0
  0
VERTEX
  5
622
  8
0
 10
39.042093277104591
 20
56.497110898541877
 30
0.0
  0
VERTEX
  5
623
  8
0
 10
39.476566263544917
 20
56.458745544232301
 30
0.0
  0
VERTEX
  5
624
  8
0
 10
39.873487566076037
 20
56.401767235254482
 30
0.0
  0
VERTEX
  5
625
  8
0
 10
40.232472428844929
 20
56.326268712438939
 30
0.0
  0
VERTEX
  5
626
  8
0
 10
40.549545931832597
 20
56.23322732694524
 30
0.0
  0
VERTEX
  5
627
  8
0
 10
40.820948901246851
 20
56.124148361036617
 30
0.0
  0
VERTEX
  5
628
  8
0
 10
41.047461578035708
 20
55.999262259799877
 30
0.0
  0
SEQEND
  5
629
  8
0
  0
POLYLINE
  5
43D
  8
0
 66
     1
 10
0.0
 20
0.0
 30
0.0
  0
VERTEX
  5
62A
  8
0
 10
41.229074279788037
 20
55.878267840209787
 30
0.0
  0
VERTEX
  5
62B
  8
0
 10
41.206395076611123
 20
55.893691473582301
 30
0.0
  0
VERTEX
  5
62C
  8
0
 10
41.183709377182453
 20
55.909029751144352
 30
0.0
  0
VERTEX
  5
62D
  8
0
 10
41.161017231836169
 20
55.924282589240647
 30
0.0
  0
VERTEX
  5
62E
  8
0
 10
41.138318690906381
 20
55.939449904215849
 30
0.0
  0
VERTEX
  5
62F
  8
0
 10
41.115613804727253
 20
55.954531612414648
 30
0.0
  0
VERTEX
  5
630
  8
0
 10
41.092902623632888
 20
55.969527630181773
 30
0.0
  0
VERTEX
  5
631
  8
0
 10
41.070185197957443
 20
55.984437873861872
 30
0.0
  0
VERTEX
  5
632
  8
0
 10
41.04746157803504
 20
55.99926225979965
 30
0.0
  0
SEQEND
  5
633
  8
0
  0
POLYLINE
  5
43E
  8
0
 66
     1
 10
0.0
 20
0.0
 30
0.0
  0
VERTEX
  5
634
  8
0
 10
131.143620963107
 20
55.87826784020973
 30
0.0
  0
VERTEX
  5
635
  8
0
 10
130.61014342788991
 20
55.719348906962551
 30
0.0
  0
VERTEX
  5
636
  8
0
 10
130.17329369071311
 20
55.575939493381661
 30
0.0
  0
VERTEX
  5
637
  8
0
 10
129.85518441147991
 20
55.456096638142498
 30
0.0
  0
VERTEX
  5
638
  8
0
 10
129.6619550512645
 20
55.363301906920242
 30
0.0
  0
VERTEX
  5
639
  8
0
 10
129.57781123929499
 20
55.287064390407551
 30
0.0
  0
SEQEND
  5
63A
  8
0
  0
POLYLINE
  5
43F
  8
0
 66
     1
 10
0.0
 20
0.0
 30
0.0
  0
VERTEX
  5
63B
  8
0
 10
131.5756750507685
 20
55.9992622597996
 30
0.0
  0
VERTEX
  5
63C
  8
0
 10
131.52161587550609
 20
55.984437873861793
 30
0.0
  0
VERTEX
  5
63D
  8
0
 10
131.46757143627099
 20
55.969527630181688
 30
0.0
  0
VERTEX
  5
63E
  8
0
 10
131.4135418528073
 20
55.95453161241457
 30
0.0
  0
VERTEX
  5
63F
  8
0
 10
131.35952724485909
 20
55.939449904215763
 30
0.0
  0
VERTEX
  5
640
  8
0
 10
131.3055277321709
 20
55.924282589240562
 30
0.0
  0
VERTEX
  5
641
  8
0
 10
131.25154343448659
 20
55.909029751144288
 30
0.0
  0
VERTEX
  5
642
  8
0
 10
131.19757447155061
 20
55.89369147358223
 30
0.0
  0
VERTEX
  5
643
  8
0
 10
131.143620963107
 20
55.87826784020973
 30
0.0
  0
SEQEND
  5
644
  8
0
  0
POLYLINE
  5
440
  8
0
 66
     1
 10
0.0
 20
0.0
 30
0.0
  0
VERTEX
  5
645
  8
0
 10
132.07969234604289
 20
56.133102403364028
 30
0.0
  0
VERTEX
  5
646
  8
0
 10
132.46848132905919
 20
56.229796906856023
 30
0.0
  0
VERTEX
  5
647
  8
0
 10
132.82664525687349
 20
56.312792823557693
 30
0.0
  0
VERTEX
  5
648
  8
0
 10
133.1540079758982
 20
56.382011359971422
 30
0.0
  0
VERTEX
  5
649
  8
0
 10
133.4502535145977
 20
56.437354434942449
 30
0.0
  0
VERTEX
  5
64A
  8
0
 10
133.71386130983529
 20
56.478557795875084
 30
0.0
  0
VERTEX
  5
64B
  8
0
 10
133.94346441734641
 20
56.505409376149167
 30
0.0
  0
VERTEX
  5
64C
  8
0
 10
134.13936780167251
 20
56.51790654387608
 30
0.0
  0
VERTEX
  5
64D
  8
0
 10
134.30110436104701
 20
56.515814354640582
 30
0.0
  0
VERTEX
  5
64E
  8
0
 10
134.4261196499051
 20
56.499028001859607
 30
0.0
  0
VERTEX
  5
64F
  8
0
 10
134.5133543644144
 20
56.467949632492342
 30
0.0
  0
VERTEX
  5
650
  8
0
 10
134.56342321747951
 20
56.422863298338541
 30
0.0
  0
VERTEX
  5
651
  8
0
 10
134.57635840099229
 20
56.363837029547113
 30
0.0
  0
VERTEX
  5
652
  8
0
 10
134.5519070973879
 20
56.291091505471201
 30
0.0
  0
VERTEX
  5
653
  8
0
 10
134.4906730872832
 20
56.20571856172571
 30
0.0
  0
VERTEX
  5
654
  8
0
 10
134.3934582222727
 20
56.108425174485603
 30
0.0
  0
VERTEX
  5
655
  8
0
 10
134.26050781873809
 20
55.999262259799821
 30
0.0
  0
SEQEND
  5
656
  8
0
  0
POLYLINE
  5
441
  8
0
 66
     1
 10
0.0
 20
0.0
 30
0.0
  0
VERTEX
  5
657
  8
0
 10
134.10572653005639
 20
55.878267840209787
 30
0.0
  0
VERTEX
  5
658
  8
0
 10
134.1250551136857
 20
55.893691473582301
 30
0.0
  0
VERTEX
  5
659
  8
0
 10
134.14438923381229
 20
55.909029751144352
 30
0.0
  0
VERTEX
  5
65A
  8
0
 10
134.16372884753821
 20
55.924282589240619
 30
0.0
  0
VERTEX
  5
65B
  8
0
 10
134.18307391196589
 20
55.93944990421582
 30
0.0
  0
VERTEX
  5
65C
  8
0
 10
134.2024243841974
 20
55.95453161241462
 30
0.0
  0
VERTEX
  5
65D
  8
0
 10
134.221780221335
 20
55.969527630181723
 30
0.0
  0
VERTEX
  5
65E
  8
0
 10
134.241141380481
 20
55.984437873861822
 30
0.0
  0
VERTEX
  5
65F
  8
0
 10
134.26050781873741
 20
55.9992622597996
 30
0.0
  0
SEQEND
  5
660
  8
0
  0
POLYLINE
  5
442
  8
0
 66
     1
 10
0.0
 20
0.0
 30
0.0
  0
VERTEX
  5
661
  8
0
 10
135.33345619145339
 20
55.240000000000002
 30
0.0
  0
VERTEX
  5
662
  8
0
 10
135.02779778587819
 20
55.253569173032837
 30
0.0
  0
VERTEX
  5
663
  8
0
 10
134.7567537940887
 20
55.277516002706278
 30
0.0
  0
VERTEX
  5
664
  8
0
 10
134.52006942469069
 20
55.31173973505971
 30
0.0
  0
VERTEX
  5
665
  8
0
 10
134.3209353599741
 20
55.355794611101139
 30
0.0
  0
VERTEX
  5
666
  8
0
 10
134.16335106273041
 20
55.40862000986106
 30
0.0
  0
VERTEX
  5
667
  8
0
 10
134.04679510812511
 20
55.470133193139588
 30
0.0
  0
VERTEX
  5
668
  8
0
 10
133.97252488891689
 20
55.53967181744693
 30
0.0
  0
VERTEX
  5
669
  8
0
 10
133.94173035115699
 20
55.615622420167568
 30
0.0
  0
VERTEX
  5
66A
  8
0
 10
133.95377558952211
 20
55.697796081534882
 30
0.0
  0
VERTEX
  5
66B
  8
0
 10
134.00860710109541
 20
55.785710975373462
 30
0.0
  0
VERTEX
  5
66C
  8
0
 10
134.10572653005619
 20
55.878267840209702
 30
0.0
  0
SEQEND
  5
66D
  8
0
  0
POLYLINE
  5
443
  8
0
 66
     1
 10
0.0
 20
0.0
 30
0.0
  0
VERTEX
  5
66E
  8
0
 10
140.65584932731659
 20
55.9992622597996
 30
0.0
  0
VERTEX
  5
66F
  8
0
 10
140.59971529967831
 20
55.984437873861822
 30
0.0
  0
VERTEX
  5
670
  8
0
 10
140.54359657365259
 20
55.969527630181723
 30
0.0
  0
VERTEX
  5
671
  8
0
 10
140.4874932735797
 20
55.95453161241462
 30
0.0
  0
VERTEX
  5
672
  8
0
 10
140.43140552379961
 20
55.93944990421582
 30
0.0
  0
VERTEX
  5
673
  8
0
 10
140.37533344865261
 20
55.924282589240619
 30
0.0
  0
VERTEX
  5
674
  8
0
 10
140.31927717247859
 20
55.909029751144352
 30
0.0
  0
VERTEX
  5
675
  8
0
 10
140.2632368196179
 20
55.893691473582301
 30
0.0
  0
VERTEX
  5
676
  8
0
 10
140.2072125144106
 20
55.878267840209787
 30
0.0
  0
SEQEND
  5
677
  8
0
  0
POLYLINE
  5
444
  8
0
 66
     1
 10
0.0
 20
0.0
 30
0.0
  0
VERTEX
  5
678
  8
0
 10
140.65584932731659
 20
55.9992622597996
 30
0.0
  0
VERTEX
  5
679
  8
0
 10
141.17145857237529
 20
56.124025766666023
 30
0.0
  0
VERTEX
  5
67A
  8
0
 10
141.71018286853521
 20
56.232684259755068
 30
0.0
  0
VERTEX
  5
67B
  8
0
 10
142.2722803126878
 20
56.324990224604193
 30
0.0
  0
VERTEX
  5
67C
  8
0
 10
142.8577454596124
 20
56.40064612115728
 30
0.0
  0
VERTEX
  5
67D
  8
0
 10
143.45912841109379
 20
56.45822846089856
 30
0.0
  0
VERTEX
  5
67E
  8
0
 10
144.0680102268914
 20
56.496813911156202
 30
0.0
  0
VERTEX
  5
67F
  8
0
 10
144.68314663375699
 20
56.516319875325877
 30
0.0
  0
VERTEX
  5
680
  8
0
 10
145.30525863694751
 20
56.516488946592517
 30
0.0
  0
VERTEX
  5
681
  8
0
 10
145.9256286520245
 20
56.4971108862118
 30
0.0
  0
VERTEX
  5
682
  8
0
 10
146.53463706381041
 20
56.458745529671461
 30
0.0
  0
VERTEX
  5
683
  8
0
 10
147.1323146734575
 20
56.401767191978358
 30
0.0
  0
VERTEX
  5
684
  8
0
 10
147.71818051520509
 20
56.326268620944262
 30
0.0
  0
VERTEX
  5
685
  8
0
 10
148.28565959689979
 20
56.233227237379737
 30
0.0
  0
VERTEX
  5
686
  8
0
 10
148.82743195727019
 20
56.124148311665692
 30
0.0
  0
VERTEX
  5
687
  8
0
 10
149.3441506726835
 20
55.99926225980002
 30
0.0
  0
SEQEND
  5
688
  8
0
  0
POLYLINE
  5
445
  8
0
 66
     1
 10
0.0
 20
0.0
 30
0.0
  0
VERTEX
  5
689
  8
0
 10
149.792787485589
 20
55.878267840209837
 30
0.0
  0
VERTEX
  5
68A
  8
0
 10
149.7367631803817
 20
55.893691473582351
 30
0.0
  0
VERTEX
  5
68B
  8
0
 10
149.68072282752101
 20
55.909029751144402
 30
0.0
  0
VERTEX
  5
68C
  8
0
 10
149.6246665513471
 20
55.924282589240669
 30
0.0
  0
VERTEX
  5
68D
  8
0
 10
149.56859447619999
 20
55.93944990421587
 30
0.0
  0
VERTEX
  5
68E
  8
0
 10
149.51250672642001
 20
55.954531612414691
 30
0.0
  0
VERTEX
  5
68F
  8
0
 10
149.45640342634701
 20
55.969527630181773
 30
0.0
  0
VERTEX
  5
690
  8
0
 10
149.40028470032129
 20
55.984437873861872
 30
0.0
  0
VERTEX
  5
691
  8
0
 10
149.34415067268301
 20
55.99926225979965
 30
0.0
  0
SEQEND
  5
692
  8
0
  0
POLYLINE
  5
446
  8
0
 66
     1
 10
0.0
 20
0.0
 30
0.0
  0
VERTEX
  5
693
  8
0
 10
155.8942734699433
 20
55.878267840209837
 30
0.0
  0
VERTEX
  5
694
  8
0
 10
155.99126041688581
 20
55.786174470557
 30
0.0
  0
VERTEX
  5
695
  8
0
 10
156.04595721976719
 20
55.698981467403371
 30
0.0
  0
VERTEX
  5
696
  8
0
 10
156.0583680844301
 20
55.616660958987552
 30
0.0
  0
VERTEX
  5
697
  8
0
 10
156.02771200838151
 20
55.540012317934753
 30
0.0
  0
VERTEX
  5
698
  8
0
 10
155.95442611388691
 20
55.470930142334602
 30
0.0
  0
VERTEX
  5
699
  8
0
 10
155.83861202856369
 20
55.409462952610362
 30
0.0
  0
VERTEX
  5
69A
  8
0
 10
155.68010757207949
 20
55.356076279900243
 30
0.0
  0
VERTEX
  5
69B
  8
0
 10
155.48241117044469
 20
55.312179196717103
 30
0.0
  0
VERTEX
  5
69C
  8
0
 10
155.24678610350929
 20
55.27799622465789
 30
0.0
  0
VERTEX
  5
69D
  8
0
 10
154.97381194468261
 20
55.253763349506698
 30
0.0
  0
VERTEX
  5
69E
  8
0
 10
154.66654380854601
 20
55.240000000000073
 30
0.0
  0
SEQEND
  5
69F
  8
0
  0
POLYLINE
  5
447
  8
0
 66
     1
 10
0.0
 20
0.0
 30
0.0
  0
VERTEX
  5
6A0
  8
0
 10
155.73949218126219
 20
55.99926225979965
 30
0.0
  0
VERTEX
  5
6A1
  8
0
 10
155.75885861951861
 20
55.984437873861872
 30
0.0
  0
VERTEX
  5
6A2
  8
0
 10
155.77821977866461
 20
55.969527630181773
 30
0.0
  0
VERTEX
  5
6A3
  8
0
 10
155.7975756158022
 20
55.954531612414691
 30
0.0
  0
VERTEX
  5
6A4
  8
0
 10
155.81692608803371
 20
55.93944990421587
 30
0.0
  0
VERTEX
  5
6A5
  8
0
 10
155.83627115246131
 20
55.924282589240669
 30
0.0
  0
VERTEX
  5
6A6
  8
0
 10
155.85561076618731
 20
55.909029751144402
 30
0.0
  0
VERTEX
  5
6A7
  8
0
 10
155.8749448863139
 20
55.893691473582351
 30
0.0
  0
VERTEX
  5
6A8
  8
0
 10
155.89427346994319
 20
55.878267840209837
 30
0.0
  0
SEQEND
  5
6A9
  8
0
  0
POLYLINE
  5
448
  8
0
 66
     1
 10
0.0
 20
0.0
 30
0.0
  0
VERTEX
  5
6AA
  8
0
 10
155.73949218126219
 20
55.99926225979965
 30
0.0
  0
VERTEX
  5
6AB
  8
0
 10
155.59609338092761
 20
56.117748350029302
 30
0.0
  0
VERTEX
  5
6AC
  8
0
 10
155.49540825271339
 20
56.221820515396281
 30
0.0
  0
VERTEX
  5
6AD
  8
0
 10
155.43786740827301
 20
56.31126894188597
 30
0.0
  0
VERTEX
  5
6AE
  8
0
 10
155.423902355613
 20
56.38588280743263
 30
0.0
  0
VERTEX
  5
6AF
  8
0
 10
155.45437597447341
 20
56.444649192816591
 30
0.0
  0
VERTEX
  5
6B0
  8
0
 10
155.5291582418082
 20
56.486496079315373
 30
0.0
  0
VERTEX
  5
6B1
  8
0
 10
155.6476254562229
 20
56.511250986747001
 30
0.0
  0
VERTEX
  5
6B2
  8
0
 10
155.8101746605393
 20
56.518816896209209
 30
0.0
  0
VERTEX
  5
6B3
  8
0
 10
156.01695627511589
 20
56.508865369307728
 30
0.0
  0
VERTEX
  5
6B4
  8
0
 10
156.2636274449053
 20
56.481623031035241
 30
0.0
  0
VERTEX
  5
6B5
  8
0
 10
156.54848781732559
 20
56.437587943392167
 30
0.0
  0
VERTEX
  5
6B6
  8
0
 10
156.87131571557481
 20
56.37692764044828
 30
0.0
  0
VERTEX
  5
6B7
  8
0
 10
157.23200960106729
 20
56.299734823150033
 30
0.0
  0
VERTEX
  5
6B8
  8
0
 10
157.63035042249589
 20
56.206109301621503
 30
0.0
  0
SEQEND
  5
6B9
  8
0
  0
POLYLINE
  5
449
  8
0
 66
     1
 10
0.0
 20
0.0
 30
0.0
  0
VERTEX
  5
6BA
  8
0
 10
160.42218876070461
 20
55.286852891662129
 30
0.0
  0
VERTEX
  5
6BB
  8
0
 10
160.3288464921996
 20
55.367948282670312
 30
0.0
  0
VERTEX
  5
6BC
  8
0
 10
160.13848793543141
 20
55.458772958527113
 30
0.0
  0
VERTEX
  5
6BD
  8
0
 10
159.82639857786549
 20
55.576001400947384
 30
0.0
  0
VERTEX
  5
6BE
  8
0
 10
159.38992088013359
 20
55.719340206168908
 30
0.0
  0
VERTEX
  5
6BF
  8
0
 10
158.85637903689249
 20
55.878267840209787
 30
0.0
  0
SEQEND
  5
6C0
  8
0
  0
POLYLINE
  5
44A
  8
0
 66
     1
 10
0.0
 20
0.0
 30
0.0
  0
VERTEX
  5
6C1
  8
0
 10
154.13867385335089
 20
55.240000000000073
 30
0.0
  0
VERTEX
  5
6C2
  8
0
 10
153.76660944180799
 20
55.253569173912773
 30
0.0
  0
VERTEX
  5
6C3
  8
0
 10
153.3783799667855
 20
55.277516005443118
 30
0.0
  0
VERTEX
  5
6C4
  8
0
 10
152.97423453705119
 20
55.311739740627502
 30
0.0
  0
VERTEX
  5
6C5
  8
0
 10
152.55956287483639
 20
55.355794620258138
 30
0.0
  0
VERTEX
  5
6C6
  8
0
 10
152.14358170173901
 20
55.408620023350721
 30
0.0
  0
VERTEX
  5
6C7
  8
0
 10
151.72621424860981
 20
55.470133211745967
 30
0.0
  0
VERTEX
  5
6C8
  8
0
 10
151.31201176322261
 20
55.539671841520352
 30
0.0
  0
VERTEX
  5
6C9
  8
0
 10
150.91012100529309
 20
55.615622450024659
 30
0.0
  0
VERTEX
  5
6CA
  8
0
 10
150.52091453752371
 20
55.697796118354177
 30
0.0
  0
VERTEX
  5
6CB
  8
0
 10
150.14680388871531
 20
55.785711009914223
 30
0.0
  0
VERTEX
  5
6CC
  8
0
 10
149.79278748558889
 20
55.878267840209787
 30
0.0
  0
SEQEND
  5
6CD
  8
0
  0
POLYLINE
  5
44B
  8
0
 66
     1
 10
0.0
 20
0.0
 30
0.0
  0
VERTEX
  5
6CE
  8
0
 10
140.2072125144106
 20
55.878267840209787
 30
0.0
  0
VERTEX
  5
6CF
  8
0
 10
139.85532680227499
 20
55.786174555423003
 30
0.0
  0
VERTEX
  5
6D0
  8
0
 10
139.4846062572941
 20
55.69898155561998
 30
0.0
  0
VERTEX
  5
6D1
  8
0
 10
139.0950502002465
 20
55.616660989497937
 30
0.0
  0
VERTEX
  5
6D2
  8
0
 10
138.6898893886025
 20
55.540012367877353
 30
0.0
  0
VERTEX
  5
6D3
  8
0
 10
138.27890402388289
 20
55.470930209638027
 30
0.0
  0
VERTEX
  5
6D4
  8
0
 10
137.86250417629779
 20
55.409462978666738
 30
0.0
  0
VERTEX
  5
6D5
  8
0
 10
137.4428580560643
 20
55.356076294827602
 30
0.0
  0
VERTEX
  5
6D6
  8
0
 10
137.0303966135431
 20
55.312179232040307
 30
0.0
  0
VERTEX
  5
6D7
  8
0
 10
136.62751003839389
 20
55.277996247568268
 30
0.0
  0
VERTEX
  5
6D8
  8
0
 10
136.23595055844501
 20
55.253763357027701
 30
0.0
  0
VERTEX
  5
6D9
  8
0
 10
135.86132614664899
 20
55.240000000000002
 30
0.0
  0
SEQEND
  5
6DA
  8
0
  0
POLYLINE
  5
44C
  8
0
 66
     1
 10
0.0
 20
0.0
 30
0.0
  0
VERTEX
  5
6DB
  8
0
 10
160.42218876070461
 20
47.418181686986259
 30
0.0
  0
VERTEX
  5
6DC
  8
0
 10
160.3286866027469
 20
47.349050109430799
 30
0.0
  0
VERTEX
  5
6DD
  8
0
 10
160.13817933424511
 20
47.270386422057008
 30
0.0
  0
VERTEX
  5
6DE
  8
0
 10
159.82669837529991
 20
47.166686736268701
 30
0.0
  0
VERTEX
  5
6DF
  8
0
 10
159.3899881226136
 20
47.036062555216319
 30
0.0
  0
VERTEX
  5
6E0
  8
0
 10
158.8563790368926
 20
46.886051567989057
 30
0.0
  0
SEQEND
  5
6E1
  8
0
  0
POLYLINE
  5
44D
  8
0
 66
     1
 10
0.0
 20
0.0
 30
0.0
  0
VERTEX
  5
6E2
  8
0
 10
158.8563790368926
 20
46.886051567989057
 30
0.0
  0
VERTEX
  5
6E3
  8
0
 10
158.7483962231893
 20
46.856339810424913
 30
0.0
  0
VERTEX
  5
6E4
  8
0
 10
158.64039319452209
 20
46.826744721762019
 30
0.0
  0
VERTEX
  5
6E5
  8
0
 10
158.5323695651247
 20
46.797269304439681
 30
0.0
  0
VERTEX
  5
6E6
  8
0
 10
158.42432494923111
 20
46.767916560897163
 30
0.0
  0
SEQEND
  5
6E7
  8
0
  0
POLYLINE
  5
44E
  8
0
 66
     1
 10
0.0
 20
0.0
 30
0.0
  0
VERTEX
  5
6E8
  8
0
 10
155.73949218126231
 20
46.767916560897163
 30
0.0
  0
VERTEX
  5
6E9
  8
0
 10
155.59715769477029
 20
46.649579516001502
 30
0.0
  0
VERTEX
  5
6EA
  8
0
 10
155.49684742477919
 20
46.542389439219498
 30
0.0
  0
VERTEX
  5
6EB
  8
0
 10
155.43889263959841
 20
46.447536394134858
 30
0.0
  0
VERTEX
  5
6EC
  8
0
 10
155.42362460753699
 20
46.366210444331237
 30
0.0
  0
VERTEX
  5
6ED
  8
0
 10
155.45186091952709
 20
46.300402321965407
 30
0.0
  0
VERTEX
  5
6EE
  8
0
 10
155.52360812642081
 20
46.252277410570542
 30
0.0
  0
VERTEX
  5
6EF
  8
0
 10
155.6382234085481
 20
46.222899002363476
 30
0.0
  0
VERTEX
  5
6F0
  8
0
 10
155.79605560909951
 20
46.212789257266017
 30
0.0
  0
VERTEX
  5
6F1
  8
0
 10
155.99733528023381
 20
46.222580137046009
 30
0.0
  0
VERTEX
  5
6F2
  8
0
 10
156.23881618710041
 20
46.251853090968659
 30
0.0
  0
VERTEX
  5
6F3
  8
0
 10
156.51742039193959
 20
46.299591851370757
 30
0.0
  0
VERTEX
  5
6F4
  8
0
 10
156.83310422622461
 20
46.364748065488442
 30
0.0
  0
VERTEX
  5
6F5
  8
0
 10
157.5700177224515
 20
46.541889088646712
 30
0.0
  0
VERTEX
  5
6F6
  8
0
 10
158.42432494923119
 20
46.767916560897163
 30
0.0
  0
SEQEND
  5
6F7
  8
0
  0
POLYLINE
  5
44F
  8
0
 66
     1
 10
0.0
 20
0.0
 30
0.0
  0
VERTEX
  5
6F8
  8
0
 10
155.73949218126219
 20
46.767916560897163
 30
0.0
  0
VERTEX
  5
6F9
  8
0
 10
155.77819864269989
 20
46.797269304439681
 30
0.0
  0
VERTEX
  5
6FA
  8
0
 10
155.81689758582669
 20
46.82674472176199
 30
0.0
  0
VERTEX
  5
6FB
  8
0
 10
155.8555891488416
 20
46.856339810424849
 30
0.0
  0
VERTEX
  5
6FC
  8
0
 10
155.8942734699433
 20
46.886051567988993
 30
0.0
  0
SEQEND
  5
6FD
  8
0
  0
POLYLINE
  5
450
  8
0
 66
     1
 10
0.0
 20
0.0
 30
0.0
  0
VERTEX
  5
6FE
  8
0
 10
155.8942734699433
 20
46.886051567988993
 30
0.0
  0
VERTEX
  5
6FF
  8
0
 10
155.9912705448609
 20
46.973654533306131
 30
0.0
  0
VERTEX
  5
700
  8
0
 10
156.0459878589073
 20
47.05489506459471
 30
0.0
  0
VERTEX
  5
701
  8
0
 10
156.05834848836579
 20
47.130149129715363
 30
0.0
  0
VERTEX
  5
702
  8
0
 10
156.02754219105441
 20
47.198980863711022
 30
0.0
  0
VERTEX
  5
703
  8
0
 10
155.95403577730281
 20
47.26003474216165
 30
0.0
  0
VERTEX
  5
704
  8
0
 10
155.8379296939766
 20
47.313608307905149
 30
0.0
  0
VERTEX
  5
705
  8
0
 10
155.6792248050491
 20
47.359548665245029
 30
0.0
  0
VERTEX
  5
706
  8
0
 10
155.48151351894799
 20
47.39691936651365
 30
0.0
  0
VERTEX
  5
707
  8
0
 10
155.24596578110359
 20
47.425795441182878
 30
0.0
  0
VERTEX
  5
708
  8
0
 10
154.9732659241302
 20
47.446139688255784
 30
0.0
  0
VERTEX
  5
709
  8
0
 10
154.66654380854629
 20
47.457643606825307
 30
0.0
  0
SEQEND
  5
70A
  8
0
  0
POLYLINE
  5
451
  8
0
 66
     1
 10
0.0
 20
0.0
 30
0.0
  0
VERTEX
  5
70B
  8
0
 10
154.13867385335061
 20
47.457643606825343
 30
0.0
  0
VERTEX
  5
70C
  8
0
 10
153.76731650588499
 20
47.446303071656267
 30
0.0
  0
VERTEX
  5
70D
  8
0
 10
153.37970159768781
 20
47.426203513123561
 30
0.0
  0
VERTEX
  5
70E
  8
0
 10
152.97605603894041
 20
47.397302689310457
 30
0.0
  0
VERTEX
  5
70F
  8
0
 10
152.5615904694456
 20
47.359786417768412
 30
0.0
  0
VERTEX
  5
710
  8
0
 10
152.1456215115588
 20
47.31433518501165
 30
0.0
  0
VERTEX
  5
711
  8
0
 10
151.7281040893765
 20
47.260757375822124
 30
0.0
  0
VERTEX
  5
712
  8
0
 10
151.31341772967369
 20
47.199296142764972
 30
0.0
  0
VERTEX
  5
713
  8
0
 10
150.9109910867362
 20
47.131087856219523
 30
0.0
  0
VERTEX
  5
714
  8
0
 10
150.52136887727301
 20
47.05599584483528
 30
0.0
  0
VERTEX
  5
715
  8
0
 10
150.14693247897529
 20
46.974092882853512
 30
0.0
  0
VERTEX
  5
716
  8
0
 10
149.792787485589
 20
46.886051567988993
 30
0.0
  0
SEQEND
  5
717
  8
0
  0
POLYLINE
  5
452
  8
0
 66
     1
 10
0.0
 20
0.0
 30
0.0
  0
VERTEX
  5
718
  8
0
 10
149.79278748558909
 20
46.886051567988993
 30
0.0
  0
VERTEX
  5
719
  8
0
 10
149.68066016919059
 20
46.856339810424849
 30
0.0
  0
VERTEX
  5
71A
  8
0
 10
149.56851186195499
 20
46.82674472176199
 30
0.0
  0
VERTEX
  5
71B
  8
0
 10
149.4563421633099
 20
46.797269304439652
 30
0.0
  0
VERTEX
  5
71C
  8
0
 10
149.34415067268301
 20
46.767916560897113
 30
0.0
  0
SEQEND
  5
71D
  8
0
  0
POLYLINE
  5
453
  8
0
 66
     1
 10
0.0
 20
0.0
 30
0.0
  0
VERTEX
  5
71E
  8
0
 10
140.65584932731659
 20
46.767916560897113
 30
0.0
  0
VERTEX
  5
71F
  8
0
 10
141.25311402592729
 20
46.62381069960955
 30
0.0
  0
VERTEX
  5
720
  8
0
 10
141.88066936910249
 20
46.497006127965051
 30
0.0
  0
VERTEX
  5
721
  8
0
 10
142.5391472840102
 20
46.389721576147792
 30
0.0
  0
VERTEX
  5
722
  8
0
 10
143.22568807217891
 20
46.304855184730307
 30
0.0
  0
VERTEX
  5
723
  8
0
 10
143.9260959602021
 20
46.246529152718693
 30
0.0
  0
VERTEX
  5
724
  8
0
 10
144.63463269270471
 20
46.216695353778682
 30
0.0
  0
VERTEX
  5
725
  8
0
 10
145.3518553885699
 20
46.216457748451973
 30
0.0
  0
VERTEX
  5
726
  8
0
 10
146.06727150835911
 20
46.246118954150738
 30
0.0
  0
VERTEX
  5
727
  8
0
 10
146.76636185063469
 20
46.303998012435642
 30
0.0
  0
VERTEX
  5
728
  8
0
 10
147.44976606381411
 20
46.388158881384179
 30
0.0
  0
VERTEX
  5
729
  8
0
 10
148.1134816950383
 20
46.496166546482243
 30
0.0
  0
VERTEX
  5
72A
  8
0
 10
148.74536448980771
 20
46.623636914945777
 30
0.0
  0
VERTEX
  5
72B
  8
0
 10
149.34415067268301
 20
46.767916560897163
 30
0.0
  0
SEQEND
  5
72C
  8
0
  0
POLYLINE
  5
454
  8
0
 66
     1
 10
0.0
 20
0.0
 30
0.0
  0
VERTEX
  5
72D
  8
0
 10
140.65584932731659
 20
46.767916560897113
 30
0.0
  0
VERTEX
  5
72E
  8
0
 10
140.54365783668979
 20
46.797269304439617
 30
0.0
  0
VERTEX
  5
72F
  8
0
 10
140.4314881380447
 20
46.826744721761969
 30
0.0
  0
VERTEX
  5
730
  8
0
 10
140.3193398308091
 20
46.856339810424821
 30
0.0
  0
VERTEX
  5
731
  8
0
 10
140.20721251441071
 20
46.886051567988943
 30
0.0
  0
SEQEND
  5
732
  8
0
  0
POLYLINE
  5
455
  8
0
 66
     1
 10
0.0
 20
0.0
 30
0.0
  0
VERTEX
  5
733
  8
0
 10
140.20721251441071
 20
46.886051567988943
 30
0.0
  0
VERTEX
  5
734
  8
0
 10
139.85526124633711
 20
46.973654452991042
 30
0.0
  0
VERTEX
  5
735
  8
0
 10
139.48423468183381
 20
47.054894983685521
 30
0.0
  0
VERTEX
  5
736
  8
0
 10
139.0941739629142
 20
47.130149104080061
 30
0.0
  0
VERTEX
  5
737
  8
0
 10
138.68856084224299
 20
47.198980818995828
 30
0.0
  0
VERTEX
  5
738
  8
0
 10
138.27719635366259
 20
47.260034684213032
 30
0.0
  0
VERTEX
  5
739
  8
0
 10
137.86043384421239
 20
47.313608286151322
 30
0.0
  0
VERTEX
  5
73A
  8
0
 10
137.4407982694018
 20
47.359548651319358
 30
0.0
  0
VERTEX
  5
73B
  8
0
 10
137.02870778636159
 20
47.39691933724697
 30
0.0
  0
VERTEX
  5
73C
  8
0
 10
136.62623032445259
 20
47.425795423167557
 30
0.0
  0
VERTEX
  5
73D
  8
0
 10
136.2352326910767
 20
47.446139682513
 30
0.0
  0
VERTEX
  5
73E
  8
0
 10
135.86132614664919
 20
47.457643606825307
 30
0.0
  0
SEQEND
  5
73F
  8
0
  0
POLYLINE
  5
456
  8
0
 66
     1
 10
0.0
 20
0.0
 30
0.0
  0
VERTEX
  5
740
  8
0
 10
135.33345619145331
 20
47.457643606825279
 30
0.0
  0
VERTEX
  5
741
  8
0
 10
135.0283355371632
 20
47.446303072367982
 30
0.0
  0
VERTEX
  5
742
  8
0
 10
134.75760265847029
 20
47.426203515351233
 30
0.0
  0
VERTEX
  5
743
  8
0
 10
134.52104015408989
 20
47.397302693876867
 30
0.0
  0
VERTEX
  5
744
  8
0
 10
134.32180561745099
 20
47.359786425351928
 30
0.0
  0
VERTEX
  5
745
  8
0
 10
134.1640228709341
 20
47.314335196308832
 30
0.0
  0
VERTEX
  5
746
  8
0
 10
134.04722942058169
 20
47.260757391616409
 30
0.0
  0
VERTEX
  5
747
  8
0
 10
133.97270533075411
 20
47.199296163520813
 30
0.0
  0
VERTEX
  5
748
  8
0
 10
133.9417511740121
 20
47.131087882386872
 30
0.0
  0
VERTEX
  5
749
  8
0
 10
133.9537417546079
 20
47.055995878083557
 30
0.0
  0
VERTEX
  5
74A
  8
0
 10
134.00858861387809
 20
46.974092915126249
 30
0.0
  0
VERTEX
  5
74B
  8
0
 10
134.10572653005639
 20
46.886051567988943
 30
0.0
  0
SEQEND
  5
74C
  8
0
  0
POLYLINE
  5
457
  8
0
 66
     1
 10
0.0
 20
0.0
 30
0.0
  0
VERTEX
  5
74D
  8
0
 10
134.10572653005639
 20
46.886051567988943
 30
0.0
  0
VERTEX
  5
74E
  8
0
 10
134.14441085115811
 20
46.856339810424799
 30
0.0
  0
VERTEX
  5
74F
  8
0
 10
134.18310241417291
 20
46.826744721761941
 30
0.0
  0
VERTEX
  5
750
  8
0
 10
134.2218013572998
 20
46.797269304439617
 30
0.0
  0
VERTEX
  5
751
  8
0
 10
134.26050781873749
 20
46.767916560897113
 30
0.0
  0
SEQEND
  5
752
  8
0
  0
POLYLINE
  5
458
  8
0
 66
     1
 10
0.0
 20
0.0
 30
0.0
  0
VERTEX
  5
753
  8
0
 10
131.5756750507685
 20
46.767916560897042
 30
0.0
  0
VERTEX
  5
754
  8
0
 10
132.4276374811048
 20
46.542389540292547
 30
0.0
  0
VERTEX
  5
755
  8
0
 10
133.16025702162219
 20
46.366210465804642
 30
0.0
  0
VERTEX
  5
756
  8
0
 10
133.47843689259341
 20
46.300402340011452
 30
0.0
  0
VERTEX
  5
757
  8
0
 10
133.75833765792331
 20
46.252277452250631
 30
0.0
  0
VERTEX
  5
758
  8
0
 10
133.9985203452253
 20
46.222899023851362
 30
0.0
  0
VERTEX
  5
759
  8
0
 10
134.19920215073449
 20
46.212789257431723
 30
0.0
  0
VERTEX
  5
75A
  8
0
 10
134.35898813491039
 20
46.222580123597851
 30
0.0
  0
VERTEX
  5
75B
  8
0
 10
134.47536717694439
 20
46.251853055535463
 30
0.0
  0
VERTEX
  5
75C
  8
0
 10
134.54753392677239
 20
46.299591793292677
 30
0.0
  0
VERTEX
  5
75D
  8
0
 10
134.5762445667356
 20
46.364748012918618
 30
0.0
  0
VERTEX
  5
75E
  8
0
 10
134.56132105400869
 20
46.446253538604452
 30
0.0
  0
VERTEX
  5
75F
  8
0
 10
134.50317791044921
 20
46.54188902439639
 30
0.0
  0
VERTEX
  5
760
  8
0
 10
134.40281047652559
 20
46.649464508512239
 30
0.0
  0
VERTEX
  5
761
  8
0
 10
134.26050781873749
 20
46.767916560897113
 30
0.0
  0
SEQEND
  5
762
  8
0
  0
POLYLINE
  5
459
  8
0
 66
     1
 10
0.0
 20
0.0
 30
0.0
  0
VERTEX
  5
763
  8
0
 10
131.5756750507685
 20
46.767916560897042
 30
0.0
  0
VERTEX
  5
764
  8
0
 10
131.46763043487491
 20
46.797269304439567
 30
0.0
  0
VERTEX
  5
765
  8
0
 10
131.3596068054776
 20
46.826744721761912
 30
0.0
  0
VERTEX
  5
766
  8
0
 10
131.25160377681041
 20
46.856339810424799
 30
0.0
  0
VERTEX
  5
767
  8
0
 10
131.14362096310711
 20
46.886051567988943
 30
0.0
  0
SEQEND
  5
768
  8
0
  0
POLYLINE
  5
45A
  8
0
 66
     1
 10
0.0
 20
0.0
 30
0.0
  0
VERTEX
  5
769
  8
0
 10
131.14362096310711
 20
46.886051567988943
 30
0.0
  0
VERTEX
  5
76A
  8
0
 10
130.61007730573661
 20
47.036048330222769
 30
0.0
  0
VERTEX
  5
76B
  8
0
 10
130.17296518248719
 20
47.166762695643399
 30
0.0
  0
VERTEX
  5
76C
  8
0
 10
129.85565833154391
 20
47.272638923935432
 30
0.0
  0
VERTEX
  5
76D
  8
0
 10
129.66307063375669
 20
47.352610496626447
 30
0.0
  0
VERTEX
  5
76E
  8
0
 10
129.57781123929499
 20
47.417972913331369
 30
0.0
  0
SEQEND
  5
76F
  8
0
  0
POLYLINE
  5
45B
  8
0
 66
     1
 10
0.0
 20
0.0
 30
0.0
  0
VERTEX
  5
770
  8
0
 10
79.003326394671035
 20
95.326241573950597
 30
0.0
  0
VERTEX
  5
771
  8
0
 10
79.059814702446445
 20
95.745097300817662
 30
0.0
  0
VERTEX
  5
772
  8
0
 10
79.159498612732563
 20
96.152550701073324
 30
0.0
  0
VERTEX
  5
773
  8
0
 10
79.301949482540195
 20
96.548605286828234
 30
0.0
  0
VERTEX
  5
774
  8
0
 10
79.485296698477782
 20
96.927958077558515
 30
0.0
  0
VERTEX
  5
775
  8
0
 10
79.705102194741244
 20
97.282441021898606
 30
0.0
  0
VERTEX
  5
776
  8
0
 10
79.960987724546257
 20
97.612423824001965
 30
0.0
  0
VERTEX
  5
777
  8
0
 10
80.250151369548959
 20
97.914316548038514
 30
0.0
  0
VERTEX
  5
778
  8
0
 10
80.565824659414645
 20
98.181730758326069
 30
0.0
  0
VERTEX
  5
779
  8
0
 10
80.907149740024181
 20
98.414829209092133
 30
0.0
  0
VERTEX
  5
77A
  8
0
 10
81.272029757461112
 20
98.612154581752506
 30
0.0
  0
VERTEX
  5
77B
  8
0
 10
81.655788917508303
 20
98.77092572021219
 30
0.0
  0
SEQEND
  5
77C
  8
0
  0
POLYLINE
  5
45C
  8
0
 66
     1
 10
0.0
 20
0.0
 30
0.0
  0
VERTEX
  5
77D
  8
0
 10
81.655788917508403
 20
91.229074279787923
 30
0.0
  0
VERTEX
  5
77E
  8
0
 10
81.273954772934033
 20
91.386610574337624
 30
0.0
  0
VERTEX
  5
77F
  8
0
 10
80.912073118031813
 20
91.581924015500505
 30
0.0
  0
VERTEX
  5
780
  8
0
 10
80.570139812009472
 20
91.815012426596212
 30
0.0
  0
VERTEX
  5
781
  8
0
 10
80.251566956613544
 20
92.084362144180318
 30
0.0
  0
VERTEX
  5
782
  8
0
 10
79.964302512372697
 20
92.383658319235934
 30
0.0
  0
VERTEX
  5
783
  8
0
 10
79.708609183536538
 20
92.712584484863811
 30
0.0
  0
VERTEX
  5
784
  8
0
 10
79.486468854882446
 20
93.069901163350565
 30
0.0
  0
VERTEX
  5
785
  8
0
 10
79.303778603078683
 20
93.446999573966991
 30
0.0
  0
VERTEX
  5
786
  8
0
 10
79.16149752765493
 20
93.841621428455724
 30
0.0
  0
VERTEX
  5
787
  8
0
 10
79.060622977640591
 20
94.252325709288641
 30
0.0
  0
VERTEX
  5
788
  8
0
 10
79.003326394671021
 20
94.673758426049233
 30
0.0
  0
SEQEND
  5
789
  8
0
  0
POLYLINE
  5
45D
  8
0
 66
     1
 10
0.0
 20
0.0
 30
0.0
  0
VERTEX
  5
78A
  8
0
 10
82.1690870133977
 20
91.047461578034984
 30
0.0
  0
VERTEX
  5
78B
  8
0
 10
81.912294495117294
 20
91.138318690906289
 30
0.0
  0
VERTEX
  5
78C
  8
0
 10
81.655788917508403
 20
91.229074279787923
 30
0.0
  0
SEQEND
  5
78D
  8
0
  0
POLYLINE
  5
45E
  8
0
 66
     1
 10
0.0
 20
0.0
 30
0.0
  0
VERTEX
  5
78E
  8
0
 10
82.1690870133977
 20
91.047461578034984
 30
0.0
  0
VERTEX
  5
78F
  8
0
 10
82.700704620107388
 20
90.837042816221228
 30
0.0
  0
VERTEX
  5
790
  8
0
 10
83.213943273251829
 20
90.588176758184829
 30
0.0
  0
VERTEX
  5
791
  8
0
 10
83.708627825936716
 20
90.30047331021396
 30
0.0
  0
VERTEX
  5
792
  8
0
 10
84.184583131267729
 20
89.973542378596846
 30
0.0
  0
VERTEX
  5
793
  8
0
 10
84.637507574521408
 20
89.609489175537817
 30
0.0
  0
VERTEX
  5
794
  8
0
 10
85.060416932037455
 20
89.213450745230119
 30
0.0
  0
VERTEX
  5
795
  8
0
 10
85.451224597879815
 20
88.787746924966896
 30
0.0
  0
VERTEX
  5
796
  8
0
 10
85.8103558779341
 20
88.331648664506574
 30
0.0
  0
VERTEX
  5
797
  8
0
 10
86.136412777591318
 20
87.845750948776086
 30
0.0
  0
VERTEX
  5
798
  8
0
 10
86.422572134766597
 20
87.34005700903262
 30
0.0
  0
VERTEX
  5
799
  8
0
 10
86.668277246165886
 20
86.817365437131855
 30
0.0
  0
VERTEX
  5
79A
  8
0
 10
86.873825448493037
 20
86.277795641102955
 30
0.0
  0
VERTEX
  5
79B
  8
0
 10
87.038647228908061
 20
85.722246211807544
 30
0.0
  0
VERTEX
  5
79C
  8
0
 10
87.160867879388945
 20
85.157797640786839
 30
0.0
  0
VERTEX
  5
79D
  8
0
 10
87.239759258781532
 20
84.590065592723647
 30
0.0
  0
VERTEX
  5
79E
  8
0
 10
87.275942411677534
 20
84.018478137382857
 30
0.0
  0
SEQEND
  5
79F
  8
0
  0
POLYLINE
  5
45F
  8
0
 66
     1
 10
0.0
 20
0.0
 30
0.0
  0
VERTEX
  5
7A0
  8
0
 10
87.290048520310961
 20
83.474181227249403
 30
0.0
  0
VERTEX
  5
7A1
  8
0
 10
87.282999408747926
 20
83.746177547599359
 30
0.0
  0
VERTEX
  5
7A2
  8
0
 10
87.275942411676965
 20
84.018478137382829
 30
0.0
  0
SEQEND
  5
7A3
  8
0
  0
POLYLINE
  5
460
  8
0
 66
     1
 10
0.0
 20
0.0
 30
0.0
  0
VERTEX
  5
7A4
  8
0
 10
89.746481827692151
 20
79.887073519227499
 30
0.0
  0
VERTEX
  5
7A5
  8
0
 10
89.365582212523137
 20
80.070230626856869
 30
0.0
  0
VERTEX
  5
7A6
  8
0
 10
89.008875028830644
 20
80.290945679779355
 30
0.0
  0
VERTEX
  5
7A7
  8
0
 10
88.676224478390665
 20
80.548812099607147
 30
0.0
  0
VERTEX
  5
7A8
  8
0
 10
88.372095943493676
 20
80.840412116700634
 30
0.0
  0
VERTEX
  5
7A9
  8
0
 10
88.102886265068364
 20
81.159000812931794
 30
0.0
  0
VERTEX
  5
7AA
  8
0
 10
87.868126948869445
 20
81.504332699042862
 30
0.0
  0
VERTEX
  5
7AB
  8
0
 10
87.670366385905155
 20
81.872633641983043
 30
0.0
  0
VERTEX
  5
7AC
  8
0
 10
87.513588767421993
 20
82.255492308726303
 30
0.0
  0
VERTEX
  5
7AD
  8
0
 10
87.397374212371687
 20
82.652143124384864
 30
0.0
  0
VERTEX
  5
7AE
  8
0
 10
87.322460749333459
 20
83.060141542330939
 30
0.0
  0
VERTEX
  5
7AF
  8
0
 10
87.290048520310734
 20
83.474181227249403
 30
0.0
  0
SEQEND
  5
7B0
  8
0
  0
POLYLINE
  5
461
  8
0
 66
     1
 10
0.0
 20
0.0
 30
0.0
  0
VERTEX
  5
7B1
  8
0
 10
94.462775477656237
 20
81.143620963107196
 30
0.0
  0
VERTEX
  5
7B2
  8
0
 10
94.194957231551371
 20
80.829157471001494
 30
0.0
  0
VERTEX
  5
7B3
  8
0
 10
93.897375725497369
 20
80.545342724851054
 30
0.0
  0
VERTEX
  5
7B4
  8
0
 10
93.570031612292794
 20
80.292172460380854
 30
0.0
  0
VERTEX
  5
7B5
  8
0
 10
93.215420785016676
 20
80.07242547006436
 30
0.0
  0
VERTEX
  5
7B6
  8
0
 10
92.842004104998523
 20
79.8917084523043
 30
0.0
  0
VERTEX
  5
7B7
  8
0
 10
92.450162377726613
 20
79.750173055203391
 30
0.0
  0
VERTEX
  5
7B8
  8
0
 10
92.041688740786071
 20
79.649321855122821
 30
0.0
  0
VERTEX
  5
7B9
  8
0
 10
91.62659330400119
 20
79.592102944620734
 30
0.0
  0
VERTEX
  5
7BA
  8
0
 10
91.207318098193014
 20
79.578730355625027
 30
0.0
  0
VERTEX
  5
7BB
  8
0
 10
90.785542513303795
 20
79.60970754185189
 30
0.0
  0
VERTEX
  5
7BC
  8
0
 10
90.367030177276078
 20
79.685445137982867
 30
0.0
  0
SEQEND
  5
7BD
  8
0
  0
POLYLINE
  5
462
  8
0
 66
     1
 10
0.0
 20
0.0
 30
0.0
  0
VERTEX
  5
7BE
  8
0
 10
94.794117255910464
 20
81.575675050768595
 30
0.0
  0
VERTEX
  5
7BF
  8
0
 10
94.628353754485389
 20
81.359527244859294
 30
0.0
  0
VERTEX
  5
7C0
  8
0
 10
94.462775477656237
 20
81.143620963107196
 30
0.0
  0
SEQEND
  5
7C1
  8
0
  0
POLYLINE
  5
463
  8
0
 66
     1
 10
0.0
 20
0.0
 30
0.0
  0
VERTEX
  5
7C2
  8
0
 10
94.794117255910351
 20
81.575675050768595
 30
0.0
  0
VERTEX
  5
7C3
  8
0
 10
95.158516036014348
 20
82.016250210187906
 30
0.0
  0
VERTEX
  5
7C4
  8
0
 10
95.553801091887436
 20
82.427465278119286
 30
0.0
  0
VERTEX
  5
7C5
  8
0
 10
95.980289342417095
 20
82.809033098761645
 30
0.0
  0
VERTEX
  5
7C6
  8
0
 10
96.438297706490616
 20
83.160666516313853
 30
0.0
  0
VERTEX
  5
7C7
  8
0
 10
96.924494205642688
 20
83.478924631562975
 30
0.0
  0
VERTEX
  5
7C8
  8
0
 10
97.431835050290445
 20
83.758752574527676
 30
0.0
  0
VERTEX
  5
7C9
  8
0
 10
97.957469696239087
 20
83.998883076667894
 30
0.0
  0
VERTEX
  5
7CA
  8
0
 10
98.502222874282381
 20
84.199495217375244
 30
0.0
  0
VERTEX
  5
7CB
  8
0
 10
99.065096313932486
 20
84.359443128463198
 30
0.0
  0
VERTEX
  5
7CC
  8
0
 10
99.634467702172557
 20
84.475328773026234
 30
0.0
  0
VERTEX
  5
7CD
  8
0
 10
100.207503984469
 20
84.547487643135156
 30
0.0
  0
VERTEX
  5
7CE
  8
0
 10
100.7841834818164
 20
84.576239367679435
 30
0.0
  0
VERTEX
  5
7CF
  8
0
 10
101.363475265304
 20
84.561319957320933
 30
0.0
  0
VERTEX
  5
7D0
  8
0
 10
101.9380658800022
 20
84.503134490285362
 30
0.0
  0
VERTEX
  5
7D1
  8
0
 10
102.5023897592247
 20
84.402725816257231
 30
0.0
  0
VERTEX
  5
7D2
  8
0
 10
103.0571828659572
 20
84.260507818738205
 30
0.0
  0
SEQEND
  5
7D3
  8
0
  0
POLYLINE
  5
464
  8
0
 66
     1
 10
0.0
 20
0.0
 30
0.0
  0
VERTEX
  5
7D4
  8
0
 10
103.5791990164312
 20
84.105726530056472
 30
0.0
  0
VERTEX
  5
7D5
  8
0
 10
103.3183368482858
 20
84.183073911966005
 30
0.0
  0
VERTEX
  5
7D6
  8
0
 10
103.0571828659571
 20
84.260507818737551
 30
0.0
  0
SEQEND
  5
7D7
  8
0
  0
POLYLINE
  5
465
  8
0
 66
     1
 10
0.0
 20
0.0
 30
0.0
  0
VERTEX
  5
7D8
  8
0
 10
107.74982081432729
 20
85.333456191453593
 30
0.0
  0
VERTEX
  5
7D9
  8
0
 10
107.45792359575989
 20
85.027797785878363
 30
0.0
  0
VERTEX
  5
7DA
  8
0
 10
107.13778252037881
 20
84.756753794088823
 30
0.0
  0
VERTEX
  5
7DB
  8
0
 10
106.7897423032714
 20
84.520069424690831
 30
0.0
  0
VERTEX
  5
7DC
  8
0
 10
106.41843331601051
 20
84.320935359974243
 30
0.0
  0
VERTEX
  5
7DD
  8
0
 10
106.0322470894173
 20
84.163351062730499
 30
0.0
  0
VERTEX
  5
7DE
  8
0
 10
105.63127232493321
 20
84.046795108125281
 30
0.0
  0
VERTEX
  5
7DF
  8
0
 10
105.219885933179
 20
83.972524888917093
 30
0.0
  0
VERTEX
  5
7E0
  8
0
 10
104.8073187499852
 20
83.941730351157105
 30
0.0
  0
VERTEX
  5
7E1
  8
0
 10
104.3941691295481
 20
83.95377558952228
 30
0.0
  0
VERTEX
  5
7E2
  8
0
 10
103.98299004816531
 20
84.008607101095535
 30
0.0
  0
VERTEX
  5
7E3
  8
0
 10
103.57919901643101
 20
84.10572653005633
 30
0.0
  0
SEQEND
  5
7E4
  8
0
  0
POLYLINE
  5
466
  8
0
 66
     1
 10
0.0
 20
0.0
 30
0.0
  0
VERTEX
  5
7E5
  8
0
 10
108.0121880680931
 20
90.207212514410742
 30
0.0
  0
VERTEX
  5
7E6
  8
0
 10
108.2285007021074
 20
89.855326802275101
 30
0.0
  0
VERTEX
  5
7E7
  8
0
 10
108.40646676965591
 20
89.484606257294246
 30
0.0
  0
VERTEX
  5
7E8
  8
0
 10
108.5460908024653
 20
89.095050200246646
 30
0.0
  0
VERTEX
  5
7E9
  8
0
 10
108.6455018576041
 20
88.689889388602637
 30
0.0
  0
VERTEX
  5
7EA
  8
0
 10
108.70198181226191
 20
88.278904023883086
 30
0.0
  0
VERTEX
  5
7EB
  8
0
 10
108.71550414019551
 20
87.862504176297918
 30
0.0
  0
VERTEX
  5
7EC
  8
0
 10
108.68519398516359
 20
87.442858056064495
 30
0.0
  0
VERTEX
  5
7ED
  8
0
 10
108.6113406820093
 20
87.030396613543274
 30
0.0
  0
VERTEX
  5
7EE
  8
0
 10
108.4944955895613
 20
86.627510038394007
 30
0.0
  0
VERTEX
  5
7EF
  8
0
 10
108.3346988471181
 20
86.235950558445182
 30
0.0
  0
VERTEX
  5
7F0
  8
0
 10
108.1333407860331
 20
85.861326146649034
 30
0.0
  0
SEQEND
  5
7F1
  8
0
  0
POLYLINE
  5
467
  8
0
 66
     1
 10
0.0
 20
0.0
 30
0.0
  0
VERTEX
  5
7F2
  8
0
 10
107.7036704530578
 20
90.655849327316716
 30
0.0
  0
VERTEX
  5
7F3
  8
0
 10
107.8580154933633
 20
90.431405523799754
 30
0.0
  0
VERTEX
  5
7F4
  8
0
 10
108.0121880680932
 20
90.207212514410742
 30
0.0
  0
SEQEND
  5
7F5
  8
0
  0
POLYLINE
  5
468
  8
0
 66
     1
 10
0.0
 20
0.0
 30
0.0
  0
VERTEX
  5
7F6
  8
0
 10
107.7036704530578
 20
90.655849327316716
 30
0.0
  0
VERTEX
  5
7F7
  8
0
 10
107.3972639339668
 20
91.138558473803897
 30
0.0
  0
VERTEX
  5
7F8
  8
0
 10
107.1283249448347
 20
91.641569405487203
 30
0.0
  0
VERTEX
  5
7F9
  8
0
 10
106.897224509664
 20
92.165094787652095
 30
0.0
  0
VERTEX
  5
7FA
  8
0
 10
106.70433365245739
 20
92.709347285583902
 30
0.0
  0
VERTEX
  5
7FB
  8
0
 10
106.5518951826374
 20
93.270094844258892
 30
0.0
  0
VERTEX
  5
7FC
  8
0
 10
106.44253993060801
 20
93.839076357620513
 30
0.0
  0
VERTEX
  5
7FD
  8
0
 10
106.37659230954451
 20
94.413189045123616
 30
0.0
  0
VERTEX
  5
7FE
  8
0
 10
106.3541368387943
 20
94.993272633626773
 30
0.0
  0
VERTEX
  5
7FF
  8
0
 10
106.37595481560339
 20
95.578023715451124
 30
0.0
  0
VERTEX
  5
800
  8
0
 10
106.4416864878865
 20
96.155338804130139
 30
0.0
  0
VERTEX
  5
801
  8
0
 10
106.550137309102
 20
96.722627040427909
 30
0.0
  0
VERTEX
  5
802
  8
0
 10
106.7009965831359
 20
97.279966580358717
 30
0.0
  0
VERTEX
  5
803
  8
0
 10
106.8941968176883
 20
97.826295437495915
 30
0.0
  0
VERTEX
  5
804
  8
0
 10
107.12709276887109
 20
98.354783264621886
 30
0.0
  0
VERTEX
  5
805
  8
0
 10
107.3969727254039
 20
98.860459064111922
 30
0.0
  0
VERTEX
  5
806
  8
0
 10
107.703670453057
 20
99.344150672683611
 30
0.0
  0
SEQEND
  5
807
  8
0
  0
POLYLINE
  5
469
  8
0
 66
     1
 10
0.0
 20
0.0
 30
0.0
  0
VERTEX
  5
808
  8
0
 10
108.0121880680932
 20
99.792787485589145
 30
0.0
  0
VERTEX
  5
809
  8
0
 10
107.8580154933633
 20
99.568594476200133
 30
0.0
  0
VERTEX
  5
80A
  8
0
 10
107.7036704530578
 20
99.344150672683156
 30
0.0
  0
SEQEND
  5
80B
  8
0
  0
POLYLINE
  5
46A
  8
0
 66
     1
 10
0.0
 20
0.0
 30
0.0
  0
VERTEX
  5
80C
  8
0
 10
108.1333407860329
 20
104.13867385335099
 30
0.0
  0
VERTEX
  5
80D
  8
0
 10
108.33383801177381
 20
103.7666094418081
 30
0.0
  0
VERTEX
  5
80E
  8
0
 10
108.4926871380633
 20
103.3783799667856
 30
0.0
  0
VERTEX
  5
80F
  8
0
 10
108.61023700867629
 20
102.9742345370513
 30
0.0
  0
VERTEX
  5
810
  8
0
 10
108.68488396750671
 20
102.5595628748365
 30
0.0
  0
VERTEX
  5
811
  8
0
 10
108.7154174254411
 20
102.14358170173909
 30
0.0
  0
VERTEX
  5
812
  8
0
 10
108.7023606970901
 20
101.72621424860991
 30
0.0
  0
VERTEX
  5
813
  8
0
 10
108.64587047094059
 20
101.3120117632226
 30
0.0
  0
VERTEX
  5
814
  8
0
 10
108.54766752667101
 20
100.91012100529331
 30
0.0
  0
VERTEX
  5
815
  8
0
 10
108.4085415437399
 20
100.52091453752379
 30
0.0
  0
VERTEX
  5
816
  8
0
 10
108.2293323457429
 20
100.1468038887154
 30
0.0
  0
VERTEX
  5
817
  8
0
 10
108.01218806809339
 20
99.792787485588974
 30
0.0
  0
SEQEND
  5
818
  8
0
  0
POLYLINE
  5
46B
  8
0
 66
     1
 10
0.0
 20
0.0
 30
0.0
  0
VERTEX
  5
819
  8
0
 10
103.5791990164312
 20
105.8942734699434
 30
0.0
  0
VERTEX
  5
81A
  8
0
 10
103.98070687877021
 20
105.99126041688589
 30
0.0
  0
VERTEX
  5
81B
  8
0
 10
104.3882776524286
 20
106.0459572197673
 30
0.0
  0
VERTEX
  5
81C
  8
0
 10
104.8019134107563
 20
106.0583680844302
 30
0.0
  0
VERTEX
  5
81D
  8
0
 10
105.2179640691666
 20
106.0277120083816
 30
0.0
  0
VERTEX
  5
81E
  8
0
 10
105.62628777808951
 20
105.954426113887
 30
0.0
  0
VERTEX
  5
81F
  8
0
 10
106.0264859502619
 20
105.8386120285638
 30
0.0
  0
VERTEX
  5
820
  8
0
 10
106.4162267196018
 20
105.68010757207961
 30
0.0
  0
VERTEX
  5
821
  8
0
 10
106.7856791439647
 20
105.48241117044481
 30
0.0
  0
VERTEX
  5
822
  8
0
 10
107.1327398502706
 20
105.24678610350939
 30
0.0
  0
VERTEX
  5
823
  8
0
 10
107.45575497850881
 20
104.97381194468269
 30
0.0
  0
VERTEX
  5
824
  8
0
 10
107.74982081432741
 20
104.66654380854609
 30
0.0
  0
SEQEND
  5
825
  8
0
  0
POLYLINE
  5
46C
  8
0
 66
     1
 10
0.0
 20
0.0
 30
0.0
  0
VERTEX
  5
826
  8
0
 10
103.0571828659571
 20
105.73949218126231
 30
0.0
  0
VERTEX
  5
827
  8
0
 10
103.3183368482858
 20
105.8169260880338
 30
0.0
  0
VERTEX
  5
828
  8
0
 10
103.5791990164312
 20
105.8942734699433
 30
0.0
  0
SEQEND
  5
829
  8
0
  0
POLYLINE
  5
46D
  8
0
 66
     1
 10
0.0
 20
0.0
 30
0.0
  0
VERTEX
  5
82A
  8
0
 10
103.0571828659571
 20
105.73949218126231
 30
0.0
  0
VERTEX
  5
82B
  8
0
 10
102.50341406125941
 20
105.5972475287066
 30
0.0
  0
VERTEX
  5
82C
  8
0
 10
101.9419154071946
 20
105.4969102851927
 30
0.0
  0
VERTEX
  5
82D
  8
0
 10
101.3725993102877
 20
105.43889898747589
 30
0.0
  0
VERTEX
  5
82E
  8
0
 10
100.79537817706419
 20
105.4236321723114
 30
0.0
  0
VERTEX
  5
82F
  8
0
 10
100.21496944710989
 20
105.451935114183
 30
0.0
  0
VERTEX
  5
830
  8
0
 10
99.640042965670617
 20
105.52375708275009
 30
0.0
  0
VERTEX
  5
831
  8
0
 10
99.073650452573801
 20
105.6384477624151
 30
0.0
  0
VERTEX
  5
832
  8
0
 10
98.515019292838986
 20
105.7963469738915
 30
0.0
  0
VERTEX
  5
833
  8
0
 10
97.965630179602101
 20
105.99779509311131
 30
0.0
  0
VERTEX
  5
834
  8
0
 10
97.436882908300134
 20
106.23870989809571
 30
0.0
  0
VERTEX
  5
835
  8
0
 10
96.930872875458093
 20
106.5171544835685
 30
0.0
  0
VERTEX
  5
836
  8
0
 10
96.447429714607566
 20
106.8328574728006
 30
0.0
  0
VERTEX
  5
837
  8
0
 10
95.987542340744255
 20
107.1854266460673
 30
0.0
  0
VERTEX
  5
838
  8
0
 10
95.556889281544215
 20
107.57023563487979
 30
0.0
  0
VERTEX
  5
839
  8
0
 10
95.159360465687996
 20
107.9831691905282
 30
0.0
  0
VERTEX
  5
83A
  8
0
 10
94.794117255909654
 20
108.42432494923059
 30
0.0
  0
SEQEND
  5
83B
  8
0
  0
POLYLINE
  5
46E
  8
0
 66
     1
 10
0.0
 20
0.0
 30
0.0
  0
VERTEX
  5
83C
  8
0
 10
94.462775477656237
 20
108.8563790368927
 30
0.0
  0
VERTEX
  5
83D
  8
0
 10
94.628353754485389
 20
108.64047275514061
 30
0.0
  0
VERTEX
  5
83E
  8
0
 10
94.794117255910351
 20
108.42432494923121
 30
0.0
  0
SEQEND
  5
83F
  8
0
  0
POLYLINE
  5
46F
  8
0
 66
     1
 10
0.0
 20
0.0
 30
0.0
  0
VERTEX
  5
840
  8
0
 10
90.367030177276305
 20
110.3145548620171
 30
0.0
  0
VERTEX
  5
841
  8
0
 10
90.782841560023428
 20
110.3902648353006
 30
0.0
  0
VERTEX
  5
842
  8
0
 10
91.201156861808826
 20
110.4213698223046
 30
0.0
  0
VERTEX
  5
843
  8
0
 10
91.621846964462918
 20
110.4082785719548
 30
0.0
  0
VERTEX
  5
844
  8
0
 10
92.0392903751288
 20
110.3511314330502
 30
0.0
  0
VERTEX
  5
845
  8
0
 10
92.44434737943493
 20
110.251625191155
 30
0.0
  0
VERTEX
  5
846
  8
0
 10
92.837252702423399
 20
110.11023382468331
 30
0.0
  0
VERTEX
  5
847
  8
0
 10
93.213726263471841
 20
109.9285127689467
 30
0.0
  0
VERTEX
  5
848
  8
0
 10
93.56560072865399
 20
109.7109250877039
 30
0.0
  0
VERTEX
  5
849
  8
0
 10
93.892765791965857
 20
109.4583369289231
 30
0.0
  0
VERTEX
  5
84A
  8
0
 10
94.19318740390483
 20
109.1722923076095
 30
0.0
  0
VERTEX
  5
84B
  8
0
 10
94.462775477656564
 20
108.856379036893
 30
0.0
  0
SEQEND
  5
84C
  8
0
  0
POLYLINE
  5
470
  8
0
 66
     1
 10
0.0
 20
0.0
 30
0.0
  0
VERTEX
  5
84D
  8
0
 10
87.290048520310961
 20
106.5258187727504
 30
0.0
  0
VERTEX
  5
84E
  8
0
 10
87.321881217749635
 20
106.9376461531056
 30
0.0
  0
VERTEX
  5
84F
  8
0
 10
87.395807774605004
 20
107.3421712425863
 30
0.0
  0
VERTEX
  5
850
  8
0
 10
87.511824808483624
 20
107.7393973273505
 30
0.0
  0
VERTEX
  5
851
  8
0
 10
87.669547210362126
 20
108.12561179546159
 30
0.0
  0
VERTEX
  5
852
  8
0
 10
87.865425228080255
 20
108.4913041598758
 30
0.0
  0
VERTEX
  5
853
  8
0
 10
88.099238975008603
 20
108.8361266639141
 30
0.0
  0
VERTEX
  5
854
  8
0
 10
88.370422188866257
 20
109.15781157821171
 30
0.0
  0
VERTEX
  5
855
  8
0
 10
88.672609767284726
 20
109.44809020451071
 30
0.0
  0
VERTEX
  5
856
  8
0
 10
89.003950168643854
 20
109.705352383875
 30
0.0
  0
VERTEX
  5
857
  8
0
 10
89.363381147346246
 20
109.92820434317269
 30
0.0
  0
VERTEX
  5
858
  8
0
 10
89.746481827692037
 20
110.1129264807723
 30
0.0
  0
SEQEND
  5
859
  8
0
  0
POLYLINE
  5
471
  8
0
 66
     1
 10
0.0
 20
0.0
 30
0.0
  0
VERTEX
  5
85A
  8
0
 10
87.275942411676965
 20
105.981521862617
 30
0.0
  0
VERTEX
  5
85B
  8
0
 10
87.282999408747926
 20
106.2538224524005
 30
0.0
  0
VERTEX
  5
85C
  8
0
 10
87.290048520310961
 20
106.5258187727504
 30
0.0
  0
SEQEND
  5
85D
  8
0
  0
POLYLINE
  5
472
  8
0
 66
     1
 10
0.0
 20
0.0
 30
0.0
  0
VERTEX
  5
85E
  8
0
 10
87.275942411676965
 20
105.981521862617
 30
0.0
  0
VERTEX
  5
85F
  8
0
 10
87.240101140044857
 20
105.4109003820018
 30
0.0
  0
VERTEX
  5
860
  8
0
 10
87.162014902670336
 20
104.8458775300081
 30
0.0
  0
VERTEX
  5
861
  8
0
 10
87.041258591356794
 20
104.28649933424001
 30
0.0
  0
VERTEX
  5
862
  8
0
 10
86.877407097907621
 20
103.7328118223014
 30
0.0
  0
VERTEX
  5
863
  8
0
 10
86.671133261783112
 20
103.1895564361575
 30
0.0
  0
VERTEX
  5
864
  8
0
 10
86.425164461171974
 20
102.66496303593171
 30
0.0
  0
VERTEX
  5
865
  8
0
 10
86.141062268975034
 20
102.1617331517008
 30
0.0
  0
VERTEX
  5
866
  8
0
 10
85.818264749838562
 20
101.6792369636574
 30
0.0
  0
VERTEX
  5
867
  8
0
 10
85.456905694212765
 20
101.2189877954664
 30
0.0
  0
VERTEX
  5
868
  8
0
 10
85.064390217680995
 20
100.79056599494091
 30
0.0
  0
VERTEX
  5
869
  8
0
 10
84.643208028929877
 20
100.3953659685194
 30
0.0
  0
VERTEX
  5
86A
  8
0
 10
84.193564584030469
 20
100.0331418186297
 30
0.0
  0
VERTEX
  5
86B
  8
0
 10
83.716138433518736
 20
99.704712801381703
 30
0.0
  0
VERTEX
  5
86C
  8
0
 10
83.217084178084832
 20
99.414049847937065
 30
0.0
  0
VERTEX
  5
86D
  8
0
 10
82.701517701685205
 20
99.163580849056814
 30
0.0
  0
VERTEX
  5
86E
  8
0
 10
82.169087013397984
 20
98.952538421964277
 30
0.0
  0
SEQEND
  5
86F
  8
0
  0
POLYLINE
  5
473
  8
0
 66
     1
 10
0.0
 20
0.0
 30
0.0
  0
VERTEX
  5
870
  8
0
 10
81.655788917508403
 20
98.770925720212006
 30
0.0
  0
VERTEX
  5
871
  8
0
 10
81.912294495117294
 20
98.861681309093626
 30
0.0
  0
VERTEX
  5
872
  8
0
 10
82.1690870133977
 20
98.952538421964903
 30
0.0
  0
SEQEND
  5
873
  8
0
  0
POLYLINE
  5
474
  8
0
 66
     1
 10
0.0
 20
0.0
 30
0.0
  0
VERTEX
  5
874
  8
0
 10
107.7036704530578
 20
46.767916560897113
 30
0.0
  0
VERTEX
  5
875
  8
0
 10
107.3572500661983
 20
46.63394381055133
 30
0.0
  0
VERTEX
  5
876
  8
0
 10
107.0583721302731
 20
46.513979627550547
 30
0.0
  0
VERTEX
  5
877
  8
0
 10
106.8088499854575
 20
46.410480843374692
 30
0.0
  0
VERTEX
  5
878
  8
0
 10
106.6119638913143
 20
46.326399826865611
 30
0.0
  0
VERTEX
  5
879
  8
0
 10
106.4687721643227
 20
46.263819171619041
 30
0.0
  0
VERTEX
  5
87A
  8
0
 10
106.38239526392699
 20
46.225447336017339
 30
0.0
  0
VERTEX
  5
87B
  8
0
 10
106.35615995749581
 20
46.2136956086851
 30
0.0
  0
SEQEND
  5
87C
  8
0
  0
POLYLINE
  5
475
  8
0
 66
     1
 10
0.0
 20
0.0
 30
0.0
  0
VERTEX
  5
87D
  8
0
 10
107.7036704530578
 20
46.767916560897113
 30
0.0
  0
VERTEX
  5
87E
  8
0
 10
107.7808220601478
 20
46.797269304439617
 30
0.0
  0
VERTEX
  5
87F
  8
0
 10
107.8579586813739
 20
46.826744721761969
 30
0.0
  0
VERTEX
  5
880
  8
0
 10
107.9350805922008
 20
46.856339810424821
 30
0.0
  0
VERTEX
  5
881
  8
0
 10
108.0121880680932
 20
46.886051567988943
 30
0.0
  0
SEQEND
  5
882
  8
0
  0
POLYLINE
  5
476
  8
0
 66
     1
 10
0.0
 20
0.0
 30
0.0
  0
VERTEX
  5
883
  8
0
 10
108.0121880680932
 20
46.886051567988943
 30
0.0
  0
VERTEX
  5
884
  8
0
 10
108.22853265155079
 20
46.973654452991042
 30
0.0
  0
VERTEX
  5
885
  8
0
 10
108.4066197180962
 20
47.054894983685521
 30
0.0
  0
VERTEX
  5
886
  8
0
 10
108.5463549046772
 20
47.130149104080061
 30
0.0
  0
VERTEX
  5
887
  8
0
 10
108.6457549723941
 20
47.198980818995828
 30
0.0
  0
VERTEX
  5
888
  8
0
 10
108.7021262421282
 20
47.260034684213032
 30
0.0
  0
VERTEX
  5
889
  8
0
 10
108.71545938163121
 20
47.313608286151322
 30
0.0
  0
VERTEX
  5
88A
  8
0
 10
108.684935059482
 20
47.359548651319358
 30
0.0
  0
VERTEX
  5
88B
  8
0
 10
108.6109455639082
 20
47.39691933724697
 30
0.0
  0
VERTEX
  5
88C
  8
0
 10
108.4940488446059
 20
47.425795423167557
 30
0.0
  0
VERTEX
  5
88D
  8
0
 10
108.3343579712881
 20
47.446139682513
 30
0.0
  0
VERTEX
  5
88E
  8
0
 10
108.1333407860332
 20
47.457643606825307
 30
0.0
  0
SEQEND
  5
88F
  8
0
  0
POLYLINE
  5
477
  8
0
 66
     1
 10
0.0
 20
0.0
 30
0.0
  0
VERTEX
  5
890
  8
0
 10
107.74982081432719
 20
47.457643606825279
 30
0.0
  0
VERTEX
  5
891
  8
0
 10
107.45849232030631
 20
47.446303072367982
 30
0.0
  0
VERTEX
  5
892
  8
0
 10
107.13889635127489
 20
47.426203515351233
 30
0.0
  0
VERTEX
  5
893
  8
0
 10
106.7913421325713
 20
47.397302693876867
 30
0.0
  0
VERTEX
  5
894
  8
0
 10
106.4202824886915
 20
47.359786425351928
 30
0.0
  0
VERTEX
  5
895
  8
0
 10
106.03417358536841
 20
47.314335196308832
 30
0.0
  0
VERTEX
  5
896
  8
0
 10
105.6331183005488
 20
47.260757391616409
 30
0.0
  0
VERTEX
  5
897
  8
0
 10
105.2213056203378
 20
47.199296163520813
 30
0.0
  0
VERTEX
  5
898
  8
0
 10
104.8082268371395
 20
47.131087882386872
 30
0.0
  0
VERTEX
  5
899
  8
0
 10
104.3946578397354
 20
47.055995878083557
 30
0.0
  0
VERTEX
  5
89A
  8
0
 10
103.9831312605328
 20
46.974092915126249
 30
0.0
  0
VERTEX
  5
89B
  8
0
 10
103.5791990164311
 20
46.886051567988943
 30
0.0
  0
SEQEND
  5
89C
  8
0
  0
POLYLINE
  5
478
  8
0
 66
     1
 10
0.0
 20
0.0
 30
0.0
  0
VERTEX
  5
89D
  8
0
 10
103.5791990164312
 20
46.886051567988943
 30
0.0
  0
VERTEX
  5
89E
  8
0
 10
103.4487320810716
 20
46.856339810424799
 30
0.0
  0
VERTEX
  5
89F
  8
0
 10
103.31824072159949
 20
46.826744721761941
 30
0.0
  0
VERTEX
  5
8A0
  8
0
 10
103.1877244719248
 20
46.797269304439617
 30
0.0
  0
VERTEX
  5
8A1
  8
0
 10
103.0571828659571
 20
46.767916560897113
 30
0.0
  0
SEQEND
  5
8A2
  8
0
  0
POLYLINE
  5
479
  8
0
 66
     1
 10
0.0
 20
0.0
 30
0.0
  0
VERTEX
  5
8A3
  8
0
 10
94.794117255910351
 20
46.767916560897042
 30
0.0
  0
VERTEX
  5
8A4
  8
0
 10
95.247196340684837
 20
46.623810724679032
 30
0.0
  0
VERTEX
  5
8A5
  8
0
 10
95.746763557925632
 20
46.497006158085412
 30
0.0
  0
VERTEX
  5
8A6
  8
0
 10
96.293557171887443
 20
46.38972159706821
 30
0.0
  0
VERTEX
  5
8A7
  8
0
 10
96.885484127469454
 20
46.304855200195988
 30
0.0
  0
VERTEX
  5
8A8
  8
0
 10
97.510633146365251
 20
46.24652917052881
 30
0.0
  0
VERTEX
  5
8A9
  8
0
 10
98.163819704142824
 20
46.21669536018112
 30
0.0
  0
VERTEX
  5
8AA
  8
0
 10
98.845775221376613
 20
46.216457742440667
 30
0.0
  0
VERTEX
  5
8AB
  8
0
 10
99.546726522467566
 20
46.24611893264975
 30
0.0
  0
VERTEX
  5
8AC
  8
0
 10
100.2522561098023
 20
46.303997972830039
 30
0.0
  0
VERTEX
  5
8AD
  8
0
 10
100.9626959737694
 20
46.388158830719163
 30
0.0
  0
VERTEX
  5
8AE
  8
0
 10
101.6738890511299
 20
46.496166483928221
 30
0.0
  0
VERTEX
  5
8AF
  8
0
 10
102.372610049409
 20
46.623636861504131
 30
0.0
  0
VERTEX
  5
8B0
  8
0
 10
103.0571828659571
 20
46.767916560897113
 30
0.0
  0
SEQEND
  5
8B1
  8
0
  0
POLYLINE
  5
47A
  8
0
 66
     1
 10
0.0
 20
0.0
 30
0.0
  0
VERTEX
  5
8B2
  8
0
 10
94.794117255910464
 20
46.767916560897042
 30
0.0
  0
VERTEX
  5
8B3
  8
0
 10
94.711257965411036
 20
46.797269304439567
 30
0.0
  0
VERTEX
  5
8B4
  8
0
 10
94.628414769431288
 20
46.826744721761912
 30
0.0
  0
VERTEX
  5
8B5
  8
0
 10
94.545587372127571
 20
46.856339810424799
 30
0.0
  0
VERTEX
  5
8B6
  8
0
 10
94.462775477656237
 20
46.886051567988943
 30
0.0
  0
SEQEND
  5
8B7
  8
0
  0
POLYLINE
  5
47B
  8
0
 66
     1
 10
0.0
 20
0.0
 30
0.0
  0
VERTEX
  5
8B8
  8
0
 10
94.462775477656237
 20
46.886051567988943
 30
0.0
  0
VERTEX
  5
8B9
  8
0
 10
94.194904759241965
 20
46.973654250746328
 30
0.0
  0
VERTEX
  5
8BA
  8
0
 10
93.897069594304227
 20
47.054894779964307
 30
0.0
  0
VERTEX
  5
8BB
  8
0
 10
93.569279850737644
 20
47.130149039574214
 30
0.0
  0
VERTEX
  5
8BC
  8
0
 10
93.214235483640337
 20
47.198980706392149
 30
0.0
  0
VERTEX
  5
8BD
  8
0
 10
92.840424627765003
 20
47.260034538295031
 30
0.0
  0
VERTEX
  5
8BE
  8
0
 10
92.448179529762982
 20
47.313608231384933
 30
0.0
  0
VERTEX
  5
8BF
  8
0
 10
92.039649783505737
 20
47.359548616246308
 30
0.0
  0
VERTEX
  5
8C0
  8
0
 10
91.62486501347864
 20
47.39691926354805
 30
0.0
  0
VERTEX
  5
8C1
  8
0
 10
91.205962918201465
 20
47.425795377806793
 30
0.0
  0
VERTEX
  5
8C2
  8
0
 10
90.784754422856906
 20
47.446139668054279
 30
0.0
  0
VERTEX
  5
8C3
  8
0
 10
90.367030177276547
 20
47.457643606825279
 30
0.0
  0
SEQEND
  5
8C4
  8
0
  0
POLYLINE
  5
47C
  8
0
 66
     1
 10
0.0
 20
0.0
 30
0.0
  0
VERTEX
  5
8C5
  8
0
 10
89.746481827691809
 20
47.457643606825279
 30
0.0
  0
VERTEX
  5
8C6
  8
0
 10
89.366269389790446
 20
47.446303072546122
 30
0.0
  0
VERTEX
  5
8C7
  8
0
 10
89.010026539238112
 20
47.426203515908838
 30
0.0
  0
VERTEX
  5
8C8
  8
0
 10
88.677642070983225
 20
47.397302695019839
 30
0.0
  0
VERTEX
  5
8C9
  8
0
 10
88.373495032892734
 20
47.3597864272501
 30
0.0
  0
VERTEX
  5
8CA
  8
0
 10
88.104120512161145
 20
47.314335199136501
 30
0.0
  0
VERTEX
  5
8CB
  8
0
 10
87.869110441926807
 20
47.260757395569698
 30
0.0
  0
VERTEX
  5
8CC
  8
0
 10
87.670976703309805
 20
47.199296168715982
 30
0.0
  0
VERTEX
  5
8CD
  8
0
 10
87.513889185105157
 20
47.131087888936577
 30
0.0
  0
VERTEX
  5
8CE
  8
0
 10
87.397493052927359
 20
47.055995886405611
 30
0.0
  0
VERTEX
  5
8CF
  8
0
 10
87.322486803864166
 20
46.974092923204097
 30
0.0
  0
VERTEX
  5
8D0
  8
0
 10
87.290048520310961
 20
46.886051567988943
 30
0.0
  0
SEQEND
  5
8D1
  8
0
  0
POLYLINE
  5
47D
  8
0
 66
     1
 10
0.0
 20
0.0
 30
0.0
  0
VERTEX
  5
8D2
  8
0
 10
87.290048520310961
 20
46.886051567988943
 30
0.0
  0
VERTEX
  5
8D3
  8
0
 10
87.286522995743056
 20
46.856339810424799
 30
0.0
  0
VERTEX
  5
8D4
  8
0
 10
87.282996811177981
 20
46.826744721761941
 30
0.0
  0
VERTEX
  5
8D5
  8
0
 10
87.279469954020897
 20
46.797269304439617
 30
0.0
  0
VERTEX
  5
8D6
  8
0
 10
87.275942411676965
 20
46.767916560897113
 30
0.0
  0
SEQEND
  5
8D7
  8
0
  0
POLYLINE
  5
47E
  8
0
 66
     1
 10
0.0
 20
0.0
 30
0.0
  0
VERTEX
  5
8D8
  8
0
 10
82.1690870133977
 20
46.767916560897113
 30
0.0
  0
VERTEX
  5
8D9
  8
0
 10
82.821102291009396
 20
46.623810652969659
 30
0.0
  0
VERTEX
  5
8DA
  8
0
 10
83.444634938279947
 20
46.4970060908121
 30
0.0
  0
VERTEX
  5
8DB
  8
0
 10
84.039697099052418
 20
46.389721583635072
 30
0.0
  0
VERTEX
  5
8DC
  8
0
 10
84.602967321322396
 20
46.304855209628073
 30
0.0
  0
VERTEX
  5
8DD
  8
0
 10
85.121939638332606
 20
46.246529152162253
 30
0.0
  0
VERTEX
  5
8DE
  8
0
 10
85.592526712914307
 20
46.216695356731798
 30
0.0
  0
VERTEX
  5
8DF
  8
0
 10
86.01452837203172
 20
46.216457741094871
 30
0.0
  0
VERTEX
  5
8E0
  8
0
 10
86.381238314960143
 20
46.246118932264011
 30
0.0
  0
VERTEX
  5
8E1
  8
0
 10
86.68571659927261
 20
46.303997974305268
 30
0.0
  0
VERTEX
  5
8E2
  8
0
 10
86.929062793060879
 20
46.388158794322997
 30
0.0
  0
VERTEX
  5
8E3
  8
0
 10
87.109841871935203
 20
46.496166436623241
 30
0.0
  0
VERTEX
  5
8E4
  8
0
 10
87.225302181167365
 20
46.623636842795747
 30
0.0
  0
VERTEX
  5
8E5
  8
0
 10
87.275942411676837
 20
46.767916560897113
 30
0.0
  0
SEQEND
  5
8E6
  8
0
  0
POLYLINE
  5
47F
  8
0
 66
     1
 10
0.0
 20
0.0
 30
0.0
  0
VERTEX
  5
8E7
  8
0
 10
82.1690870133977
 20
46.767916560897113
 30
0.0
  0
VERTEX
  5
8E8
  8
0
 10
82.040725548495345
 20
46.797269304439617
 30
0.0
  0
VERTEX
  5
8E9
  8
0
 10
81.912389016417094
 20
46.826744721761969
 30
0.0
  0
VERTEX
  5
8EA
  8
0
 10
81.784076958856829
 20
46.856339810424821
 30
0.0
  0
VERTEX
  5
8EB
  8
0
 10
81.655788917508403
 20
46.886051567988943
 30
0.0
  0
SEQEND
  5
8EC
  8
0
  0
POLYLINE
  5
480
  8
0
 66
     1
 10
0.0
 20
0.0
 30
0.0
  0
VERTEX
  5
8ED
  8
0
 10
81.655788917508403
 20
46.886051567988943
 30
0.0
  0
VERTEX
  5
8EE
  8
0
 10
81.273890391549017
 20
46.973654524975132
 30
0.0
  0
VERTEX
  5
8EF
  8
0
 10
80.911730975916328
 20
47.0548950562019
 30
0.0
  0
VERTEX
  5
8F0
  8
0
 10
80.569411117386124
 20
47.130149127055709
 30
0.0
  0
VERTEX
  5
8F1
  8
0
 10
80.250581281293833
 20
47.198980859072769
 30
0.0
  0
VERTEX
  5
8F2
  8
0
 10
79.963181927402076
 20
47.260034736150629
 30
0.0
  0
VERTEX
  5
8F3
  8
0
 10
79.707428487086531
 20
47.313608305648472
 30
0.0
  0
VERTEX
  5
8F4
  8
0
 10
79.485467612982703
 20
47.359548663800553
 30
0.0
  0
VERTEX
  5
8F5
  8
0
 10
79.303105595843689
 20
47.396919363477842
 30
0.0
  0
VERTEX
  5
8F6
  8
0
 10
79.161106760764625
 20
47.425795439314122
 30
0.0
  0
VERTEX
  5
8F7
  8
0
 10
79.060476802704855
 20
47.446139687660057
 30
0.0
  0
VERTEX
  5
8F8
  8
0
 10
79.003326394671049
 20
47.457643606825307
 30
0.0
  0
SEQEND
  5
8F9
  8
0
  0
POLYLINE
  5
481
  8
0
 66
     1
 10
0.0
 20
0.0
 30
0.0
  0
VERTEX
  5
8FA
  8
0
 10
81.655788917508403
 20
55.878267840209787
 30
0.0
  0
VERTEX
  5
8FB
  8
0
 10
81.273954772934033
 20
55.78617447936
 30
0.0
  0
VERTEX
  5
8FC
  8
0
 10
80.912073118031813
 20
55.69898147655411
 30
0.0
  0
VERTEX
  5
8FD
  8
0
 10
80.570139812009472
 20
55.616660962152793
 30
0.0
  0
VERTEX
  5
8FE
  8
0
 10
80.251566956613544
 20
55.54001232311515
 30
0.0
  0
VERTEX
  5
8FF
  8
0
 10
79.964302512372697
 20
55.470930149315897
 30
0.0
  0
VERTEX
  5
900
  8
0
 10
79.708609183536538
 20
55.409462955313302
 30
0.0
  0
VERTEX
  5
901
  8
0
 10
79.486468854882446
 20
55.356076281448537
 30
0.0
  0
VERTEX
  5
902
  8
0
 10
79.303778603078683
 20
55.312179200381081
 30
0.0
  0
VERTEX
  5
903
  8
0
 10
79.16149752765493
 20
55.27799622703435
 30
0.0
  0
VERTEX
  5
904
  8
0
 10
79.060622977640591
 20
55.25376335028681
 30
0.0
  0
VERTEX
  5
905
  8
0
 10
79.003326394671021
 20
55.239999999999981
 30
0.0
  0
SEQEND
  5
906
  8
0
  0
POLYLINE
  5
482
  8
0
 66
     1
 10
0.0
 20
0.0
 30
0.0
  0
VERTEX
  5
907
  8
0
 10
82.1690870133977
 20
55.99926225979965
 30
0.0
  0
VERTEX
  5
908
  8
0
 10
82.104862481053345
 20
55.98443787386185
 30
0.0
  0
VERTEX
  5
909
  8
0
 10
82.040655455717797
 20
55.969527630181737
 30
0.0
  0
VERTEX
  5
90A
  8
0
 10
81.976466079652084
 20
55.95453161241462
 30
0.0
  0
VERTEX
  5
90B
  8
0
 10
81.912294495117294
 20
55.93944990421582
 30
0.0
  0
VERTEX
  5
90C
  8
0
 10
81.848140844374484
 20
55.924282589240619
 30
0.0
  0
VERTEX
  5
90D
  8
0
 10
81.784005269684684
 20
55.909029751144352
 30
0.0
  0
VERTEX
  5
90E
  8
0
 10
81.719887913308966
 20
55.893691473582301
 30
0.0
  0
VERTEX
  5
90F
  8
0
 10
81.655788917508403
 20
55.878267840209787
 30
0.0
  0
SEQEND
  5
910
  8
0
  0
POLYLINE
  5
483
  8
0
 66
     1
 10
0.0
 20
0.0
 30
0.0
  0
VERTEX
  5
911
  8
0
 10
82.1690870133977
 20
55.99926225979965
 30
0.0
  0
VERTEX
  5
912
  8
0
 10
82.735494257410849
 20
56.124025811734299
 30
0.0
  0
VERTEX
  5
913
  8
0
 10
83.280977051262411
 20
56.23268430323261
 30
0.0
  0
VERTEX
  5
914
  8
0
 10
83.805322831491836
 20
56.324990236346991
 30
0.0
  0
VERTEX
  5
915
  8
0
 10
84.308060570198478
 20
56.400646091437238
 30
0.0
  0
VERTEX
  5
916
  8
0
 10
84.782019730888948
 20
56.45822844776486
 30
0.0
  0
VERTEX
  5
917
  8
0
 10
85.2205135683447
 20
56.496813910086978
 30
0.0
  0
VERTEX
  5
918
  8
0
 10
85.622787379012706
 20
56.516319872145317
 30
0.0
  0
VERTEX
  5
919
  8
0
 10
85.988806823349705
 20
56.516488954873303
 30
0.0
  0
VERTEX
  5
91A
  8
0
 10
86.313013197396614
 20
56.497110904527659
 30
0.0
  0
VERTEX
  5
91B
  8
0
 10
86.590839242144511
 20
56.458745557446917
 30
0.0
  0
VERTEX
  5
91C
  8
0
 10
86.822936964655113
 20
56.401767249476933
 30
0.0
  0
VERTEX
  5
91D
  8
0
 10
87.009029493854257
 20
56.326268723169818
 30
0.0
  0
VERTEX
  5
91E
  8
0
 10
87.147102249452672
 20
56.233227342758958
 30
0.0
  0
VERTEX
  5
91F
  8
0
 10
87.235829671688435
 20
56.124148377667836
 30
0.0
  0
VERTEX
  5
920
  8
0
 10
87.275942411677534
 20
55.999262259799792
 30
0.0
  0
SEQEND
  5
921
  8
0
  0
POLYLINE
  5
484
  8
0
 66
     1
 10
0.0
 20
0.0
 30
0.0
  0
VERTEX
  5
922
  8
0
 10
87.290048520310961
 20
55.878267840209787
 30
0.0
  0
VERTEX
  5
923
  8
0
 10
87.288286995369901
 20
55.893691473582301
 30
0.0
  0
VERTEX
  5
924
  8
0
 10
87.286524965856003
 20
55.909029751144352
 30
0.0
  0
VERTEX
  5
925
  8
0
 10
87.284762435678857
 20
55.924282589240619
 30
0.0
  0
VERTEX
  5
926
  8
0
 10
87.282999408747926
 20
55.93944990421582
 30
0.0
  0
VERTEX
  5
927
  8
0
 10
87.281235888972745
 20
55.95453161241462
 30
0.0
  0
VERTEX
  5
928
  8
0
 10
87.279471880262847
 20
55.969527630181723
 30
0.0
  0
VERTEX
  5
929
  8
0
 10
87.277707386527752
 20
55.984437873861822
 30
0.0
  0
VERTEX
  5
92A
  8
0
 10
87.275942411676965
 20
55.9992622597996
 30
0.0
  0
SEQEND
  5
92B
  8
0
  0
POLYLINE
  5
485
  8
0
 66
     1
 10
0.0
 20
0.0
 30
0.0
  0
VERTEX
  5
92C
  8
0
 10
89.746481827692151
 20
55.239999999999952
 30
0.0
  0
VERTEX
  5
92D
  8
0
 10
89.365582212523137
 20
55.25356917281254
 30
0.0
  0
VERTEX
  5
92E
  8
0
 10
89.008875028830644
 20
55.277516002021223
 30
0.0
  0
VERTEX
  5
92F
  8
0
 10
88.676224478390665
 20
55.311739733666137
 30
0.0
  0
VERTEX
  5
930
  8
0
 10
88.372095943493676
 20
55.355794608809163
 30
0.0
  0
VERTEX
  5
931
  8
0
 10
88.102886265068364
 20
55.408620006484568
 30
0.0
  0
VERTEX
  5
932
  8
0
 10
87.868126948869445
 20
55.47013318848235
 30
0.0
  0
VERTEX
  5
933
  8
0
 10
87.670366385905155
 20
55.5396718114213
 30
0.0
  0
VERTEX
  5
934
  8
0
 10
87.513588767421993
 20
55.615622412694307
 30
0.0
  0
VERTEX
  5
935
  8
0
 10
87.397374212371687
 20
55.697796072318987
 30
0.0
  0
VERTEX
  5
936
  8
0
 10
87.322460749333459
 20
55.785710966727947
 30
0.0
  0
VERTEX
  5
937
  8
0
 10
87.290048520310734
 20
55.878267840209702
 30
0.0
  0
SEQEND
  5
938
  8
0
  0
POLYLINE
  5
486
  8
0
 66
     1
 10
0.0
 20
0.0
 30
0.0
  0
VERTEX
  5
939
  8
0
 10
94.462775477656237
 20
55.87826784020973
 30
0.0
  0
VERTEX
  5
93A
  8
0
 10
94.194957231551371
 20
55.786174769128223
 30
0.0
  0
VERTEX
  5
93B
  8
0
 10
93.897375725497369
 20
55.698981777742148
 30
0.0
  0
VERTEX
  5
93C
  8
0
 10
93.570031612292794
 20
55.616661066277459
 30
0.0
  0
VERTEX
  5
93D
  8
0
 10
93.215420785016676
 20
55.540012493646003
 30
0.0
  0
VERTEX
  5
93E
  8
0
 10
92.842004104998523
 20
55.470930379113703
 30
0.0
  0
VERTEX
  5
93F
  8
0
 10
92.450162377726613
 20
55.409463044267142
 30
0.0
  0
VERTEX
  5
940
  8
0
 10
92.041688740786071
 20
55.356076332424912
 30
0.0
  0
VERTEX
  5
941
  8
0
 10
91.62659330400119
 20
55.312179320992179
 30
0.0
  0
VERTEX
  5
942
  8
0
 10
91.207318098193014
 20
55.277996305255961
 30
0.0
  0
VERTEX
  5
943
  8
0
 10
90.785542513303795
 20
55.253763375964262
 30
0.0
  0
VERTEX
  5
944
  8
0
 10
90.367030177276078
 20
55.239999999999917
 30
0.0
  0
SEQEND
  5
945
  8
0
  0
POLYLINE
  5
487
  8
0
 66
     1
 10
0.0
 20
0.0
 30
0.0
  0
VERTEX
  5
946
  8
0
 10
94.794117255910464
 20
55.9992622597996
 30
0.0
  0
VERTEX
  5
947
  8
0
 10
94.752659337159244
 20
55.984437873861793
 30
0.0
  0
VERTEX
  5
948
  8
0
 10
94.711212719450216
 20
55.969527630181688
 30
0.0
  0
VERTEX
  5
949
  8
0
 10
94.669777494615019
 20
55.95453161241457
 30
0.0
  0
VERTEX
  5
94A
  8
0
 10
94.628353754485389
 20
55.939449904215763
 30
0.0
  0
VERTEX
  5
94B
  8
0
 10
94.586941590893019
 20
55.924282589240562
 30
0.0
  0
VERTEX
  5
94C
  8
0
 10
94.545541095669577
 20
55.909029751144288
 30
0.0
  0
VERTEX
  5
94D
  8
0
 10
94.504152360646756
 20
55.89369147358223
 30
0.0
  0
VERTEX
  5
94E
  8
0
 10
94.462775477656237
 20
55.87826784020973
 30
0.0
  0
SEQEND
  5
94F
  8
0
  0
POLYLINE
  5
488
  8
0
 66
     1
 10
0.0
 20
0.0
 30
0.0
  0
VERTEX
  5
950
  8
0
 10
94.794117255910351
 20
55.9992622597996
 30
0.0
  0
VERTEX
  5
951
  8
0
 10
95.183903961044635
 20
56.124025743282907
 30
0.0
  0
VERTEX
  5
952
  8
0
 10
95.608856423271845
 20
56.23268422986024
 30
0.0
  0
VERTEX
  5
953
  8
0
 10
96.069359264743881
 20
56.324990200155547
 30
0.0
  0
VERTEX
  5
954
  8
0
 10
96.565586021486666
 20
56.400646108046367
 30
0.0
  0
VERTEX
  5
955
  8
0
 10
97.091517747459761
 20
56.45822844502203
 30
0.0
  0
VERTEX
  5
956
  8
0
 10
97.639811460158967
 20
56.496813897098441
 30
0.0
  0
VERTEX
  5
957
  8
0
 10
98.209292703958965
 20
56.516319870558142
 30
0.0
  0
VERTEX
  5
958
  8
0
 10
98.800822209611425
 20
56.516488950442998
 30
0.0
  0
VERTEX
  5
959
  8
0
 10
99.406275033095511
 20
56.497110902162042
 30
0.0
  0
VERTEX
  5
95A
  8
0
 10
100.0160872067511
 20
56.458745560595069
 30
0.0
  0
VERTEX
  5
95B
  8
0
 10
100.6300459219992
 20
56.401767234611071
 30
0.0
  0
VERTEX
  5
95C
  8
0
 10
101.2476915173593
 20
56.326268673044439
 30
0.0
  0
VERTEX
  5
95D
  8
0
 10
101.862064126218
 20
56.233227298824971
 30
0.0
  0
VERTEX
  5
95E
  8
0
 10
102.4650650219623
 20
56.124148361102179
 30
0.0
  0
VERTEX
  5
95F
  8
0
 10
103.0571828659572
 20
55.999262259799821
 30
0.0
  0
SEQEND
  5
960
  8
0
  0
POLYLINE
  5
489
  8
0
 66
     1
 10
0.0
 20
0.0
 30
0.0
  0
VERTEX
  5
961
  8
0
 10
103.5791990164312
 20
55.878267840209787
 30
0.0
  0
VERTEX
  5
962
  8
0
 10
103.514011338345
 20
55.893691473582301
 30
0.0
  0
VERTEX
  5
963
  8
0
 10
103.4488049878405
 20
55.909029751144352
 30
0.0
  0
VERTEX
  5
964
  8
0
 10
103.383580109595
 20
55.924282589240619
 30
0.0
  0
VERTEX
  5
965
  8
0
 10
103.3183368482858
 20
55.93944990421582
 30
0.0
  0
VERTEX
  5
966
  8
0
 10
103.2530753485902
 20
55.95453161241462
 30
0.0
  0
VERTEX
  5
967
  8
0
 10
103.18779575518531
 20
55.969527630181723
 30
0.0
  0
VERTEX
  5
968
  8
0
 10
103.1224982127485
 20
55.984437873861822
 30
0.0
  0
VERTEX
  5
969
  8
0
 10
103.0571828659571
 20
55.9992622597996
 30
0.0
  0
SEQEND
  5
96A
  8
0
  0
POLYLINE
  5
48A
  8
0
 66
     1
 10
0.0
 20
0.0
 30
0.0
  0
VERTEX
  5
96B
  8
0
 10
107.74982081432729
 20
55.240000000000002
 30
0.0
  0
VERTEX
  5
96C
  8
0
 10
107.45792359575989
 20
55.253569173032837
 30
0.0
  0
VERTEX
  5
96D
  8
0
 10
107.13778252037881
 20
55.277516002706278
 30
0.0
  0
VERTEX
  5
96E
  8
0
 10
106.7897423032714
 20
55.31173973505971
 30
0.0
  0
VERTEX
  5
96F
  8
0
 10
106.41843331601051
 20
55.355794611101139
 30
0.0
  0
VERTEX
  5
970
  8
0
 10
106.0322470894173
 20
55.40862000986106
 30
0.0
  0
VERTEX
  5
971
  8
0
 10
105.63127232493321
 20
55.470133193139588
 30
0.0
  0
VERTEX
  5
972
  8
0
 10
105.219885933179
 20
55.53967181744693
 30
0.0
  0
VERTEX
  5
973
  8
0
 10
104.8073187499852
 20
55.615622420167568
 30
0.0
  0
VERTEX
  5
974
  8
0
 10
104.3941691295481
 20
55.697796081534882
 30
0.0
  0
VERTEX
  5
975
  8
0
 10
103.98299004816531
 20
55.785710975373462
 30
0.0
  0
VERTEX
  5
976
  8
0
 10
103.57919901643101
 20
55.878267840209702
 30
0.0
  0
SEQEND
  5
977
  8
0
  0
POLYLINE
  5
48B
  8
0
 66
     1
 10
0.0
 20
0.0
 30
0.0
  0
VERTEX
  5
978
  8
0
 10
108.0121880680931
 20
55.878267840209787
 30
0.0
  0
VERTEX
  5
979
  8
0
 10
108.2285007021074
 20
55.786174555423003
 30
0.0
  0
VERTEX
  5
97A
  8
0
 10
108.40646676965591
 20
55.69898155561998
 30
0.0
  0
VERTEX
  5
97B
  8
0
 10
108.5460908024653
 20
55.616660989497937
 30
0.0
  0
VERTEX
  5
97C
  8
0
 10
108.6455018576041
 20
55.540012367877353
 30
0.0
  0
VERTEX
  5
97D
  8
0
 10
108.70198181226191
 20
55.470930209638027
 30
0.0
  0
VERTEX
  5
97E
  8
0
 10
108.71550414019551
 20
55.409462978666738
 30
0.0
  0
VERTEX
  5
97F
  8
0
 10
108.68519398516359
 20
55.356076294827602
 30
0.0
  0
VERTEX
  5
980
  8
0
 10
108.6113406820093
 20
55.312179232040307
 30
0.0
  0
VERTEX
  5
981
  8
0
 10
108.4944955895613
 20
55.277996247568268
 30
0.0
  0
VERTEX
  5
982
  8
0
 10
108.3346988471181
 20
55.253763357027701
 30
0.0
  0
VERTEX
  5
983
  8
0
 10
108.1333407860331
 20
55.240000000000002
 30
0.0
  0
SEQEND
  5
984
  8
0
  0
POLYLINE
  5
48C
  8
0
 66
     1
 10
0.0
 20
0.0
 30
0.0
  0
VERTEX
  5
985
  8
0
 10
107.7036704530578
 20
55.9992622597996
 30
0.0
  0
VERTEX
  5
986
  8
0
 10
107.74227258251111
 20
55.984437873861822
 30
0.0
  0
VERTEX
  5
987
  8
0
 10
107.78086418938371
 20
55.969527630181723
 30
0.0
  0
VERTEX
  5
988
  8
0
 10
107.81944518816979
 20
55.95453161241462
 30
0.0
  0
VERTEX
  5
989
  8
0
 10
107.8580154933633
 20
55.93944990421582
 30
0.0
  0
VERTEX
  5
98A
  8
0
 10
107.8965750194584
 20
55.924282589240619
 30
0.0
  0
VERTEX
  5
98B
  8
0
 10
107.935123680949
 20
55.909029751144352
 30
0.0
  0
VERTEX
  5
98C
  8
0
 10
107.9736613923293
 20
55.893691473582301
 30
0.0
  0
VERTEX
  5
98D
  8
0
 10
108.0121880680932
 20
55.878267840209787
 30
0.0
  0
SEQEND
  5
98E
  8
0
  0
POLYLINE
  5
48D
  8
0
 66
     1
 10
0.0
 20
0.0
 30
0.0
  0
VERTEX
  5
98F
  8
0
 10
107.7036704530578
 20
55.999262259799529
 30
0.0
  0
VERTEX
  5
990
  8
0
 10
107.3574352602926
 20
56.131974074487722
 30
0.0
  0
VERTEX
  5
991
  8
0
 10
107.0584442111284
 20
56.246861980239878
 30
0.0
  0
VERTEX
  5
992
  8
0
 10
106.8087135595776
 20
56.343057929700187
 30
0.0
  0
VERTEX
  5
993
  8
0
 10
106.61194241341811
 20
56.419033831626876
 30
0.0
  0
VERTEX
  5
994
  8
0
 10
106.4678919177058
 20
56.47476704741198
 30
0.0
  0
VERTEX
  5
995
  8
0
 10
106.38211687299091
 20
56.508002384550082
 30
0.0
  0
VERTEX
  5
996
  8
0
 10
106.3676500367026
 20
56.513611871316762
 30
0.0
  0
SEQEND
  5
997
  8
0
  0
ENDSEC
  0
EOF
