  0
SECTION
  2
HEADER
  9
$ACADVER
  1
AC1009
  9
$INSBASE
 10
0.0
 20
0.0
 30
0.0
  9
$EXTMIN
 10
0.0
 20
-2.960436562073669
 30
0.0
  9
$EXTMAX
 10
164.31479122813209
 20
132.49999999999989
 30
0.0
  9
$LIMMIN
 10
0.0
 20
0.0
  9
$LIMMAX
 10
187.5
 20
135.0
  9
$ORTHOMODE
 70
     1
  9
$REGENMODE
 70
     1
  9
$FILLMODE
 70
     1
  9
$QTEXTMODE
 70
     0
  9
$MIRRTEXT
 70
     0
  9
$DRAGMODE
 70
     2
  9
$LTSCALE
 40
5.0
  9
$OSMODE
 70
  3071
  9
$ATTMODE
 70
     1
  9
$TEXTSIZE
 40
0.2
  9
$TRACEWID
 40
0.05
  9
$TEXTSTYLE
  7
STANDARD
  9
$CLAYER
  8
0
  9
$CELTYPE
  6
BYLAYER
  9
$CECOLOR
 62
   256
  9
$DIMSCALE
 40
0.5
  9
$DIMASZ
 40
3.0
  9
$DIMEXO
 40
2.0
  9
$DIMDLI
 40
0.38
  9
$DIMRND
 40
0.0
  9
$DIMDLE
 40
0.0
  9
$DIMEXE
 40
2.0
  9
$DIMTP
 40
0.0
  9
$DIMTM
 40
0.0
  9
$DIMTXT
 40
3.2000000000000002
  9
$DIMCEN
 40
0.0
  9
$DIMTSZ
 40
0.0
  9
$DIMTOL
 70
     0
  9
$DIMLIM
 70
     0
  9
$DIMTIH
 70
     0
  9
$DIMTOH
 70
     0
  9
$DIMSE1
 70
     0
  9
$DIMSE2
 70
     0
  9
$DIMTAD
 70
     1
  9
$DIMZIN
 70
     0
  9
$DIMBLK
  1

  9
$DIMASO
 70
     1
  9
$DIMSHO
 70
     0
  9
$DIMPOST
  1

  9
$DIMAPOST
  1

  9
$DIMALT
 70
     0
  9
$DIMALTD
 70
     2
  9
$DIMALTF
 40
25.399999999999999
  9
$DIMLFAC
 40
1.0
  9
$DIMTOFL
 70
     1
  9
$DIMTVP
 40
1.6000000000000001
  9
$DIMTIX
 70
     1
  9
$DIMSOXD
 70
     0
  9
$DIMSAH
 70
     0
  9
$DIMBLK1
  1

  9
$DIMBLK2
  1

  9
$DIMSTYLE
  2
STANDARD
  9
$DIMCLRD
 70
     0
  9
$DIMCLRE
 70
     0
  9
$DIMCLRT
 70
     0
  9
$DIMTFAC
 40
1.0
  9
$DIMGAP
 40
0.09
  9
$LUNITS
 70
     2
  9
$LUPREC
 70
     4
  9
$SKETCHINC
 40
0.1
  9
$FILLETRAD
 40
1.0
  9
$AUNITS
 70
     0
  9
$AUPREC
 70
     4
  9
$MENU
  1
E:\r13\win\SUPPORT\ACAD
  9
$ELEVATION
 40
0.0
  9
$PELEVATION
 40
0.0
  9
$THICKNESS
 40
0.0
  9
$LIMCHECK
 70
     0
  9
$BLIPMODE
 70
     0
  9
$CHAMFERA
 40
0.0
  9
$CHAMFERB
 40
0.0
  9
$SKPOLY
 70
     0
  9
$TDCREATE
 40
2449839.789016204
  9
$TDUPDATE
 40
2456598.4685866898
  9
$TDINDWG
 40
0.000352963
  9
$TDUSRTIMER
 40
0.000352963
  9
$USRTIMER
 70
     1
  9
$ANGBASE
 50
0.0
  9
$ANGDIR
 70
     0
  9
$PDMODE
 70
     0
  9
$PDSIZE
 40
0.0
  9
$PLINEWID
 40
0.0
  9
$COORDS
 70
     1
  9
$SPLFRAME
 70
     0
  9
$SPLINETYPE
 70
     6
  9
$SPLINESEGS
 70
     8
  9
$ATTDIA
 70
     0
  9
$ATTREQ
 70
     1
  9
$HANDLING
 70
     1
  9
$HANDSEED
  5
2A9
  9
$SURFTAB1
 70
     6
  9
$SURFTAB2
 70
     6
  9
$SURFTYPE
 70
     6
  9
$SURFU
 70
     6
  9
$SURFV
 70
     6
  9
$UCSNAME
  2

  9
$UCSORG
 10
0.0
 20
0.0
 30
0.0
  9
$UCSXDIR
 10
1.0
 20
0.0
 30
0.0
  9
$UCSYDIR
 10
0.0
 20
1.0
 30
0.0
  9
$PUCSNAME
  2

  9
$PUCSORG
 10
0.0
 20
0.0
 30
0.0
  9
$PUCSXDIR
 10
1.0
 20
0.0
 30
0.0
  9
$PUCSYDIR
 10
0.0
 20
1.0
 30
0.0
  9
$USERI1
 70
     0
  9
$USERI2
 70
     1
  9
$USERI3
 70
     1
  9
$USERI4
 70
     0
  9
$USERI5
 70
     0
  9
$USERR1
 40
0.0
  9
$USERR2
 40
0.0
  9
$USERR3
 40
0.0
  9
$USERR4
 40
0.0
  9
$USERR5
 40
0.0
  9
$WORLDVIEW
 70
     1
  9
$SHADEDGE
 70
     3
  9
$SHADEDIF
 70
    70
  9
$TILEMODE
 70
     1
  9
$MAXACTVP
 70
    16
  9
$PLIMCHECK
 70
     0
  9
$PEXTMIN
 10
1.0000000000000000E+020
 20
1.0000000000000000E+020
 30
1.0000000000000000E+020
  9
$PEXTMAX
 10
-1.0000000000000000E+020
 20
-1.0000000000000000E+020
 30
-1.0000000000000000E+020
  9
$PLIMMIN
 10
0.0
 20
0.0
  9
$PLIMMAX
 10
12.0
 20
9.0
  9
$UNITMODE
 70
     0
  9
$VISRETAIN
 70
     0
  9
$PLINEGEN
 70
     0
  9
$PSLTSCALE
 70
     0
  0
ENDSEC
  0
SECTION
  2
TABLES
  0
TABLE
  2
VPORT
 70
     1
  0
VPORT
  2
*ACTIVE
 70
     0
 10
0.0
 20
0.0
 11
1.0
 21
1.0
 12
97.570150770051072
 22
66.014785922033241
 13
0.0
 23
0.0
 14
5.0
 24
5.0
 15
5.0
 25
5.0
 16
0.0
 26
0.0
 36
1.0
 17
0.0
 27
0.0
 37
0.0
 40
139.20783109903601
 41
1.831871345029239
 42
50.0
 43
0.0
 44
0.0
 50
0.0
 51
0.0
 71
     0
 72
   500
 73
     1
 74
     0
 75
     0
 76
     0
 77
     0
 78
     2
  0
ENDTAB
  0
TABLE
  2
LTYPE
 70
     3
  0
LTYPE
  2
CONTINUOUS
 70
     0
  3
Solid Line
 72
    65
 73
     0
 40
0.0
  0
LTYPE
  2
CENTER
 70
     0
  3
____ _ ____ _ ____ _ ____ _ ____ _ ____ _ ____
 72
    65
 73
     4
 40
2.0
 49
1.25
 49
-0.25
 49
0.25
 49
-0.25
  0
LTYPE
  2
PHANTOM2
 70
     0
  3
___ _ _ ___ _ _ ___ _ _ ___ _ _
 72
    65
 73
     6
 40
1.25
 49
0.625
 49
-0.125
 49
0.125
 49
-0.125
 49
0.125
 49
-0.125
  0
ENDTAB
  0
TABLE
  2
LAYER
 70
     3
  0
LAYER
  2
0
 70
     0
 62
     7
  6
CONTINUOUS
  0
LAYER
  2
1
 70
     0
 62
     1
  6
CENTER
  0
LAYER
  2
3
 70
     0
 62
     3
  6
CONTINUOUS
  0
ENDTAB
  0
TABLE
  2
STYLE
 70
     2
  0
STYLE
  2
STANDARD
 70
     0
 40
0.0
 41
1.0
 50
0.0
 71
     0
 42
0.2
  3
TXT
  4
BIGFONT
  0
STYLE
  2
STANDARD1
 70
     0
 40
0.0
 41
1.0
 50
0.0
 71
     0
 42
3.0
  3
txt
  4

  0
ENDTAB
  0
TABLE
  2
VIEW
 70
     1
  0
VIEW
  2
ALL
 70
     0
 40
179.5384664489153
 10
135.0
 20
89.769233224457665
 41
0.0
 11
0.0
 21
0.0
 31
1.0
 12
0.0
 22
0.0
 32
0.0
 42
0.0
 43
0.0
 44
0.0
 50
0.0
 71
     0
  0
ENDTAB
  0
TABLE
  2
UCS
 70
     0
  0
ENDTAB
  0
TABLE
  2
APPID
 70
     3
  0
APPID
  2
ACAD
 70
     0
  0
APPID
  2
ACAD_MLEADERVER
 70
     0
  0
APPID
  2
ACAD_NAV_VCDISPLAY
 70
     0
  0
ENDTAB
  0
TABLE
  2
DIMSTYLE
 70
     1
  0
DIMSTYLE
  2
STANDARD
 70
     0
  3

  4

  5

  6

  7

 40
1.0
 41
0.18
 42
0.0625
 43
0.38
 44
0.18
 45
0.0
 46
0.0
 47
0.0
 48
0.0
140
0.18
141
0.09
142
0.0
143
25.399999999999999
144
1.0
145
0.0
146
1.0
147
0.09
 71
     0
 72
     0
 73
     1
 74
     1
 75
     0
 76
     0
 77
     0
 78
     0
170
     0
171
     2
172
     0
173
     0
174
     0
175
     0
176
     0
177
     0
178
     0
  0
ENDTAB
  0
ENDSEC
  0
SECTION
  2
BLOCKS
  0
BLOCK
  8
0
  2
$MODEL_SPACE
 70
     0
 10
0.0
 20
0.0
 30
0.0
  3
$MODEL_SPACE
  1

  0
ENDBLK
  5
12A
  8
0
  0
BLOCK
 67
     1
  8
0
  2
$PAPER_SPACE
 70
     0
 10
0.0
 20
0.0
 30
0.0
  3
$PAPER_SPACE
  1

  0
ENDBLK
  5
128
 67
     1
  8
0
  0
ENDSEC
  0
SECTION
  2
ENTITIES
  0
LINE
  5
34
  8
0
 10
159.22899353209471
 20
69.587850521117019
 30
0.0
 11
159.22899353209471
 21
59.278601685520407
 31
0.0
  0
LINE
  5
35
  8
0
 10
130.77100646790541
 20
69.587850521117133
 30
0.0
 11
130.77100646790541
 21
59.278601685521068
 31
0.0
  0
ARC
  5
36
  8
0
 10
129.70766671218209
 20
66.197366644955579
 30
0.0
 40
8.0
 50
258.00001336186358
 51
291.59252061343551
  0
ARC
  5
37
  8
0
 10
135.22771776911881
 20
52.25
 30
0.0
 40
7.0
 50
77.73456341612291
 51
111.5925506131487
  0
ARC
  5
38
  8
0
 10
160.2923332878178
 20
66.197366644955579
 30
0.0
 40
8.0
 50
248.4074793865646
 51
281.99998663813648
  0
ARC
  5
39
  8
0
 10
154.7722822308811
 20
52.25
 30
0.0
 40
7.0
 50
68.407449386851326
 51
102.2654365838771
  0
ARC
  5
3A
  8
0
 10
144.99999999999989
 20
97.200000000000017
 30
0.0
 40
39.0
 50
257.7345665391075
 51
282.26543549889931
  0
ARC
  5
3B
  8
0
 10
131.75545381943121
 20
62.65742027386171
 30
0.0
 40
8.0
 50
76.615511344701517
 51
101.576434306531
  0
ARC
  5
3C
  8
0
 10
135.2277177691187
 20
77.249999999999986
 30
0.0
 40
7.0
 50
256.61550900671352
 51
282.26542945229039
  0
ARC
  5
3D
  8
0
 10
158.24454618056879
 20
62.65742027386171
 30
0.0
 40
8.0
 50
78.423565693469044
 51
103.3844886552985
  0
ARC
  5
3E
  8
0
 10
154.77228223088119
 20
77.249999999999986
 30
0.0
 40
7.0
 50
257.73457054770961
 51
283.38449099328648
  0
ARC
  5
3F
  8
0
 10
145.0
 20
32.299999999999997
 30
0.0
 40
39.0
 50
77.734563921453358
 51
102.2654335796915
  0
ARC
  5
40
  8
0
 10
163.31479122813209
 20
68.66518536217059
 30
0.0
 40
1.0
 50
0.0
 51
75.469960909223957
  0
ARC
  5
41
  8
0
 10
126.68520877186801
 20
68.665185362170703
 30
0.0
 40
1.0
 50
104.5300390907753
 51
180.0
  0
ARC
  5
42
  8
0
 10
133.99999999999989
 20
56.595107983402507
 30
0.0
 40
0.5
 50
0.0000000000000509
 51
78.000000000000014
  0
ARC
  5
43
  8
0
 10
155.99999999999989
 20
56.595107983402492
 30
0.0
 40
0.5
 50
102.0
 51
180.00000000000011
  0
LINE
  5
44
  8
0
 10
134.10395584540879
 20
57.084181783769417
 30
0.0
 11
125.68520877186801
 21
58.873641715290802
 31
0.0
  0
LINE
  5
45
  8
0
 10
155.89604415459101
 20
57.084181783769388
 30
0.0
 11
164.31479122813209
 21
58.873641715290837
 31
0.0
  0
LINE
  5
46
  8
0
 10
134.5
 20
46.300000000000011
 30
0.0
 11
155.5
 21
46.299999999999997
 31
0.0
  0
LINE
  5
47
  8
0
 10
154.5
 20
45.299999999999997
 30
0.0
 11
155.5
 21
46.299999999999997
 31
0.0
  0
LINE
  5
48
  8
0
 10
134.5
 20
46.29999999999999
 30
0.0
 11
135.5
 21
45.299999999999997
 31
0.0
  0
LINE
  5
49
  8
0
 10
155.49999999999989
 20
56.595107983402492
 30
0.0
 11
155.5
 21
46.299999999999997
 31
0.0
  0
LINE
  5
4A
  8
0
 10
134.49999999999989
 20
56.595107983402507
 30
0.0
 11
134.5
 21
46.29999999999999
 31
0.0
  0
LINE
  5
4B
  8
0
 10
154.5
 20
45.299999999999997
 30
0.0
 11
135.5
 21
45.299999999999997
 31
0.0
  0
ARC
  5
4C
  8
0
 10
145.0
 20
-2.0
 30
0.0
 40
74.000000000000014
 50
75.469960909224227
 51
104.5300390907756
  0
LINE
  5
4D
  8
0
 10
155.49999999999989
 20
57.000000000000007
 30
0.0
 11
134.49999999999989
 21
57.0
 31
0.0
  0
LINE
  5
4E
  8
0
 10
164.31479122813209
 20
68.66518536217059
 30
0.0
 11
164.31479122813209
 21
58.873641715290837
 31
0.0
  0
LINE
  5
4F
  8
0
 10
125.68520877186801
 20
68.665185362170703
 30
0.0
 11
125.68520877186801
 21
58.873641715290802
 31
0.0
  0
LINE
  5
50
  8
1
 10
145.0
 20
74.500000000000014
 30
0.0
 11
145.0
 21
26.499999999999961
 31
0.0
  0
LINE
  5
51
  8
0
 10
153.22899353209471
 20
69.400270068836676
 30
0.0
 11
153.22899353209471
 21
60.099729931163203
 31
0.0
  0
LINE
  5
52
  8
0
 10
136.77100646790521
 20
69.400270068836676
 30
0.0
 11
136.77100646790521
 21
60.099729931163203
 31
0.0
  0
LINE
  5
53
  8
0
 10
105.4999999999999
 20
57.000000000000007
 30
0.0
 11
84.499999999999943
 21
57.0
 31
0.0
  0
ARC
  5
54
  8
0
 10
95.000000000000028
 20
-2.0
 30
0.0
 40
74.000000000000014
 50
77.076664775463101
 51
105.0863193255436
  0
LINE
  5
55
  8
0
 10
104.5
 20
45.299999999999997
 30
0.0
 11
85.499999999999986
 21
45.299999999999997
 31
0.0
  0
LINE
  5
56
  8
0
 10
84.499999999999943
 20
56.595107983402507
 30
0.0
 11
84.499999999999986
 21
46.29999999999999
 31
0.0
  0
LINE
  5
57
  8
0
 10
105.4999999999999
 20
56.595107983402492
 30
0.0
 11
105.5
 21
46.299999999999997
 31
0.0
  0
LINE
  5
58
  8
0
 10
84.499999999999986
 20
46.29999999999999
 30
0.0
 11
85.499999999999986
 21
45.299999999999997
 31
0.0
  0
LINE
  5
59
  8
0
 10
104.5
 20
45.299999999999997
 30
0.0
 11
105.5
 21
46.299999999999997
 31
0.0
  0
LINE
  5
5A
  8
0
 10
84.499999999999986
 20
46.300000000000011
 30
0.0
 11
105.5
 21
46.299999999999997
 31
0.0
  0
LINE
  5
5B
  8
0
 10
105.896044154591
 20
57.084181783769388
 30
0.0
 11
112.3262379212494
 21
58.4509616616823
 31
0.0
  0
LINE
  5
5C
  8
0
 10
84.103955845408834
 20
57.084181783769417
 30
0.0
 11
75.000000000000242
 21
59.019287335865151
 31
0.0
  0
ARC
  5
5D
  8
0
 10
105.9999999999999
 20
56.595107983402492
 30
0.0
 40
0.5
 50
102.0
 51
180.00000000000011
  0
ARC
  5
5E
  8
0
 10
83.999999999999957
 20
56.595107983402507
 30
0.0
 40
0.5
 50
0.0000000000000509
 51
78.000000000000014
  0
ARC
  5
5F
  8
0
 10
72.913836053564211
 20
93.953462612415365
 30
0.0
 40
12.0
 50
11.129365024153961
 51
60.870634975847082
  0
ARC
  5
60
  8
0
 10
103.4361639464362
 20
84.036157105142223
 30
0.0
 40
12.0
 50
83.129365024153714
 51
132.87063497584739
  0
ARC
  5
61
  8
0
 10
122.3000000000002
 20
109.9999999999998
 30
0.0
 40
12.0
 50
155.12936502415019
 51
204.8706349758491
  0
ARC
  5
62
  8
0
 10
103.4361639464362
 20
135.96384289485761
 30
0.0
 40
12.0
 50
227.12936502414951
 51
276.87063497585228
  0
ARC
  5
63
  8
0
 10
72.913836053563955
 20
126.04653738758439
 30
0.0
 40
12.0
 50
299.12936502414323
 51
348.87063497585513
  0
ARC
  5
64
  8
0
 10
106.3262379212494
 20
101.7710064679052
 30
0.0
 40
6.0000000000000462
 50
255.9704104300983
 51
32.02958956989486
  0
ARC
  5
65
  8
0
 10
90.673762078750968
 20
96.685208771867963
 30
0.0
 40
6.000000000000095
 50
183.97041043010049
 51
320.02958956989647
  0
ARC
  5
66
  8
0
 10
81.000000000000199
 20
109.9999999999998
 30
0.0
 40
6.0
 50
111.97041043012079
 51
248.02958956990031
  0
LINE
  5
67
  8
1
 10
95.000000000000213
 20
132.49999999999989
 30
0.0
 11
95.000000000000185
 21
87.5
 31
0.0
  0
ARC
  5
68
  8
0
 10
90.673762078750897
 20
123.31479122813199
 30
0.0
 40
6.000000000000032
 50
39.970410430108487
 51
176.0295895698824
  0
ARC
  5
69
  8
0
 10
106.3262379212496
 20
118.22899353209451
 30
0.0
 40
5.9999999999999583
 50
327.97041043010267
 51
104.02958956989239
  0
LINE
  5
6A
  8
1
 10
72.500000000000156
 20
109.9999999999998
 30
0.0
 11
117.5000000000002
 21
109.9999999999998
 31
0.0
  0
LINE
  5
6B
  8
1
 10
95.0
 20
74.5
 30
0.0
 11
95.000000000000014
 21
26.499999999999961
 31
0.0
  0
LINE
  5
6C
  8
0
 10
75.000000000000242
 20
68.484040746824448
 30
0.0
 11
75.000000000000242
 21
59.019287335865151
 31
0.0
  0
LINE
  5
6D
  8
0
 10
112.3262379212494
 20
69.150923784155864
 30
0.0
 11
112.3262379212494
 21
58.4509616616823
 31
0.0
  0
ARC
  5
6E
  8
0
 10
76.000000000000213
 20
68.484040746824448
 30
0.0
 40
1.0
 50
105.0863193255432
 51
180.0
  0
ARC
  5
6F
  8
0
 10
111.3262379212494
 20
69.150923784155864
 30
0.0
 40
1.0
 50
0.0
 51
77.076664775463229
  0
ARC
  5
70
  8
0
 10
100.07186002252659
 20
59.86061988869173
 30
0.0
 40
11.444548245645329
 50
75.688154277322852
 51
101.82830072887769
  0
ARC
  5
71
  8
0
 10
82.571509957087159
 20
67.074508444484124
 30
0.0
 40
3.816276234486601
 50
79.986437734238237
 51
100.20001527353369
  0
ARC
  5
72
  8
0
 10
89.885784426428245
 20
108.49872452696211
 30
0.0
 40
38.248724526962178
 50
259.98650136086621
 51
281.82825775787302
  0
ARC
  5
73
  8
0
 10
108.4763523547813
 20
92.804237739170375
 30
0.0
 40
22.554237739170389
 50
255.6881160257802
 51
275.29371743951918
  0
ARC
  5
74
  8
0
 10
108.4763523547813
 20
36.695762260829632
 30
0.0
 40
22.554237739170389
 50
80.171795623833518
 51
104.3118839742198
  0
ARC
  5
75
  8
0
 10
89.885784426428245
 20
21.00127547303785
 30
0.0
 40
38.248724526962178
 50
78.171742242126982
 51
98.964521798643815
  0
ARC
  5
76
  8
0
 10
100.07186002252659
 20
69.63938011130827
 30
0.0
 40
11.444548245645329
 50
258.17169927112241
 51
284.31184572267722
  0
ARC
  5
77
  8
0
 10
80.101989872762005
 20
83.022259549416489
 30
0.0
 40
24.53921302214642
 50
257.99999856303248
 51
278.96452213100878
  0
LINE
  5
78
  8
0
 10
78.755233722600622
 20
69.169569119060071
 30
0.0
 11
78.755233722600622
 21
59.521604291020139
 31
0.0
  0
LINE
  5
79
  8
0
 10
84.688162427086638
 20
69.59567705577652
 30
0.0
 11
84.688162427086638
 21
59.90432294422348
 31
0.0
  0
LINE
  5
7A
  8
0
 10
95.272019874182504
 20
69.621342353071881
 30
0.0
 11
95.272019874182504
 21
59.878657646928048
 31
0.0
  0
LINE
  5
7B
  8
0
 10
104.8717001708708
 20
69.527455356152132
 30
0.0
 11
104.8717001708708
 21
59.972544643847883
 31
0.0
  0
LINE
  5
7C
  8
1
 10
45.0
 20
74.500000000000014
 30
0.0
 11
44.999999999999993
 21
26.499999999999961
 31
0.0
  0
LINE
  5
7D
  8
0
 10
25.68520877186802
 20
68.665185362170703
 30
0.0
 11
25.68520877186802
 21
58.873641715290802
 31
0.0
  0
LINE
  5
7E
  8
0
 10
64.314791228132179
 20
68.66518536217059
 30
0.0
 11
64.314791228132179
 21
58.873641715290837
 31
0.0
  0
LINE
  5
7F
  8
0
 10
55.499999999999972
 20
57.000000000000007
 30
0.0
 11
34.499999999999943
 21
57.0
 31
0.0
  0
ARC
  5
80
  8
0
 10
45.000000000000021
 20
-2.0
 30
0.0
 40
74.000000000000014
 50
75.469960909224227
 51
104.5300390907756
  0
LINE
  5
81
  8
0
 10
54.5
 20
45.299999999999997
 30
0.0
 11
35.5
 21
45.299999999999997
 31
0.0
  0
LINE
  5
82
  8
0
 10
34.499999999999943
 20
56.595107983402507
 30
0.0
 11
34.5
 21
46.29999999999999
 31
0.0
  0
LINE
  5
83
  8
0
 10
55.499999999999943
 20
56.595107983402492
 30
0.0
 11
55.5
 21
46.299999999999997
 31
0.0
  0
LINE
  5
84
  8
0
 10
34.5
 20
46.29999999999999
 30
0.0
 11
35.5
 21
45.299999999999997
 31
0.0
  0
LINE
  5
85
  8
0
 10
54.5
 20
45.299999999999997
 30
0.0
 11
55.5
 21
46.299999999999997
 31
0.0
  0
LINE
  5
86
  8
0
 10
34.5
 20
46.300000000000011
 30
0.0
 11
55.5
 21
46.299999999999997
 31
0.0
  0
LINE
  5
87
  8
0
 10
55.89604415459106
 20
57.084181783769388
 30
0.0
 11
64.314791228132179
 21
58.873641715290837
 31
0.0
  0
LINE
  5
88
  8
0
 10
34.103955845408848
 20
57.084181783769417
 30
0.0
 11
25.68520877186802
 21
58.873641715290802
 31
0.0
  0
ARC
  5
89
  8
0
 10
55.999999999999943
 20
56.595107983402492
 30
0.0
 40
0.5
 50
102.0
 51
180.00000000000011
  0
ARC
  5
8A
  8
0
 10
33.99999999999995
 20
56.595107983402507
 30
0.0
 40
0.5
 50
0.0000000000000509
 51
78.000000000000014
  0
ARC
  5
8B
  8
0
 10
26.68520877186802
 20
68.665185362170703
 30
0.0
 40
1.0
 50
104.5300390907753
 51
180.0
  0
ARC
  5
8C
  8
0
 10
63.314791228132179
 20
68.66518536217059
 30
0.0
 40
1.0
 50
0.0
 51
75.469960909223957
  0
ARC
  5
8D
  8
0
 10
45.0
 20
106.63031551440019
 30
0.0
 40
36.38031551440028
 50
257.57684520958418
 51
282.32579297743598
  0
ARC
  5
8E
  8
0
 10
35.383531996539261
 20
62.620403935620899
 30
0.0
 40
8.6679782827410676
 50
77.674244707063522
 51
107.8611458250021
  0
ARC
  5
8F
  8
0
 10
54.616468003460739
 20
62.620403935620899
 30
0.0
 40
8.6679782827410676
 50
72.138854174996794
 51
102.32575529293651
  0
ARC
  5
90
  8
0
 10
54.616468003460739
 20
66.879596064379101
 30
0.0
 40
8.6679782827410676
 50
257.67424470706351
 51
287.86114582500318
  0
ARC
  5
91
  8
0
 10
35.383531996539261
 20
66.879596064379101
 30
0.0
 40
8.6679782827410676
 50
252.13885417499679
 51
282.32575529293649
  0
ARC
  5
92
  8
0
 10
45.0
 20
22.86968448559972
 30
0.0
 40
36.38031551440028
 50
77.674207022564005
 51
102.42315479041579
  0
ARC
  5
93
  8
0
 10
28.77562394169777
 20
46.373557692011921
 30
0.0
 40
12.87644230798807
 50
72.138891039315979
 51
103.8868567059275
  0
ARC
  5
94
  8
0
 10
28.77562394169777
 20
83.126442307988086
 30
0.0
 40
12.87644230798807
 50
271.0506656936106
 51
287.86110896068408
  0
ARC
  5
95
  8
0
 10
61.224376058302227
 20
46.373557692011921
 30
0.0
 40
12.87644230798807
 50
76.113143294072529
 51
107.86110896068401
  0
ARC
  5
96
  8
0
 10
61.224376058302227
 20
83.126442307988086
 30
0.0
 40
12.87644230798807
 50
252.13889103931601
 51
268.9493343063894
  0
LINE
  5
97
  8
0
 10
39.435736853828871
 20
69.666455277727508
 30
0.0
 11
39.435736853828871
 21
59.83354472227245
 31
0.0
  0
LINE
  5
98
  8
0
 10
50.564263146172323
 20
69.666455277727692
 30
0.0
 11
50.564263146172323
 21
59.833544722272279
 31
0.0
  0
LINE
  5
99
  8
0
 10
31.269761049527119
 20
69.475986959748994
 30
0.0
 11
31.269761049527119
 21
60.024013040251049
 31
0.0
  0
LINE
  5
9A
  8
0
 10
58.730238950471197
 20
69.475986959749235
 30
0.0
 11
58.730238950471197
 21
60.02401304025075
 31
0.0
  0
LINE
  5
A2
  8
0
 10
150.0
 20
44.999999999999979
 30
0.0
 11
140.0
 21
44.999999999999979
 31
0.0
  0
LINE
  5
A3
  8
0
 10
140.0
 20
45.29999999999999
 30
0.0
 11
140.0
 21
44.999999999999979
 31
0.0
  0
LINE
  5
A4
  8
0
 10
150.0
 20
45.29999999999999
 30
0.0
 11
150.0
 21
44.999999999999979
 31
0.0
  0
LINE
  5
A5
  8
0
 10
149.0
 20
30.199999999999871
 30
0.0
 11
140.99999999999989
 21
30.199999999999939
 31
0.0
  0
LINE
  5
A6
  8
0
 10
142.19999999999999
 20
28.999999999999972
 30
0.0
 11
140.99999999999989
 21
30.199999999999939
 31
0.0
  0
LINE
  5
A7
  8
0
 10
149.0
 20
30.199999999999939
 30
0.0
 11
147.80000000000001
 21
28.999999999999901
 31
0.0
  0
LINE
  5
A8
  8
0
 10
149.0
 20
44.999999999999979
 30
0.0
 11
149.0
 21
30.199999999999939
 31
0.0
  0
LINE
  5
A9
  8
3
 10
148.32350000000019
 20
42.499999999999979
 30
0.0
 11
148.3235
 21
29.52350000000008
 31
0.0
  0
LINE
  5
AA
  8
3
 10
141.67649999999981
 20
42.50000000000005
 30
0.0
 11
141.67649999999981
 21
29.52350000000008
 31
0.0
  0
LINE
  5
AB
  8
0
 10
140.99999999999989
 20
44.999999999999979
 30
0.0
 11
140.99999999999989
 21
30.199999999999939
 31
0.0
  0
LINE
  5
AC
  8
0
 10
147.80000000000001
 20
28.999999999999901
 30
0.0
 11
142.19999999999999
 21
28.999999999999972
 31
0.0
  0
LINE
  5
AD
  8
3
 10
141.67649999999981
 20
42.499999999999979
 30
0.0
 11
140.99999999999989
 21
43.671732371320118
 31
0.0
  0
LINE
  5
AE
  8
3
 10
148.32350000000019
 20
42.499999999999979
 30
0.0
 11
149.0
 21
43.671732371320047
 31
0.0
  0
LINE
  5
AF
  8
0
 10
149.0
 20
42.499999999999979
 30
0.0
 11
140.99999999999989
 21
42.50000000000005
 31
0.0
  0
LINE
  5
B0
  8
0
 10
99.000000000000057
 20
42.499999999999979
 30
0.0
 11
90.999999999999943
 21
42.50000000000005
 31
0.0
  0
LINE
  5
B1
  8
3
 10
98.323500000000195
 20
42.499999999999979
 30
0.0
 11
99.000000000000057
 21
43.671732371320047
 31
0.0
  0
LINE
  5
B2
  8
3
 10
91.676499999999805
 20
42.499999999999979
 30
0.0
 11
90.999999999999943
 21
43.671732371320118
 31
0.0
  0
LINE
  5
B3
  8
0
 10
97.800000000000011
 20
28.999999999999901
 30
0.0
 11
92.199999999999974
 21
28.999999999999972
 31
0.0
  0
LINE
  5
B4
  8
0
 10
90.999999999999943
 20
44.999999999999979
 30
0.0
 11
90.999999999999943
 21
30.199999999999939
 31
0.0
  0
LINE
  5
B5
  8
3
 10
91.676499999999805
 20
42.50000000000005
 30
0.0
 11
91.676499999999805
 21
29.52350000000008
 31
0.0
  0
LINE
  5
B6
  8
3
 10
98.323500000000195
 20
42.499999999999979
 30
0.0
 11
98.323500000000053
 21
29.52350000000008
 31
0.0
  0
LINE
  5
B7
  8
0
 10
99.000000000000057
 20
44.999999999999979
 30
0.0
 11
99.000000000000057
 21
30.199999999999939
 31
0.0
  0
LINE
  5
B8
  8
0
 10
99.000000000000057
 20
30.199999999999939
 30
0.0
 11
97.800000000000011
 21
28.999999999999901
 31
0.0
  0
LINE
  5
B9
  8
0
 10
92.199999999999974
 20
28.999999999999972
 30
0.0
 11
90.999999999999943
 21
30.199999999999939
 31
0.0
  0
LINE
  5
BA
  8
0
 10
99.000000000000057
 20
30.199999999999871
 30
0.0
 11
90.999999999999943
 21
30.199999999999939
 31
0.0
  0
LINE
  5
BB
  8
0
 10
100.0
 20
45.29999999999999
 30
0.0
 11
100.0
 21
44.999999999999979
 31
0.0
  0
LINE
  5
BC
  8
0
 10
90.0
 20
45.29999999999999
 30
0.0
 11
90.0
 21
44.999999999999979
 31
0.0
  0
LINE
  5
BD
  8
0
 10
100.0
 20
44.999999999999979
 30
0.0
 11
90.0
 21
44.999999999999979
 31
0.0
  0
LINE
  5
BE
  8
0
 10
49.00000000000005
 20
42.499999999999979
 30
0.0
 11
40.999999999999943
 21
42.50000000000005
 31
0.0
  0
LINE
  5
BF
  8
3
 10
48.323500000000188
 20
42.499999999999979
 30
0.0
 11
49.00000000000005
 21
43.671732371320047
 31
0.0
  0
LINE
  5
C0
  8
3
 10
41.676499999999798
 20
42.499999999999979
 30
0.0
 11
40.999999999999943
 21
43.671732371320118
 31
0.0
  0
LINE
  5
C1
  8
0
 10
47.800000000000011
 20
28.999999999999901
 30
0.0
 11
42.199999999999982
 21
28.999999999999972
 31
0.0
  0
LINE
  5
C2
  8
0
 10
40.999999999999943
 20
44.999999999999979
 30
0.0
 11
40.999999999999943
 21
30.199999999999939
 31
0.0
  0
LINE
  5
C3
  8
3
 10
41.676499999999798
 20
42.50000000000005
 30
0.0
 11
41.676499999999798
 21
29.52350000000008
 31
0.0
  0
LINE
  5
C4
  8
3
 10
48.323500000000188
 20
42.499999999999979
 30
0.0
 11
48.323500000000053
 21
29.52350000000008
 31
0.0
  0
LINE
  5
C5
  8
0
 10
49.00000000000005
 20
44.999999999999979
 30
0.0
 11
49.00000000000005
 21
30.199999999999939
 31
0.0
  0
LINE
  5
C6
  8
0
 10
49.00000000000005
 20
30.199999999999939
 30
0.0
 11
47.800000000000011
 21
28.999999999999901
 31
0.0
  0
LINE
  5
C7
  8
0
 10
42.199999999999982
 20
28.999999999999972
 30
0.0
 11
40.999999999999943
 21
30.199999999999939
 31
0.0
  0
LINE
  5
C8
  8
0
 10
49.00000000000005
 20
30.199999999999871
 30
0.0
 11
40.999999999999943
 21
30.199999999999939
 31
0.0
  0
LINE
  5
C9
  8
0
 10
50.0
 20
45.29999999999999
 30
0.0
 11
50.0
 21
44.999999999999979
 31
0.0
  0
LINE
  5
CA
  8
0
 10
40.0
 20
45.29999999999999
 30
0.0
 11
40.0
 21
44.999999999999979
 31
0.0
  0
LINE
  5
CB
  8
0
 10
50.0
 20
44.999999999999979
 30
0.0
 11
40.0
 21
44.999999999999979
 31
0.0
  0
TEXT
  5
21A
  8
0
 62
     3
 10
0.0
 20
0.0
 30
0.0
 40
10.0
  1
BTK40X16
  7
STANDARD1
  0
ENDSEC
  0
EOF
