  0
SECTION
  2
HEADER
  9
$ACADVER
  1
AC1009
  9
$INSBASE
 10
0.0
 20
0.0
 30
0.0
  9
$EXTMIN
 10
0.0
 20
-2.960436562073669
 30
0.0
  9
$EXTMAX
 10
267.89355079828999
 20
167.08382416307049
 30
0.0
  9
$LIMMIN
 10
0.0
 20
0.0
  9
$LIMMAX
 10
375.0
 20
270.0
  9
$ORTHOMODE
 70
     0
  9
$REGENMODE
 70
     1
  9
$FILLMODE
 70
     1
  9
$QTEXTMODE
 70
     0
  9
$MIRRTEXT
 70
     0
  9
$DRAGMODE
 70
     2
  9
$LTSCALE
 40
10.0
  9
$OSMODE
 70
  3071
  9
$ATTMODE
 70
     1
  9
$TEXTSIZE
 40
0.2
  9
$TRACEWID
 40
0.05
  9
$TEXTSTYLE
  7
STANDARD
  9
$CLAYER
  8
0
  9
$CELTYPE
  6
BYLAYER
  9
$CECOLOR
 62
   256
  9
$DIMSCALE
 40
1.0
  9
$DIMASZ
 40
3.0
  9
$DIMEXO
 40
2.0
  9
$DIMDLI
 40
0.38
  9
$DIMRND
 40
0.0
  9
$DIMDLE
 40
0.0
  9
$DIMEXE
 40
2.0
  9
$DIMTP
 40
0.0
  9
$DIMTM
 40
0.0
  9
$DIMTXT
 40
3.0
  9
$DIMCEN
 40
0.0
  9
$DIMTSZ
 40
0.0
  9
$DIMTOL
 70
     0
  9
$DIMLIM
 70
     0
  9
$DIMTIH
 70
     0
  9
$DIMTOH
 70
     0
  9
$DIMSE1
 70
     0
  9
$DIMSE2
 70
     0
  9
$DIMTAD
 70
     1
  9
$DIMZIN
 70
     0
  9
$DIMBLK
  1

  9
$DIMASO
 70
     0
  9
$DIMSHO
 70
     0
  9
$DIMPOST
  1

  9
$DIMAPOST
  1

  9
$DIMALT
 70
     0
  9
$DIMALTD
 70
     2
  9
$DIMALTF
 40
25.399999999999999
  9
$DIMLFAC
 40
1.0
  9
$DIMTOFL
 70
     1
  9
$DIMTVP
 40
1.6000000000000001
  9
$DIMTIX
 70
     1
  9
$DIMSOXD
 70
     0
  9
$DIMSAH
 70
     0
  9
$DIMBLK1
  1

  9
$DIMBLK2
  1

  9
$DIMSTYLE
  2
STANDARD
  9
$DIMCLRD
 70
     0
  9
$DIMCLRE
 70
     0
  9
$DIMCLRT
 70
     0
  9
$DIMTFAC
 40
1.0
  9
$DIMGAP
 40
0.09
  9
$LUNITS
 70
     2
  9
$LUPREC
 70
     4
  9
$SKETCHINC
 40
0.1
  9
$FILLETRAD
 40
1.0
  9
$AUNITS
 70
     0
  9
$AUPREC
 70
     4
  9
$MENU
  1
E:\r13\win\SUPPORT\ACAD
  9
$ELEVATION
 40
0.0
  9
$PELEVATION
 40
0.0
  9
$THICKNESS
 40
0.0
  9
$LIMCHECK
 70
     0
  9
$BLIPMODE
 70
     0
  9
$CHAMFERA
 40
0.0
  9
$CHAMFERB
 40
0.0
  9
$SKPOLY
 70
     0
  9
$TDCREATE
 40
2449839.789108797
  9
$TDUPDATE
 40
2456598.4689458571
  9
$TDINDWG
 40
0.0059219329
  9
$TDUSRTIMER
 40
0.0059219329
  9
$USRTIMER
 70
     1
  9
$ANGBASE
 50
0.0
  9
$ANGDIR
 70
     0
  9
$PDMODE
 70
     0
  9
$PDSIZE
 40
0.0
  9
$PLINEWID
 40
0.0
  9
$COORDS
 70
     1
  9
$SPLFRAME
 70
     0
  9
$SPLINETYPE
 70
     6
  9
$SPLINESEGS
 70
     8
  9
$ATTDIA
 70
     0
  9
$ATTREQ
 70
     1
  9
$HANDLING
 70
     1
  9
$HANDSEED
  5
363
  9
$SURFTAB1
 70
     6
  9
$SURFTAB2
 70
     6
  9
$SURFTYPE
 70
     6
  9
$SURFU
 70
     6
  9
$SURFV
 70
     6
  9
$UCSNAME
  2

  9
$UCSORG
 10
0.0
 20
0.0
 30
0.0
  9
$UCSXDIR
 10
1.0
 20
0.0
 30
0.0
  9
$UCSYDIR
 10
0.0
 20
1.0
 30
0.0
  9
$PUCSNAME
  2

  9
$PUCSORG
 10
0.0
 20
0.0
 30
0.0
  9
$PUCSXDIR
 10
1.0
 20
0.0
 30
0.0
  9
$PUCSYDIR
 10
0.0
 20
1.0
 30
0.0
  9
$USERI1
 70
     0
  9
$USERI2
 70
     1
  9
$USERI3
 70
     1
  9
$USERI4
 70
     0
  9
$USERI5
 70
     0
  9
$USERR1
 40
0.0
  9
$USERR2
 40
0.0
  9
$USERR3
 40
0.0
  9
$USERR4
 40
0.0
  9
$USERR5
 40
0.0
  9
$WORLDVIEW
 70
     1
  9
$SHADEDGE
 70
     3
  9
$SHADEDIF
 70
    70
  9
$TILEMODE
 70
     1
  9
$MAXACTVP
 70
    16
  9
$PLIMCHECK
 70
     0
  9
$PEXTMIN
 10
1.0000000000000000E+020
 20
1.0000000000000000E+020
 30
1.0000000000000000E+020
  9
$PEXTMAX
 10
-1.0000000000000000E+020
 20
-1.0000000000000000E+020
 30
-1.0000000000000000E+020
  9
$PLIMMIN
 10
0.0
 20
0.0
  9
$PLIMMAX
 10
12.0
 20
9.0
  9
$UNITMODE
 70
     0
  9
$VISRETAIN
 70
     0
  9
$PLINEGEN
 70
     0
  9
$PSLTSCALE
 70
     0
  0
ENDSEC
  0
SECTION
  2
TABLES
  0
TABLE
  2
VPORT
 70
     1
  0
VPORT
  2
*ACTIVE
 70
     0
 10
0.0
 20
0.0
 11
1.0
 21
1.0
 12
195.0581083320873
 22
133.5127261426681
 13
0.0
 23
0.0
 14
10.0
 24
10.0
 15
10.0
 25
10.0
 16
0.0
 26
0.0
 36
1.0
 17
0.0
 27
0.0
 37
0.0
 40
275.42274993631997
 41
1.831871345029239
 42
50.0
 43
0.0
 44
0.0
 50
0.0
 51
0.0
 71
     0
 72
   500
 73
     1
 74
     0
 75
     0
 76
     0
 77
     0
 78
     2
  0
ENDTAB
  0
TABLE
  2
LTYPE
 70
     3
  0
LTYPE
  2
CONTINUOUS
 70
     0
  3
Solid Line
 72
    65
 73
     0
 40
0.0
  0
LTYPE
  2
CENTER
 70
     0
  3
____ _ ____ _ ____ _ ____ _ ____ _ ____ _ ____
 72
    65
 73
     4
 40
2.0
 49
1.25
 49
-0.25
 49
0.25
 49
-0.25
  0
LTYPE
  2
PHANTOM2
 70
     0
  3
___ _ _ ___ _ _ ___ _ _ ___ _ _
 72
    65
 73
     6
 40
1.25
 49
0.625
 49
-0.125
 49
0.125
 49
-0.125
 49
0.125
 49
-0.125
  0
ENDTAB
  0
TABLE
  2
LAYER
 70
     3
  0
LAYER
  2
0
 70
     0
 62
     7
  6
CONTINUOUS
  0
LAYER
  2
1
 70
     0
 62
     1
  6
CENTER
  0
LAYER
  2
3
 70
     0
 62
     3
  6
CONTINUOUS
  0
ENDTAB
  0
TABLE
  2
STYLE
 70
     2
  0
STYLE
  2
STANDARD
 70
     0
 40
0.0
 41
1.0
 50
0.0
 71
     0
 42
0.2
  3
TXT
  4
BIGFONT
  0
STYLE
  2
STANDARD1
 70
     0
 40
0.0
 41
1.0
 50
0.0
 71
     0
 42
3.0
  3
txt
  4

  0
ENDTAB
  0
TABLE
  2
VIEW
 70
     1
  0
VIEW
  2
ALL
 70
     0
 40
270.0
 10
220.99159663865549
 20
135.0
 41
0.0
 11
0.0
 21
0.0
 31
1.0
 12
0.0
 22
0.0
 32
0.0
 42
0.0
 43
0.0
 44
0.0
 50
0.0
 71
     0
  0
ENDTAB
  0
TABLE
  2
UCS
 70
     0
  0
ENDTAB
  0
TABLE
  2
APPID
 70
     3
  0
APPID
  2
ACAD
 70
     0
  0
APPID
  2
ACAD_MLEADERVER
 70
     0
  0
APPID
  2
ACAD_NAV_VCDISPLAY
 70
     0
  0
ENDTAB
  0
TABLE
  2
DIMSTYLE
 70
     1
  0
DIMSTYLE
  2
STANDARD
 70
     0
  3

  4

  5

  6

  7

 40
1.0
 41
0.18
 42
0.0625
 43
0.38
 44
0.18
 45
0.0
 46
0.0
 47
0.0
 48
0.0
140
0.18
141
0.09
142
0.0
143
25.399999999999999
144
1.0
145
0.0
146
1.0
147
0.09
 71
     0
 72
     0
 73
     1
 74
     1
 75
     0
 76
     0
 77
     0
 78
     0
170
     0
171
     2
172
     0
173
     0
174
     0
175
     0
176
     0
177
     0
178
     0
  0
ENDTAB
  0
ENDSEC
  0
SECTION
  2
BLOCKS
  0
BLOCK
  8
0
  2
$MODEL_SPACE
 70
     0
 10
0.0
 20
0.0
 30
0.0
  3
$MODEL_SPACE
  1

  0
ENDBLK
  5
12A
  8
0
  0
BLOCK
 67
     1
  8
0
  2
$PAPER_SPACE
 70
     0
 10
0.0
 20
0.0
 30
0.0
  3
$PAPER_SPACE
  1

  0
ENDBLK
  5
128
 67
     1
  8
0
  0
ENDSEC
  0
SECTION
  2
ENTITIES
  0
ARC
  5
18A
  8
0
 10
118.34195089773441
 20
162.2266257138717
 30
0.0
 40
12.0
 50
276.02531991283888
 51
335.97468010414889
  0
ARC
  5
18B
  8
0
 10
154.87658010471239
 20
162.2266257138717
 30
0.0
 40
12.0
 50
204.02530628536121
 51
263.97469293295921
  0
ARC
  5
18D
  8
0
 10
136.6092655012234
 20
154.08382415807051
 30
0.0
 40
8.0
 50
24.025303379187669
 51
155.97471703654489
  0
ARC
  5
18E
  8
0
 10
107.052129589591
 20
127.4801285361481
 30
0.0
 40
12.0
 50
348.02531988456951
 51
47.974680120864349
  0
ARC
  5
18F
  8
0
 10
126.6169162122514
 20
123.3305352536965
 30
0.0
 40
8.0000000000000266
 50
168.02528298038101
 51
299.97467267127928
  0
ARC
  5
190
  8
0
 10
120.44130472420581
 20
142.33711306244459
 30
0.0
 40
7.9999999999999751
 50
96.025282937976229
 51
227.97471701147211
  0
ARC
  5
191
  8
0
 10
146.6016147901953
 20
123.3305352536965
 30
0.0
 40
8.0000000000000178
 50
240.02532727939999
 51
11.974717073699081
  0
ARC
  5
193
  8
0
 10
166.16640141285569
 20
127.480128536148
 30
0.0
 40
12.0
 50
132.0253199275194
 51
191.97468007937709
  0
ARC
  5
194
  8
0
 10
152.7772262782409
 20
142.3371130624445
 30
0.0
 40
8.0000000000000302
 50
312.0252829159586
 51
83.974697793326897
  0
ARC
  5
195
  8
0
 10
136.6092655012234
 20
106.0056122903127
 30
0.0
 40
12.0
 50
60.02529035188978
 51
119.9747096809905
  0
LINE
  5
1C7
  8
1
 10
199.89355079828999
 20
137.0838241580704
 30
0.0
 11
267.89355079828999
 21
137.08382415807051
 31
0.0
  0
ARC
  5
1C8
  8
0
 10
216.46016798940369
 20
130.6923463870074
 30
0.0
 40
9.080173428045164
 50
161.72292004773459
 51
202.36506525400131
  0
ARC
  5
1C9
  8
0
 10
213.8269336071763
 20
130.6923463870074
 30
0.0
 40
9.080173428045164
 50
337.63493474599881
 51
18.277079952265339
  0
LINE
  5
1CA
  8
3
 10
239.39355079828999
 20
133.7689087241244
 30
0.0
 11
238.70846623223611
 21
133.08382415807051
 31
0.0
  0
LINE
  5
1CB
  8
0
 10
223.89355079828999
 20
124.5838241580705
 30
0.0
 11
223.89355079828991
 21
149.58382415807051
 31
0.0
  0
LINE
  5
1CC
  8
0
 10
236.34355079829001
 20
149.58382415807051
 30
0.0
 11
236.3435507982901
 21
124.5838241580704
 31
0.0
  0
LINE
  5
1CD
  8
0
 10
237.59355079829001
 20
125.8338241580704
 30
0.0
 11
237.59355079829001
 21
148.33382415807051
 31
0.0
  0
LINE
  5
1CE
  8
0
 10
237.89355079828999
 20
137.08382415807051
 30
0.0
 11
237.89355079828999
 21
132.08382415807051
 31
0.0
  0
LINE
  5
1CF
  8
0
 10
239.39355079828999
 20
137.08382415807051
 30
0.0
 11
239.39355079828999
 21
133.08382415807051
 31
0.0
  0
LINE
  5
1D0
  8
0
 10
262.89355079828999
 20
133.83382415807051
 30
0.0
 11
261.99973560384427
 21
133.08382415807051
 31
0.0
  0
ARC
  5
1D2
  8
0
 10
282.89355079828999
 20
137.08382415807051
 30
0.0
 40
78.0
 50
161.83899451598489
 51
195.6358983866464
  0
LINE
  5
1D3
  8
0
 10
224.29126875662391
 20
124.5838241580704
 30
0.0
 11
236.3435507982901
 21
124.5838241580704
 31
0.0
  0
LINE
  5
1D4
  8
0
 10
261.99973560384427
 20
133.08382415807051
 30
0.0
 11
237.89355079828999
 21
133.08382415807051
 31
0.0
  0
LINE
  5
1D5
  8
0
 10
237.59355079829001
 20
125.8338241580704
 30
0.0
 11
236.3435507982901
 21
124.5838241580704
 31
0.0
  0
LINE
  5
1D6
  8
0
 10
237.89355079828999
 20
132.08382415807051
 30
0.0
 11
237.59355079829001
 21
132.08382415807051
 31
0.0
  0
LINE
  5
1D7
  8
0
 10
209.84775067492731
 20
124.99037559107769
 30
0.0
 11
220.4393509216527
 21
124.99037559107769
 31
0.0
  0
LINE
  5
1D8
  8
0
 10
208.7430214700945
 20
115.3305352536963
 30
0.0
 11
221.35954276864101
 21
115.3305352536962
 31
0.0
  0
ARC
  5
1D9
  8
0
 10
238.5816360719376
 20
120.5068478816865
 30
0.0
 40
17.68808527364757
 50
157.6349354903883
 51
196.99119640420699
  0
LINE
  5
1DA
  8
0
 10
223.8040837242313
 20
124.19629968524239
 30
0.0
 11
221.84672780103361
 21
115.7180597265243
 31
0.0
  0
ARC
  5
1DB
  8
0
 10
221.35954276864101
 20
115.8305352536962
 30
0.0
 40
0.5
 50
270.0
 51
346.99999999999937
  0
ARC
  5
1DC
  8
0
 10
224.29126875662391
 20
124.0838241580704
 30
0.0
 40
0.5
 50
90.0
 51
166.99999999999929
  0
ARC
  5
1DD
  8
0
 10
191.70546552464239
 20
120.5068478816865
 30
0.0
 40
17.68808527364757
 50
343.00880359579298
 51
22.36506450961166
  0
ARC
  5
1DE
  8
0
 10
208.7430214700945
 20
116.3305352536963
 30
0.0
 40
1.0
 50
195.63589838664791
 51
270.0
  0
LINE
  5
1DF
  8
0
 10
224.29126875662379
 20
149.58382415807051
 30
0.0
 11
236.34355079829001
 21
149.58382415807051
 31
0.0
  0
LINE
  5
1E0
  8
3
 10
262.81618759666992
 20
140.3987395920166
 30
0.0
 11
239.39355079828999
 21
140.3987395920166
 31
0.0
  0
LINE
  5
1E1
  8
0
 10
261.99973560384427
 20
141.08382415807051
 30
0.0
 11
237.89355079828999
 21
141.08382415807051
 31
0.0
  0
LINE
  5
1E2
  8
3
 10
262.81618759666998
 20
133.7689087241244
 30
0.0
 11
239.39355079828999
 21
133.7689087241244
 31
0.0
  0
LINE
  5
1E3
  8
0
 10
262.89355079828999
 20
133.83382415807051
 30
0.0
 11
262.89355079828999
 21
140.33382415807051
 31
0.0
  0
LINE
  5
1E4
  8
0
 10
261.99973560384427
 20
141.08382415807051
 30
0.0
 11
261.99973560384427
 21
133.08382415807051
 31
0.0
  0
LINE
  5
1E6
  8
0
 10
262.89355079828999
 20
140.33382415807051
 30
0.0
 11
261.99973560384427
 21
141.08382415807051
 31
0.0
  0
LINE
  5
1E7
  8
0
 10
239.39355079828999
 20
137.08382415807051
 30
0.0
 11
239.39355079828999
 21
141.08382415807051
 31
0.0
  0
LINE
  5
1E8
  8
0
 10
237.89355079828999
 20
137.08382415807051
 30
0.0
 11
237.89355079828999
 21
142.08382415807051
 31
0.0
  0
LINE
  5
1E9
  8
0
 10
237.89355079828999
 20
142.08382415807051
 30
0.0
 11
237.59355079829001
 21
142.08382415807051
 31
0.0
  0
LINE
  5
1EA
  8
3
 10
239.39355079828999
 20
140.3987395920166
 30
0.0
 11
238.70846623223611
 21
141.08382415807051
 31
0.0
  0
LINE
  5
1EB
  8
0
 10
236.34355079829001
 20
149.58382415807051
 30
0.0
 11
237.59355079829001
 21
148.33382415807051
 31
0.0
  0
ARC
  5
1EC
  8
0
 10
199.47405400342939
 20
154.8398746491512
 30
0.0
 40
22.611272574377931
 50
347.7893527694456
 51
18.68523849345852
  0
LINE
  5
1ED
  8
0
 10
223.80408372423119
 20
149.97134863089849
 30
0.0
 11
221.0971654832791
 21
161.69629968524251
 31
0.0
  0
ARC
  5
1EE
  8
0
 10
216.9972696870451
 20
156.15933776108511
 30
0.0
 40
9.6037188887550986
 50
176.52621700371819
 51
198.09838861418299
  0
LINE
  5
1EF
  8
0
 10
209.6854993808825
 20
150.2929184481635
 30
0.0
 11
220.60157850561271
 21
150.2929184481635
 31
0.0
  0
LINE
  5
1F0
  8
0
 10
209.65877552260119
 20
136.39431718293611
 30
0.0
 11
220.62832607397871
 21
136.39431718293611
 31
0.0
  0
ARC
  5
1F1
  8
0
 10
252.31687455717031
 20
143.4045733998519
 30
0.0
 40
31.454703776161491
 50
167.78935302318001
 51
198.27703676952331
  0
ARC
  5
1F2
  8
0
 10
224.29126875662379
 20
150.08382415807051
 30
0.0
 40
0.5
 50
193.0000000000006
 51
270.0
  0
ARC
  5
1F3
  8
0
 10
177.97022703940971
 20
143.4045733998519
 30
0.0
 40
31.454703776161491
 50
341.72296323047681
 51
18.09834605647978
  0
LINE
  5
1F4
  8
0
 10
208.60593959301801
 20
157.34094195439951
 30
0.0
 11
220.94011476498221
 21
157.3409419543996
 31
0.0
  0
LINE
  5
1F5
  8
0
 10
209.72935190292861
 20
162.0838241580704
 30
0.0
 11
220.60998045088641
 21
162.08382415807051
 31
0.0
  0
ARC
  5
1F6
  8
0
 10
220.60998045088641
 20
161.58382415807051
 30
0.0
 40
0.5
 50
13.00000000000065
 51
90.0
  0
ARC
  5
1F7
  8
0
 10
209.72935190292861
 20
161.08382415807051
 30
0.0
 40
1.0
 50
90.0
 51
161.83899451598489
  0
LINE
  5
1F9
  8
1
 10
136.60976550122331
 20
167.08382416307049
 30
0.0
 11
136.60976550122331
 21
107.08382415307049
 31
0.0
  0
LINE
  5
1FA
  8
1
 10
166.60976550622331
 20
137.08382415807051
 30
0.0
 11
106.6097654962233
 21
137.08382415807051
 31
0.0
  0
TEXT
  5
2D2
  8
0
 62
     3
 10
0.0
 20
0.0
 30
0.0
 40
10.0
  1
BTK50AX25
  7
STANDARD1
  0
ENDSEC
  0
EOF
