  0
SECTION
  2
HEADER
  9
$ACADVER
  1
AC1009
  9
$INSBASE
 10
0.0
 20
0.0
 30
0.0
  9
$EXTMIN
 10
0.0
 20
-2.960436562073669
 30
0.0
  9
$EXTMAX
 10
283.61494373141028
 20
235.0
 30
0.0
  9
$LIMMIN
 10
0.0
 20
0.0
  9
$LIMMAX
 10
375.0
 20
270.0
  9
$ORTHOMODE
 70
     1
  9
$REGENMODE
 70
     1
  9
$FILLMODE
 70
     1
  9
$QTEXTMODE
 70
     0
  9
$MIRRTEXT
 70
     0
  9
$DRAGMODE
 70
     2
  9
$LTSCALE
 40
10.0
  9
$OSMODE
 70
  3071
  9
$ATTMODE
 70
     1
  9
$TEXTSIZE
 40
4.000000000000048
  9
$TRACEWID
 40
0.05
  9
$TEXTSTYLE
  7
STANDARD
  9
$CLAYER
  8
0
  9
$CELTYPE
  6
BYLAYER
  9
$CECOLOR
 62
   256
  9
$DIMSCALE
 40
1.0
  9
$DIMASZ
 40
3.0
  9
$DIMEXO
 40
2.0
  9
$DIMDLI
 40
0.38
  9
$DIMRND
 40
0.0
  9
$DIMDLE
 40
0.0
  9
$DIMEXE
 40
2.0
  9
$DIMTP
 40
0.0
  9
$DIMTM
 40
0.0
  9
$DIMTXT
 40
3.2000000000000002
  9
$DIMCEN
 40
0.0
  9
$DIMTSZ
 40
0.0
  9
$DIMTOL
 70
     0
  9
$DIMLIM
 70
     0
  9
$DIMTIH
 70
     0
  9
$DIMTOH
 70
     0
  9
$DIMSE1
 70
     0
  9
$DIMSE2
 70
     0
  9
$DIMTAD
 70
     1
  9
$DIMZIN
 70
     0
  9
$DIMBLK
  1

  9
$DIMASO
 70
     1
  9
$DIMSHO
 70
     0
  9
$DIMPOST
  1

  9
$DIMAPOST
  1

  9
$DIMALT
 70
     0
  9
$DIMALTD
 70
     2
  9
$DIMALTF
 40
25.399999999999999
  9
$DIMLFAC
 40
1.0
  9
$DIMTOFL
 70
     1
  9
$DIMTVP
 40
1.6000000000000001
  9
$DIMTIX
 70
     1
  9
$DIMSOXD
 70
     0
  9
$DIMSAH
 70
     0
  9
$DIMBLK1
  1

  9
$DIMBLK2
  1

  9
$DIMSTYLE
  2
STANDARD
  9
$DIMCLRD
 70
     0
  9
$DIMCLRE
 70
     0
  9
$DIMCLRT
 70
     0
  9
$DIMTFAC
 40
1.0
  9
$DIMGAP
 40
0.09
  9
$LUNITS
 70
     2
  9
$LUPREC
 70
     4
  9
$SKETCHINC
 40
0.1
  9
$FILLETRAD
 40
1.0
  9
$AUNITS
 70
     0
  9
$AUPREC
 70
     4
  9
$MENU
  1
E:\r13\win\SUPPORT\ACAD
  9
$ELEVATION
 40
0.0
  9
$PELEVATION
 40
0.0
  9
$THICKNESS
 40
0.0
  9
$LIMCHECK
 70
     0
  9
$BLIPMODE
 70
     0
  9
$CHAMFERA
 40
0.0
  9
$CHAMFERB
 40
0.0
  9
$SKPOLY
 70
     0
  9
$TDCREATE
 40
2449839.7909722221
  9
$TDUPDATE
 40
2456598.4692431372
  9
$TDINDWG
 40
0.0001690394
  9
$TDUSRTIMER
 40
0.0001690394
  9
$USRTIMER
 70
     1
  9
$ANGBASE
 50
0.0
  9
$ANGDIR
 70
     0
  9
$PDMODE
 70
     0
  9
$PDSIZE
 40
0.0
  9
$PLINEWID
 40
0.0
  9
$COORDS
 70
     1
  9
$SPLFRAME
 70
     0
  9
$SPLINETYPE
 70
     6
  9
$SPLINESEGS
 70
     8
  9
$ATTDIA
 70
     0
  9
$ATTREQ
 70
     1
  9
$HANDLING
 70
     1
  9
$HANDSEED
  5
2A7
  9
$SURFTAB1
 70
     6
  9
$SURFTAB2
 70
     6
  9
$SURFTYPE
 70
     6
  9
$SURFU
 70
     6
  9
$SURFV
 70
     6
  9
$UCSNAME
  2

  9
$UCSORG
 10
0.0
 20
0.0
 30
0.0
  9
$UCSXDIR
 10
1.0
 20
0.0
 30
0.0
  9
$UCSYDIR
 10
0.0
 20
1.0
 30
0.0
  9
$PUCSNAME
  2

  9
$PUCSORG
 10
0.0
 20
0.0
 30
0.0
  9
$PUCSXDIR
 10
1.0
 20
0.0
 30
0.0
  9
$PUCSYDIR
 10
0.0
 20
1.0
 30
0.0
  9
$USERI1
 70
     0
  9
$USERI2
 70
     1
  9
$USERI3
 70
     1
  9
$USERI4
 70
     0
  9
$USERI5
 70
     0
  9
$USERR1
 40
0.0
  9
$USERR2
 40
0.0
  9
$USERR3
 40
0.0
  9
$USERR4
 40
0.0
  9
$USERR5
 40
0.0
  9
$WORLDVIEW
 70
     1
  9
$SHADEDGE
 70
     3
  9
$SHADEDIF
 70
    70
  9
$TILEMODE
 70
     1
  9
$MAXACTVP
 70
    16
  9
$PLIMCHECK
 70
     0
  9
$PEXTMIN
 10
1.0000000000000000E+020
 20
1.0000000000000000E+020
 30
1.0000000000000000E+020
  9
$PEXTMAX
 10
-1.0000000000000000E+020
 20
-1.0000000000000000E+020
 30
-1.0000000000000000E+020
  9
$PLIMMIN
 10
0.0
 20
0.0
  9
$PLIMMAX
 10
12.0
 20
9.0
  9
$UNITMODE
 70
     0
  9
$VISRETAIN
 70
     0
  9
$PLINEGEN
 70
     0
  9
$PSLTSCALE
 70
     0
  0
ENDSEC
  0
SECTION
  2
TABLES
  0
TABLE
  2
VPORT
 70
     1
  0
VPORT
  2
*ACTIVE
 70
     0
 10
0.0
 20
0.0
 11
1.0
 21
1.0
 12
195.0581083320873
 22
133.5127261426681
 13
0.0
 23
0.0
 14
10.0
 24
10.0
 15
10.0
 25
10.0
 16
0.0
 26
0.0
 36
1.0
 17
0.0
 27
0.0
 37
0.0
 40
275.42274993631997
 41
1.831871345029239
 42
50.0
 43
0.0
 44
0.0
 50
0.0
 51
0.0
 71
     0
 72
   500
 73
     1
 74
     0
 75
     0
 76
     0
 77
     0
 78
     2
  0
ENDTAB
  0
TABLE
  2
LTYPE
 70
     3
  0
LTYPE
  2
CONTINUOUS
 70
     0
  3
Solid Line
 72
    65
 73
     0
 40
0.0
  0
LTYPE
  2
CENTER
 70
     0
  3
____ _ ____ _ ____ _ ____ _ ____ _ ____ _ ____
 72
    65
 73
     4
 40
2.0
 49
1.25
 49
-0.25
 49
0.25
 49
-0.25
  0
LTYPE
  2
PHANTOM2
 70
     0
  3
___ _ _ ___ _ _ ___ _ _ ___ _ _
 72
    65
 73
     6
 40
1.25
 49
0.625
 49
-0.125
 49
0.125
 49
-0.125
 49
0.125
 49
-0.125
  0
ENDTAB
  0
TABLE
  2
LAYER
 70
     3
  0
LAYER
  2
0
 70
     0
 62
     7
  6
CONTINUOUS
  0
LAYER
  2
1
 70
     0
 62
     1
  6
CENTER
  0
LAYER
  2
3
 70
     0
 62
     3
  6
CONTINUOUS
  0
ENDTAB
  0
TABLE
  2
STYLE
 70
     2
  0
STYLE
  2
STANDARD
 70
     0
 40
0.0
 41
1.0
 50
0.0
 71
     0
 42
4.000000000000048
  3
TXT
  4
BIGFONT
  0
STYLE
  2
STANDARD1
 70
     0
 40
0.0
 41
1.0
 50
0.0
 71
     0
 42
3.0
  3
txt
  4

  0
ENDTAB
  0
TABLE
  2
VIEW
 70
     1
  0
VIEW
  2
ALL
 70
     0
 40
270.0
 10
220.99159663865549
 20
135.0
 41
0.0
 11
0.0
 21
0.0
 31
1.0
 12
0.0
 22
0.0
 32
0.0
 42
0.0
 43
0.0
 44
0.0
 50
0.0
 71
     0
  0
ENDTAB
  0
TABLE
  2
UCS
 70
     0
  0
ENDTAB
  0
TABLE
  2
APPID
 70
     3
  0
APPID
  2
ACAD
 70
     0
  0
APPID
  2
ACAD_MLEADERVER
 70
     0
  0
APPID
  2
ACAD_NAV_VCDISPLAY
 70
     0
  0
ENDTAB
  0
TABLE
  2
DIMSTYLE
 70
     1
  0
DIMSTYLE
  2
STANDARD
 70
     0
  3

  4

  5

  6

  7

 40
1.0
 41
0.18
 42
0.0625
 43
0.38
 44
0.18
 45
0.0
 46
0.0
 47
0.0
 48
0.0
140
0.18
141
0.09
142
0.0
143
25.399999999999999
144
1.0
145
0.0
146
1.0
147
0.09
 71
     0
 72
     0
 73
     1
 74
     1
 75
     0
 76
     0
 77
     0
 78
     0
170
     0
171
     2
172
     0
173
     0
174
     0
175
     0
176
     0
177
     0
178
     0
  0
ENDTAB
  0
ENDSEC
  0
SECTION
  2
BLOCKS
  0
BLOCK
  8
0
  2
$MODEL_SPACE
 70
     0
 10
0.0
 20
0.0
 30
0.0
  3
$MODEL_SPACE
  1

  0
ENDBLK
  5
128
  8
0
  0
BLOCK
 67
     1
  8
0
  2
$PAPER_SPACE
 70
     0
 10
0.0
 20
0.0
 30
0.0
  3
$PAPER_SPACE
  1

  0
ENDBLK
  5
126
 67
     1
  8
0
  0
ENDSEC
  0
SECTION
  2
ENTITIES
  0
LINE
  5
34
  8
1
 10
120.0
 20
160.0
 30
0.0
 11
119.9999999999999
 21
100.0
 31
0.0
  0
LINE
  5
35
  8
1
 10
89.999999999999986
 20
130.0
 30
0.0
 11
150.0
 21
130.0
 31
0.0
  0
ARC
  5
36
  8
0
 10
133.7532889043741
 20
120.00765071102801
 30
0.0
 40
8.0
 50
258.02528316028378
 51
29.974716999641799
  0
ARC
  5
37
  8
0
 10
151.0782118677578
 20
130.0
 30
0.0
 40
12.0
 50
150.0253059768857
 51
209.9747096481054
  0
ARC
  5
38
  8
0
 10
129.6036956219223
 20
159.5571359116324
 30
0.0
 40
12.0
 50
222.0253059768857
 51
281.97470964810537
  0
ARC
  5
39
  8
0
 10
133.7532889043741
 20
139.99234928897201
 30
0.0
 40
8.0
 50
330.02528316028378
 51
101.9747169996418
  0
ARC
  5
3A
  8
0
 10
94.857198444198858
 20
148.2673146034889
 30
0.0
 40
12.0
 50
294.02530597688582
 51
353.97470964810537
  0
ARC
  5
3B
  8
0
 10
114.7467110956259
 20
146.16796077701761
 30
0.0
 40
8.0
 50
42.025283160283827
 51
173.9747169996418
  0
ARC
  5
3C
  8
0
 10
94.857198444198886
 20
111.732685396511
 30
0.0
 40
12.0
 50
6.0253059768857451
 51
65.974709648105417
  0
ARC
  5
3D
  8
0
 10
103.0000000000001
 20
130.0
 30
0.0
 40
8.0
 50
114.02528316028381
 51
245.9747169996418
  0
ARC
  5
3E
  8
0
 10
129.60369562192241
 20
100.4428640883676
 30
0.0
 40
12.0
 50
78.025305976885747
 51
137.9747096481054
  0
ARC
  5
3F
  8
0
 10
114.7467110956259
 20
113.8320392229824
 30
0.0
 40
8.0
 50
186.02528316028381
 51
317.97471699964188
  0
LINE
  5
40
  8
0
 10
228.61494373141039
 20
136.5
 30
0.0
 11
228.61494373141039
 21
123.5
 31
0.0
  0
LINE
  5
41
  8
1
 10
190.61494373141039
 20
130.0
 30
0.0
 11
283.61494373141028
 21
130.0
 31
0.0
  0
ARC
  5
42
  8
0
 10
273.61494373141039
 20
130.0
 30
0.0
 40
78.0
 50
162.48937772079961
 51
197.51062227920039
  0
LINE
  5
43
  8
0
 10
228.31494373141041
 20
141.25
 30
0.0
 11
228.3149437314103
 21
118.75
 31
0.0
  0
LINE
  5
44
  8
0
 10
228.31494373141041
 20
136.5
 30
0.0
 11
228.61494373141039
 21
136.49999999999989
 31
0.0
  0
LINE
  5
45
  8
0
 10
214.61494373141039
 20
142.5
 30
0.0
 11
214.61494373141039
 21
117.5
 31
0.0
  0
LINE
  5
46
  8
0
 10
215.01266168974431
 20
117.5
 30
0.0
 11
227.06494373141041
 21
117.5
 31
0.0
  0
LINE
  5
47
  8
0
 10
215.01266168974431
 20
142.5
 30
0.0
 11
227.06494373141041
 21
142.5
 31
0.0
  0
LINE
  5
48
  8
0
 10
214.5254766573517
 20
142.88752447282801
 30
0.0
 11
211.92118273269631
 21
154.1679607770175
 31
0.0
  0
LINE
  5
49
  8
0
 10
214.5254766573517
 20
117.1124755271719
 30
0.0
 11
211.92118273269631
 21
105.8320392229824
 31
0.0
  0
ARC
  5
4A
  8
0
 10
215.01266168974431
 20
117.0
 30
0.0
 40
0.5
 50
89.999999999999986
 51
167.0
  0
ARC
  5
4B
  8
0
 10
215.01266168974431
 20
143.0
 30
0.0
 40
0.5
 50
193.0
 51
270.0
  0
LINE
  5
4C
  8
0
 10
227.06494373141041
 20
117.5
 30
0.0
 11
228.3149437314103
 21
118.75
 31
0.0
  0
LINE
  5
4D
  8
0
 10
228.31494373141041
 20
141.25
 30
0.0
 11
227.06494373141041
 21
142.5
 31
0.0
  0
ARC
  5
4E
  8
0
 10
161.61494373141039
 20
130.0
 30
0.0
 40
50.5
 50
348.30369405156699
 51
11.696305804735379
  0
ARC
  5
4F
  8
0
 10
189.6649437314104
 20
142.20399524745889
 30
0.0
 40
9.6999999999999993
 50
348.30369560653298
 51
19.853184211463571
  0
ARC
  5
50
  8
0
 10
220.56494373141041
 20
142.20399524745889
 30
0.0
 40
9.6999999999999993
 50
155.49281831486519
 51
191.6963111986384
  0
ARC
  5
51
  8
0
 10
207.72380769918939
 20
148.72453450378259
 30
0.0
 40
9.5
 50
164.13623502746719
 51
199.8532190067919
  0
ARC
  5
52
  8
0
 10
203.0946879650698
 20
150.1683008329222
 30
0.0
 40
9.5
 50
335.49278205185112
 51
13.00001585140825
  0
LINE
  5
53
  8
0
 10
227.06494373141041
 20
142.5
 30
0.0
 11
227.06494373141041
 21
117.5
 31
0.0
  0
LINE
  5
54
  8
0
 10
228.3149437314103
 20
123.5
 30
0.0
 11
228.61494373141039
 21
123.5
 31
0.0
  0
ARC
  5
55
  8
0
 10
203.0946879650698
 20
109.8316991670778
 30
0.0
 40
9.5
 50
346.99998414859181
 51
24.507217948148899
  0
ARC
  5
56
  8
0
 10
207.72380769918939
 20
111.27546549621739
 30
0.0
 40
9.5
 50
160.1467809932081
 51
195.86376497253269
  0
ARC
  5
57
  8
0
 10
220.56494373141041
 20
117.79600475254109
 30
0.0
 40
9.6999999999999993
 50
168.30368880136169
 51
204.50718168513481
  0
ARC
  5
58
  8
0
 10
189.6649437314104
 20
117.79600475254109
 30
0.0
 40
9.6999999999999993
 50
340.14681578853651
 51
11.69630439346704
  0
ARC
  5
59
  8
0
 10
248.61494373141031
 20
130.0
 30
0.0
 40
50.5
 50
168.3036941952646
 51
191.69630594843289
  0
LINE
  5
5A
  8
0
 10
228.31494373141041
 20
203.5
 30
0.0
 11
228.61494373141039
 21
203.5
 31
0.0
  0
LINE
  5
5B
  8
0
 10
227.06494373141041
 20
222.5
 30
0.0
 11
227.06494373141041
 21
197.5
 31
0.0
  0
LINE
  5
5C
  8
0
 10
228.31494373141041
 20
221.25
 30
0.0
 11
227.06494373141041
 21
222.5
 31
0.0
  0
LINE
  5
5D
  8
0
 10
227.06494373141041
 20
197.5
 30
0.0
 11
228.31494373141041
 21
198.75
 31
0.0
  0
ARC
  5
5E
  8
0
 10
215.01266168974431
 20
223.0
 30
0.0
 40
0.5
 50
193.0
 51
270.0
  0
ARC
  5
5F
  8
0
 10
215.01266168974431
 20
197.0
 30
0.0
 40
0.5
 50
89.999999999999986
 51
167.0
  0
ARC
  5
60
  8
0
 10
200.45074483604901
 20
234.0
 30
0.0
 40
1.0
 50
89.999999999999986
 51
161.83899451598441
  0
LINE
  5
61
  8
0
 10
214.5254766573517
 20
197.11247552717199
 30
0.0
 11
212.47865366009529
 21
188.24671109562581
 31
0.0
  0
LINE
  5
62
  8
0
 10
214.5254766573517
 20
222.88752447282809
 30
0.0
 11
211.72909134234089
 21
235.0
 31
0.0
  0
LINE
  5
63
  8
0
 10
215.01266168974431
 20
222.5
 30
0.0
 11
227.06494373141041
 21
222.5
 31
0.0
  0
LINE
  5
64
  8
0
 10
215.01266168974431
 20
197.5
 30
0.0
 11
227.06494373141041
 21
197.5
 31
0.0
  0
LINE
  5
65
  8
0
 10
214.61494373141039
 20
222.5
 30
0.0
 11
214.61494373141039
 21
197.5
 31
0.0
  0
LINE
  5
66
  8
0
 10
228.31494373141041
 20
216.5
 30
0.0
 11
228.61494373141039
 21
216.5
 31
0.0
  0
LINE
  5
67
  8
0
 10
228.31494373141041
 20
221.25
 30
0.0
 11
228.31494373141041
 21
198.75
 31
0.0
  0
ARC
  5
68
  8
0
 10
273.61494373141039
 20
210.0
 30
0.0
 40
78.0
 50
161.8389945159843
 51
195.6358983866466
  0
LINE
  5
69
  8
1
 10
190.61494373141039
 20
210.0
 30
0.0
 11
283.61494373141028
 21
210.0
 31
0.0
  0
LINE
  5
6A
  8
0
 10
228.61494373141039
 20
216.5
 30
0.0
 11
228.61494373141039
 21
203.5
 31
0.0
  0
LINE
  5
6B
  8
0
 10
200.45074483604901
 20
235.0
 30
0.0
 11
211.72909134234089
 21
235.0
 31
0.0
  0
LINE
  5
6C
  8
0
 10
200.1830324568522
 20
154.1679607770175
 30
0.0
 11
211.92118273269631
 21
154.1679607770175
 31
0.0
  0
LINE
  5
6D
  8
0
 10
200.18303245685229
 20
105.8320392229824
 30
0.0
 11
211.92118273269631
 21
105.8320392229824
 31
0.0
  0
ARC
  5
6E
  8
0
 10
200.18303245685229
 20
106.8320392229824
 30
0.0
 40
1.0
 50
197.51062227920241
 51
270.0
  0
ARC
  5
6F
  8
0
 10
200.1830324568522
 20
153.16796077701761
 30
0.0
 40
1.0
 50
89.999999999999986
 51
162.48937772079881
  0
LINE
  5
70
  8
0
 10
200.1830324568522
 20
112.00765071102791
 30
0.0
 11
210.86494373141039
 21
112.00765071102791
 31
0.0
  0
LINE
  5
71
  8
0
 10
200.18303245685229
 20
120.00765071102791
 30
0.0
 11
210.86494373141039
 21
120.00765071102791
 31
0.0
  0
LINE
  5
72
  8
0
 10
200.18303245685229
 20
139.99234928897201
 30
0.0
 11
210.86494373141039
 21
139.99234928897201
 31
0.0
  0
LINE
  5
73
  8
0
 10
200.1830324568522
 20
147.99234928897201
 30
0.0
 11
210.86494373141039
 21
147.99234928897201
 31
0.0
  0
LINE
  5
74
  8
0
 10
199.4644144032149
 20
188.2467110956259
 30
0.0
 11
212.47865366009529
 21
188.24671109562581
 31
0.0
  0
ARC
  5
75
  8
0
 10
199.4644144032149
 20
189.2467110956259
 30
0.0
 40
1.0
 50
195.6358983866491
 51
270.0
  0
ARC
  5
76
  8
0
 10
192.41564310728219
 20
216.2597936650495
 30
0.0
 40
6.9493006241282131
 50
342.89807874470603
 51
28.414395840111411
  0
ARC
  5
77
  8
0
 10
194.00000739070731
 20
192.5416150895756
 30
0.0
 40
5.3649363407030322
 50
324.62662554359201
 51
19.123893011361009
  0
ARC
  5
78
  8
0
 10
250.85980452165211
 20
204.28683622690701
 30
0.0
 40
52.745175929354147
 50
169.14923692228331
 51
190.91519074516111
  0
ARC
  5
79
  8
0
 10
220.29428185339049
 20
225.48305137604859
 30
0.0
 40
22.556291187166131
 50
169.51051659181451
 51
195.20645121060619
  0
ARC
  5
7A
  8
0
 10
190.776174715651
 20
225.234904484753
 30
0.0
 40
22.556291187166131
 50
344.79354878939381
 51
10.48948340818548
  0
ARC
  5
7B
  8
0
 10
160.21065204738929
 20
204.03868933561139
 30
0.0
 40
52.745175929354147
 50
349.08480925483889
 51
10.85076307771674
  0
ARC
  5
7C
  8
0
 10
217.070449178334
 20
192.29346819828001
 30
0.0
 40
5.3649363407030322
 50
160.87610698863901
 51
215.37337445640799
  0
ARC
  5
7D
  8
0
 10
218.65481346175929
 20
216.01164677375391
 30
0.0
 40
6.9493006241282131
 50
151.58560415988859
 51
197.10192125529409
  0
LINE
  5
7E
  8
0
 10
200.18303245685229
 20
230.25712045895591
 30
0.0
 11
210.86494373141039
 21
230.2571204589558
 31
0.0
  0
LINE
  5
7F
  8
0
 10
200.18303245685229
 20
223.20909364021401
 30
0.0
 11
210.86494373141039
 21
223.20909364021401
 31
0.0
  0
LINE
  5
80
  8
0
 10
200.18303245685229
 20
209.3104930409213
 30
0.0
 11
210.86494373141039
 21
209.3104930409213
 31
0.0
  0
LINE
  5
81
  8
0
 10
200.18303245685229
 20
197.9065514302786
 30
0.0
 11
210.86494373141039
 21
197.9065514302786
 31
0.0
  0
LINE
  5
87
  8
0
 10
200.1830324568522
 20
62.093448569721438
 30
0.0
 11
210.86494373141039
 21
62.093448569721438
 31
0.0
  0
LINE
  5
88
  8
0
 10
200.1830324568522
 20
50.689506959078763
 30
0.0
 11
210.86494373141039
 21
50.689506959078763
 31
0.0
  0
LINE
  5
89
  8
0
 10
200.1830324568522
 20
36.790906359786057
 30
0.0
 11
210.86494373141039
 21
36.790906359786057
 31
0.0
  0
LINE
  5
8A
  8
0
 10
200.18303245685229
 20
29.74287954104415
 30
0.0
 11
210.86494373141039
 21
29.742879541044211
 31
0.0
  0
ARC
  5
8B
  8
0
 10
218.6548134617592
 20
43.988353226246147
 30
0.0
 40
6.9493006241282131
 50
162.89807874470591
 51
208.41439584011141
  0
ARC
  5
8C
  8
0
 10
217.070449178334
 20
67.706531801720075
 30
0.0
 40
5.3649363407030322
 50
144.62662554359201
 51
199.1238930113611
  0
ARC
  5
8D
  8
0
 10
160.21065204738929
 20
55.961310664388698
 30
0.0
 40
52.745175929354147
 50
349.14923692228331
 51
10.915190745161141
  0
ARC
  5
8E
  8
0
 10
190.776174715651
 20
34.76509551524709
 30
0.0
 40
22.556291187166131
 50
349.51051659181462
 51
15.20645121060625
  0
ARC
  5
8F
  8
0
 10
220.2942818533904
 20
34.516948623951471
 30
0.0
 40
22.556291187166131
 50
164.79354878939381
 51
190.48948340818549
  0
ARC
  5
90
  8
0
 10
250.85980452165211
 20
55.713163773093079
 30
0.0
 40
52.745175929354147
 50
169.08480925483889
 51
190.85076307771669
  0
ARC
  5
91
  8
0
 10
194.00000739070731
 20
67.458384910424456
 30
0.0
 40
5.3649363407030322
 50
340.87610698863909
 51
35.373374456408051
  0
ARC
  5
92
  8
0
 10
192.41564310728219
 20
43.740206334950528
 30
0.0
 40
6.9493006241282131
 50
331.5856041598887
 51
17.101921255294041
  0
ARC
  5
93
  8
0
 10
199.4644144032149
 20
70.753288904374173
 30
0.0
 40
1.0
 50
90.000000000000057
 51
164.3641016133509
  0
LINE
  5
94
  8
0
 10
199.4644144032149
 20
71.753288904374187
 30
0.0
 11
212.47865366009529
 21
71.753288904374244
 31
0.0
  0
LINE
  5
95
  8
0
 10
200.45074483604901
 20
25.000000000000071
 30
0.0
 11
211.72909134234089
 21
25.000000000000071
 31
0.0
  0
LINE
  5
96
  8
0
 10
228.61494373141039
 20
43.500000000000057
 30
0.0
 11
228.61494373141039
 21
56.500000000000057
 31
0.0
  0
LINE
  5
97
  8
1
 10
190.61494373141039
 20
50.000000000000071
 30
0.0
 11
283.61494373141028
 21
50.000000000000071
 31
0.0
  0
ARC
  5
98
  8
0
 10
273.61494373141039
 20
50.000000000000057
 30
0.0
 40
78.0
 50
164.3641016133534
 51
198.1610054840157
  0
LINE
  5
99
  8
0
 10
228.31494373141041
 20
38.750000000000057
 30
0.0
 11
228.31494373141041
 21
61.250000000000071
 31
0.0
  0
LINE
  5
9A
  8
0
 10
228.31494373141041
 20
43.500000000000057
 30
0.0
 11
228.61494373141039
 21
43.500000000000057
 31
0.0
  0
LINE
  5
9B
  8
0
 10
214.61494373141039
 20
37.500000000000071
 30
0.0
 11
214.61494373141039
 21
62.500000000000071
 31
0.0
  0
LINE
  5
9C
  8
0
 10
215.01266168974431
 20
62.500000000000071
 30
0.0
 11
227.06494373141041
 21
62.500000000000071
 31
0.0
  0
LINE
  5
9D
  8
0
 10
215.01266168974431
 20
37.500000000000071
 30
0.0
 11
227.06494373141041
 21
37.500000000000057
 31
0.0
  0
LINE
  5
9E
  8
0
 10
214.5254766573517
 20
37.112475527171974
 30
0.0
 11
211.72909134234089
 21
25.000000000000071
 31
0.0
  0
LINE
  5
9F
  8
0
 10
214.5254766573517
 20
62.887524472828098
 30
0.0
 11
212.47865366009529
 21
71.753288904374244
 31
0.0
  0
ARC
  5
A0
  8
0
 10
200.45074483604901
 20
26.000000000000071
 30
0.0
 40
1.0
 50
198.16100548401559
 51
270.00000000000011
  0
ARC
  5
A1
  8
0
 10
215.01266168974431
 20
63.000000000000057
 30
0.0
 40
0.5
 50
193.0
 51
270.00000000000011
  0
ARC
  5
A2
  8
0
 10
215.01266168974431
 20
37.000000000000057
 30
0.0
 40
0.5
 50
90.000000000000057
 51
167.0
  0
LINE
  5
A3
  8
0
 10
227.06494373141041
 20
62.500000000000071
 30
0.0
 11
228.31494373141041
 21
61.250000000000071
 31
0.0
  0
LINE
  5
A4
  8
0
 10
228.31494373141041
 20
38.750000000000057
 30
0.0
 11
227.06494373141041
 21
37.500000000000057
 31
0.0
  0
LINE
  5
A5
  8
0
 10
227.06494373141041
 20
37.500000000000057
 30
0.0
 11
227.06494373141041
 21
62.500000000000071
 31
0.0
  0
LINE
  5
A6
  8
0
 10
228.31494373141041
 20
56.500000000000057
 30
0.0
 11
228.61494373141039
 21
56.500000000000057
 31
0.0
  0
LINE
  5
AB
  8
0
 10
277.11494373141039
 20
55.000000000000021
 30
0.0
 11
277.11494373141028
 21
45.000000000000021
 31
0.0
  0
LINE
  5
AC
  8
0
 10
278.61494373141039
 20
46.500000000000021
 30
0.0
 11
277.11494373141028
 21
45.000000000000021
 31
0.0
  0
LINE
  5
AD
  8
0
 10
277.11494373141039
 20
55.000000000000021
 30
0.0
 11
278.61494373141039
 21
53.500000000000021
 31
0.0
  0
LINE
  5
AE
  8
0
 10
228.61494373141031
 20
55.000000000000021
 30
0.0
 11
277.11494373141039
 21
55.000000000000021
 31
0.0
  0
LINE
  5
AF
  8
3
 10
231.61494373141051
 20
54.18800000000013
 30
0.0
 11
277.92694373141029
 21
54.188000000000123
 31
0.0
  0
LINE
  5
B0
  8
3
 10
231.61494373141051
 20
45.811999999999912
 30
0.0
 11
277.92694373141018
 21
45.811999999999941
 31
0.0
  0
LINE
  5
B1
  8
0
 10
228.61494373141031
 20
45.000000000000021
 30
0.0
 11
277.11494373141028
 21
45.000000000000021
 31
0.0
  0
LINE
  5
B2
  8
0
 10
278.61494373141039
 20
53.500000000000021
 30
0.0
 11
278.61494373141039
 21
46.500000000000021
 31
0.0
  0
LINE
  5
B3
  8
0
 10
278.61494373141039
 20
133.49999999999989
 30
0.0
 11
278.61494373141039
 21
126.4999999999999
 31
0.0
  0
LINE
  5
B4
  8
0
 10
228.61494373141031
 20
125.0
 30
0.0
 11
277.11494373141028
 21
125.0
 31
0.0
  0
LINE
  5
B5
  8
3
 10
231.61494373141051
 20
125.8119999999999
 30
0.0
 11
277.92694373141018
 21
125.8119999999999
 31
0.0
  0
LINE
  5
B6
  8
3
 10
231.61494373141051
 20
134.1880000000001
 30
0.0
 11
277.92694373141029
 21
134.1880000000001
 31
0.0
  0
LINE
  5
B7
  8
0
 10
228.61494373141031
 20
134.99999999999989
 30
0.0
 11
277.11494373141039
 21
134.99999999999989
 31
0.0
  0
LINE
  5
B8
  8
0
 10
277.11494373141039
 20
134.99999999999989
 30
0.0
 11
278.61494373141039
 21
133.49999999999989
 31
0.0
  0
LINE
  5
B9
  8
0
 10
278.61494373141039
 20
126.4999999999999
 30
0.0
 11
277.11494373141028
 21
125.0
 31
0.0
  0
LINE
  5
BA
  8
0
 10
277.11494373141039
 20
134.99999999999989
 30
0.0
 11
277.11494373141028
 21
125.0
 31
0.0
  0
LINE
  5
BB
  8
0
 10
278.61494373141039
 20
213.5
 30
0.0
 11
278.61494373141039
 21
206.5
 31
0.0
  0
LINE
  5
BC
  8
0
 10
228.61494373141031
 20
205.0
 30
0.0
 11
277.11494373141028
 21
205.0
 31
0.0
  0
LINE
  5
BD
  8
3
 10
231.61494373141051
 20
205.81199999999981
 30
0.0
 11
277.92694373141018
 21
205.8119999999999
 31
0.0
  0
LINE
  5
BE
  8
3
 10
231.61494373141051
 20
214.1880000000001
 30
0.0
 11
277.92694373141029
 21
214.1880000000001
 31
0.0
  0
LINE
  5
BF
  8
0
 10
228.61494373141031
 20
215.0
 30
0.0
 11
277.11494373141039
 21
215.0
 31
0.0
  0
LINE
  5
C0
  8
0
 10
277.11494373141039
 20
215.0
 30
0.0
 11
278.61494373141039
 21
213.5
 31
0.0
  0
LINE
  5
C1
  8
0
 10
278.61494373141039
 20
206.5
 30
0.0
 11
277.11494373141028
 21
205.0
 31
0.0
  0
LINE
  5
C2
  8
0
 10
277.11494373141039
 20
215.0
 30
0.0
 11
277.11494373141028
 21
205.0
 31
0.0
  0
LINE
  5
C3
  8
0
 10
231.61494373141051
 20
215.0
 30
0.0
 11
231.61494373141051
 21
205.0
 31
0.0
  0
LINE
  5
C4
  8
3
 10
231.61494373141051
 20
214.1880000000001
 30
0.0
 11
230.20851847566479
 21
215.0
 31
0.0
  0
LINE
  5
C5
  8
3
 10
231.61494373141051
 20
205.8119999999999
 30
0.0
 11
230.20851847566479
 21
205.0
 31
0.0
  0
LINE
  5
C6
  8
3
 10
231.61494373141051
 20
45.811999999999983
 30
0.0
 11
230.20851847566479
 21
45.000000000000078
 31
0.0
  0
LINE
  5
C7
  8
3
 10
231.61494373141051
 20
54.18800000000013
 30
0.0
 11
230.20851847566479
 21
55.000000000000028
 31
0.0
  0
LINE
  5
C8
  8
0
 10
231.61494373141051
 20
55.000000000000028
 30
0.0
 11
231.61494373141051
 21
45.000000000000057
 31
0.0
  0
LINE
  5
C9
  8
3
 10
231.61494373141051
 20
125.8119999999999
 30
0.0
 11
230.20851847566479
 21
125.0
 31
0.0
  0
LINE
  5
CA
  8
3
 10
231.61494373141051
 20
134.1880000000001
 30
0.0
 11
230.20851847566479
 21
134.99999999999989
 31
0.0
  0
LINE
  5
CB
  8
0
 10
231.61494373141051
 20
134.99999999999989
 30
0.0
 11
231.61494373141051
 21
125.0
 31
0.0
  0
TEXT
  5
218
  8
0
 62
     3
 10
0.0
 20
0.0
 30
0.0
 40
10.0
  1
BTK50X50-SUS
  7
STANDARD1
  0
ENDSEC
  0
EOF
