  0
SECTION
  2
HEADER
  9
$ACADVER
  1
AC1009
  9
$INSBASE
 10
0.0
 20
0.0
 30
0.0
  9
$EXTMIN
 10
0.0
 20
-2.960436562073669
 30
0.0
  9
$EXTMAX
 10
263.68820131944369
 20
240.0
 30
0.0
  9
$LIMMIN
 10
0.0
 20
0.0
  9
$LIMMAX
 10
375.0
 20
270.0
  9
$ORTHOMODE
 70
     1
  9
$REGENMODE
 70
     1
  9
$FILLMODE
 70
     1
  9
$QTEXTMODE
 70
     0
  9
$MIRRTEXT
 70
     0
  9
$DRAGMODE
 70
     2
  9
$LTSCALE
 40
10.0
  9
$OSMODE
 70
  3071
  9
$ATTMODE
 70
     1
  9
$TEXTSIZE
 40
4.000000000000048
  9
$TRACEWID
 40
0.05
  9
$TEXTSTYLE
  7
STANDARD
  9
$CLAYER
  8
0
  9
$CELTYPE
  6
BYLAYER
  9
$CECOLOR
 62
   256
  9
$DIMSCALE
 40
1.0
  9
$DIMASZ
 40
3.0
  9
$DIMEXO
 40
2.0
  9
$DIMDLI
 40
0.38
  9
$DIMRND
 40
0.0
  9
$DIMDLE
 40
0.0
  9
$DIMEXE
 40
2.0
  9
$DIMTP
 40
0.0
  9
$DIMTM
 40
0.0
  9
$DIMTXT
 40
3.2000000000000002
  9
$DIMCEN
 40
0.0
  9
$DIMTSZ
 40
0.0
  9
$DIMTOL
 70
     0
  9
$DIMLIM
 70
     0
  9
$DIMTIH
 70
     0
  9
$DIMTOH
 70
     0
  9
$DIMSE1
 70
     0
  9
$DIMSE2
 70
     0
  9
$DIMTAD
 70
     1
  9
$DIMZIN
 70
     0
  9
$DIMBLK
  1

  9
$DIMASO
 70
     1
  9
$DIMSHO
 70
     0
  9
$DIMPOST
  1

  9
$DIMAPOST
  1

  9
$DIMALT
 70
     0
  9
$DIMALTD
 70
     2
  9
$DIMALTF
 40
25.399999999999999
  9
$DIMLFAC
 40
1.0
  9
$DIMTOFL
 70
     1
  9
$DIMTVP
 40
1.6000000000000001
  9
$DIMTIX
 70
     1
  9
$DIMSOXD
 70
     0
  9
$DIMSAH
 70
     0
  9
$DIMBLK1
  1

  9
$DIMBLK2
  1

  9
$DIMSTYLE
  2
STANDARD
  9
$DIMCLRD
 70
     0
  9
$DIMCLRE
 70
     0
  9
$DIMCLRT
 70
     0
  9
$DIMTFAC
 40
1.0
  9
$DIMGAP
 40
0.09
  9
$LUNITS
 70
     2
  9
$LUPREC
 70
     4
  9
$SKETCHINC
 40
0.1
  9
$FILLETRAD
 40
4.0
  9
$AUNITS
 70
     0
  9
$AUPREC
 70
     4
  9
$MENU
  1
E:\r13\win\SUPPORT\ACAD
  9
$ELEVATION
 40
0.0
  9
$PELEVATION
 40
0.0
  9
$THICKNESS
 40
0.0
  9
$LIMCHECK
 70
     0
  9
$BLIPMODE
 70
     0
  9
$CHAMFERA
 40
0.0
  9
$CHAMFERB
 40
0.0
  9
$SKPOLY
 70
     0
  9
$TDCREATE
 40
2449839.7910069451
  9
$TDUPDATE
 40
2456598.469441806
  9
$TDINDWG
 40
0.0001631366
  9
$TDUSRTIMER
 40
0.0001631366
  9
$USRTIMER
 70
     1
  9
$ANGBASE
 50
0.0
  9
$ANGDIR
 70
     0
  9
$PDMODE
 70
     0
  9
$PDSIZE
 40
0.0
  9
$PLINEWID
 40
0.0
  9
$COORDS
 70
     1
  9
$SPLFRAME
 70
     0
  9
$SPLINETYPE
 70
     6
  9
$SPLINESEGS
 70
     8
  9
$ATTDIA
 70
     0
  9
$ATTREQ
 70
     1
  9
$HANDLING
 70
     1
  9
$HANDSEED
  5
2AB
  9
$SURFTAB1
 70
     6
  9
$SURFTAB2
 70
     6
  9
$SURFTYPE
 70
     6
  9
$SURFU
 70
     6
  9
$SURFV
 70
     6
  9
$UCSNAME
  2

  9
$UCSORG
 10
0.0
 20
0.0
 30
0.0
  9
$UCSXDIR
 10
1.0
 20
0.0
 30
0.0
  9
$UCSYDIR
 10
0.0
 20
1.0
 30
0.0
  9
$PUCSNAME
  2

  9
$PUCSORG
 10
0.0
 20
0.0
 30
0.0
  9
$PUCSXDIR
 10
1.0
 20
0.0
 30
0.0
  9
$PUCSYDIR
 10
0.0
 20
1.0
 30
0.0
  9
$USERI1
 70
     0
  9
$USERI2
 70
     1
  9
$USERI3
 70
     1
  9
$USERI4
 70
     0
  9
$USERI5
 70
     0
  9
$USERR1
 40
0.0
  9
$USERR2
 40
0.0
  9
$USERR3
 40
0.0
  9
$USERR4
 40
0.0
  9
$USERR5
 40
0.0
  9
$WORLDVIEW
 70
     1
  9
$SHADEDGE
 70
     3
  9
$SHADEDIF
 70
    70
  9
$TILEMODE
 70
     1
  9
$MAXACTVP
 70
    16
  9
$PLIMCHECK
 70
     0
  9
$PEXTMIN
 10
1.0000000000000000E+020
 20
1.0000000000000000E+020
 30
1.0000000000000000E+020
  9
$PEXTMAX
 10
-1.0000000000000000E+020
 20
-1.0000000000000000E+020
 30
-1.0000000000000000E+020
  9
$PLIMMIN
 10
0.0
 20
0.0
  9
$PLIMMAX
 10
12.0
 20
9.0
  9
$UNITMODE
 70
     0
  9
$VISRETAIN
 70
     0
  9
$PLINEGEN
 70
     0
  9
$PSLTSCALE
 70
     0
  0
ENDSEC
  0
SECTION
  2
TABLES
  0
TABLE
  2
VPORT
 70
     1
  0
VPORT
  2
*ACTIVE
 70
     0
 10
0.0
 20
0.0
 11
1.0
 21
1.0
 12
195.0581083320873
 22
133.5127261426681
 13
0.0
 23
0.0
 14
10.0
 24
10.0
 15
10.0
 25
10.0
 16
0.0
 26
0.0
 36
1.0
 17
0.0
 27
0.0
 37
0.0
 40
275.42274993631997
 41
1.831871345029239
 42
50.0
 43
0.0
 44
0.0
 50
0.0
 51
0.0
 71
     0
 72
   500
 73
     1
 74
     0
 75
     0
 76
     0
 77
     0
 78
     2
  0
ENDTAB
  0
TABLE
  2
LTYPE
 70
     3
  0
LTYPE
  2
CONTINUOUS
 70
     0
  3
Solid Line
 72
    65
 73
     0
 40
0.0
  0
LTYPE
  2
CENTER
 70
     0
  3
____ _ ____ _ ____ _ ____ _ ____ _ ____ _ ____
 72
    65
 73
     4
 40
2.0
 49
1.25
 49
-0.25
 49
0.25
 49
-0.25
  0
LTYPE
  2
PHANTOM2
 70
     0
  3
___ _ _ ___ _ _ ___ _ _ ___ _ _
 72
    65
 73
     6
 40
1.25
 49
0.625
 49
-0.125
 49
0.125
 49
-0.125
 49
0.125
 49
-0.125
  0
ENDTAB
  0
TABLE
  2
LAYER
 70
     3
  0
LAYER
  2
0
 70
     0
 62
     7
  6
CONTINUOUS
  0
LAYER
  2
1
 70
     0
 62
     1
  6
CENTER
  0
LAYER
  2
3
 70
     0
 62
     3
  6
CONTINUOUS
  0
ENDTAB
  0
TABLE
  2
STYLE
 70
     2
  0
STYLE
  2
STANDARD
 70
     0
 40
0.0
 41
1.0
 50
0.0
 71
     0
 42
4.000000000000048
  3
TXT
  4
BIGFONT
  0
STYLE
  2
STANDARD1
 70
     0
 40
0.0
 41
1.0
 50
0.0
 71
     0
 42
3.0
  3
txt
  4

  0
ENDTAB
  0
TABLE
  2
VIEW
 70
     1
  0
VIEW
  2
ALL
 70
     0
 40
270.0
 10
220.99159663865549
 20
135.0
 41
0.0
 11
0.0
 21
0.0
 31
1.0
 12
0.0
 22
0.0
 32
0.0
 42
0.0
 43
0.0
 44
0.0
 50
0.0
 71
     0
  0
ENDTAB
  0
TABLE
  2
UCS
 70
     0
  0
ENDTAB
  0
TABLE
  2
APPID
 70
     3
  0
APPID
  2
ACAD
 70
     0
  0
APPID
  2
ACAD_MLEADERVER
 70
     0
  0
APPID
  2
ACAD_NAV_VCDISPLAY
 70
     0
  0
ENDTAB
  0
TABLE
  2
DIMSTYLE
 70
     1
  0
DIMSTYLE
  2
STANDARD
 70
     0
  3

  4

  5

  6

  7

 40
1.0
 41
0.18
 42
0.0625
 43
0.38
 44
0.18
 45
0.0
 46
0.0
 47
0.0
 48
0.0
140
0.18
141
0.09
142
0.0
143
25.399999999999999
144
1.0
145
0.0
146
1.0
147
0.09
 71
     0
 72
     0
 73
     1
 74
     1
 75
     0
 76
     0
 77
     0
 78
     0
170
     0
171
     2
172
     0
173
     0
174
     0
175
     0
176
     0
177
     0
178
     0
  0
ENDTAB
  0
ENDSEC
  0
SECTION
  2
BLOCKS
  0
BLOCK
  8
0
  2
$MODEL_SPACE
 70
     0
 10
0.0
 20
0.0
 30
0.0
  3
$MODEL_SPACE
  1

  0
ENDBLK
  5
12C
  8
0
  0
BLOCK
 67
     1
  8
0
  2
$PAPER_SPACE
 70
     0
 10
0.0
 20
0.0
 30
0.0
  3
$PAPER_SPACE
  1

  0
ENDBLK
  5
12A
 67
     1
  8
0
  0
ENDSEC
  0
SECTION
  2
ENTITIES
  0
LINE
  5
34
  8
0
 10
228.68820131944361
 20
137.5
 30
0.0
 11
228.68820131944361
 21
122.4999999999999
 31
0.0
  0
LINE
  5
35
  8
1
 10
186.18820131944361
 20
130.0
 30
0.0
 11
263.68820131944369
 21
129.99999999999989
 31
0.0
  0
ARC
  5
36
  8
0
 10
303.18820131944369
 20
130.0
 30
0.0
 40
112.0
 50
165.39095340924459
 51
194.60904659075541
  0
LINE
  5
37
  8
0
 10
228.3882013194436
 20
142.24999999999989
 30
0.0
 11
228.3882013194436
 21
117.7499999999999
 31
0.0
  0
LINE
  5
38
  8
0
 10
228.3882013194436
 20
137.5
 30
0.0
 11
228.68820131944361
 21
137.5
 31
0.0
  0
LINE
  5
39
  8
0
 10
211.18820131944369
 20
143.5
 30
0.0
 11
211.18820131944369
 21
116.5
 31
0.0
  0
LINE
  5
3A
  8
0
 10
211.99798535263869
 20
116.5
 30
0.0
 11
227.13820131944371
 21
116.5
 31
0.0
  0
LINE
  5
3B
  8
0
 10
211.99798535263869
 20
143.5
 30
0.0
 11
227.13820131944371
 21
143.5
 31
0.0
  0
LINE
  5
3C
  8
0
 10
227.13820131944371
 20
116.5
 30
0.0
 11
228.3882013194436
 21
117.75
 31
0.0
  0
LINE
  5
3D
  8
0
 10
227.13820131944371
 20
143.5
 30
0.0
 11
228.3882013194436
 21
142.24999999999989
 31
0.0
  0
LINE
  5
3E
  8
0
 10
211.0198377519049
 20
144.29208830918219
 30
0.0
 11
207.89428485344359
 21
158.99665858405061
 31
0.0
  0
LINE
  5
3F
  8
0
 10
211.0198377519049
 20
115.7079116908177
 30
0.0
 11
207.89428485344359
 21
101.00334141594929
 31
0.0
  0
ARC
  5
40
  8
0
 10
211.99798535263869
 20
115.5
 30
0.0
 40
1.0
 50
89.999999999999986
 51
167.99999999999989
  0
ARC
  5
41
  8
0
 10
211.99798535263869
 20
144.5
 30
0.0
 40
1.0
 50
191.99999999999989
 51
270.0
  0
ARC
  5
42
  8
0
 10
257.18820131944369
 20
130.0
 30
0.0
 40
64.5
 50
166.06944553378409
 51
193.93055359819709
  0
LINE
  5
43
  8
1
 10
120.0
 20
165.0
 30
0.0
 11
120.0
 21
95.000000000000014
 31
0.0
  0
LINE
  5
44
  8
1
 10
85.000000000000057
 20
130.0
 30
0.0
 11
155.0
 21
130.0
 31
0.0
  0
ARC
  5
45
  8
0
 10
136.58484838468641
 20
117.9504023280043
 30
0.0
 40
9.5
 50
263.89180735342239
 51
24.108192646574139
  0
ARC
  5
46
  8
0
 10
163.5117345014107
 20
130.0
 30
0.0
 40
20.0
 50
155.89179762549759
 51
204.10818865550311
  0
ARC
  5
47
  8
0
 10
133.44586541566659
 20
171.3821186328712
 30
0.0
 40
20.0
 50
227.89179762549759
 51
276.10818865550311
  0
ARC
  5
48
  8
0
 10
136.58484838468641
 20
142.04959767199571
 30
0.0
 40
9.5
 50
335.89180735342239
 51
96.108192646574082
  0
ARC
  5
49
  8
0
 10
84.79826733362809
 20
155.57555584159479
 30
0.0
 40
20.0
 50
299.89179762549759
 51
348.10818865550311
  0
ARC
  5
4A
  8
0
 10
113.6651516153136
 20
149.49665858405061
 30
0.0
 40
9.5
 50
47.891807353422372
 51
168.10819264657411
  0
ARC
  5
4B
  8
0
 10
84.798267333628047
 20
104.42444415840519
 30
0.0
 40
20.0
 50
11.891797625497571
 51
60.108188655503128
  0
ARC
  5
4C
  8
0
 10
99.500000000000043
 20
130.0
 30
0.0
 40
9.5
 50
119.89180735342229
 51
240.10819264657411
  0
ARC
  5
4D
  8
0
 10
133.44586541566659
 20
88.617881367128717
 30
0.0
 40
20.0
 50
83.891797625497574
 51
132.10818865550311
  0
ARC
  5
4E
  8
0
 10
113.6651516153136
 20
110.50334141594929
 30
0.0
 40
9.5
 50
191.89180735342231
 51
312.1081926465742
  0
ARC
  5
4F
  8
0
 10
219.43820131944369
 20
148.4170437367132
 30
0.0
 40
12.0
 50
163.50209406434209
 51
193.93059634297899
  0
ARC
  5
50
  8
0
 10
196.42627895866309
 20
155.23257227538181
 30
0.0
 40
12.0
 50
343.5020940643459
 51
11.999991092079689
  0
ARC
  5
51
  8
0
 10
182.93820131944361
 20
148.417043736713
 30
0.0
 40
12.0
 50
346.06944492087689
 51
14.288890699928031
  0
ARC
  5
52
  8
0
 10
206.19572880031859
 20
154.34050686873229
 30
0.0
 40
12.0
 50
165.91239097528
 51
194.28889069992121
  0
LINE
  5
53
  8
0
 10
227.13820131944371
 20
143.5
 30
0.0
 11
227.13820131944371
 21
116.5
 31
0.0
  0
LINE
  5
54
  8
0
 10
228.38820131944371
 20
122.5
 30
0.0
 11
228.68820131944361
 21
122.5
 31
0.0
  0
ARC
  5
55
  8
0
 10
206.19572880031859
 20
105.65949313126769
 30
0.0
 40
12.0
 50
165.7111093000789
 51
194.08760902472
  0
ARC
  5
56
  8
0
 10
182.93820131944361
 20
111.582956263287
 30
0.0
 40
12.0
 50
345.71110930007211
 51
13.93055507912311
  0
ARC
  5
57
  8
0
 10
196.42627895866309
 20
104.7674277246182
 30
0.0
 40
12.0
 50
348.00000890792029
 51
16.497905935654121
  0
ARC
  5
58
  8
0
 10
219.43820131944369
 20
111.5829562632868
 30
0.0
 40
12.0
 50
166.06940365702101
 51
196.4979059356578
  0
ARC
  5
59
  8
0
 10
145.18820131944361
 20
130.0
 30
0.0
 40
64.5
 50
346.06944640180291
 51
13.93055446621587
  0
LINE
  5
5A
  8
0
 10
228.38820131944371
 20
202.5
 30
0.0
 11
228.68820131944369
 21
202.5
 31
0.0
  0
LINE
  5
5B
  8
0
 10
227.13820131944371
 20
223.5
 30
0.0
 11
227.13820131944371
 21
196.5
 31
0.0
  0
ARC
  5
5C
  8
0
 10
211.99798535263869
 20
224.5
 30
0.0
 40
1.0
 50
191.99999999999989
 51
270.0
  0
ARC
  5
5D
  8
0
 10
211.99798535263869
 20
195.5
 30
0.0
 40
1.0
 50
89.999999999999986
 51
167.99999999999989
  0
ARC
  5
5E
  8
0
 10
196.04343943161271
 20
239.0
 30
0.0
 40
1.0
 50
89.999999999999986
 51
164.85508591318921
  0
LINE
  5
5F
  8
0
 10
211.0198377519049
 20
195.70791169081781
 30
0.0
 11
208.5132092176562
 21
183.91515161531359
 31
0.0
  0
LINE
  5
60
  8
0
 10
211.0198377519049
 20
224.2920883091823
 30
0.0
 11
207.68101805188829
 21
240.0
 31
0.0
  0
LINE
  5
61
  8
0
 10
227.13820131944371
 20
223.5
 30
0.0
 11
228.38820131944371
 21
222.25
 31
0.0
  0
LINE
  5
62
  8
0
 10
227.13820131944371
 20
196.5
 30
0.0
 11
228.38820131944371
 21
197.75
 31
0.0
  0
LINE
  5
63
  8
0
 10
211.99798535263869
 20
223.5
 30
0.0
 11
227.13820131944371
 21
223.5
 31
0.0
  0
LINE
  5
64
  8
0
 10
211.99798535263869
 20
196.5
 30
0.0
 11
227.13820131944371
 21
196.5
 31
0.0
  0
LINE
  5
65
  8
0
 10
211.18820131944369
 20
223.5
 30
0.0
 11
211.18820131944369
 21
196.5
 31
0.0
  0
LINE
  5
66
  8
0
 10
228.38820131944371
 20
217.5
 30
0.0
 11
228.68820131944369
 21
217.5
 31
0.0
  0
LINE
  5
67
  8
0
 10
228.38820131944371
 20
222.25
 30
0.0
 11
228.3882013194436
 21
197.74999999999989
 31
0.0
  0
ARC
  5
68
  8
0
 10
303.18820131944369
 20
210.0
 30
0.0
 40
112.0
 50
164.85508591318941
 51
193.06107849279471
  0
LINE
  5
69
  8
1
 10
186.18820131944369
 20
210.0
 30
0.0
 11
263.68820131944369
 21
210.0
 31
0.0
  0
LINE
  5
6A
  8
0
 10
228.68820131944369
 20
217.5
 30
0.0
 11
228.68820131944369
 21
202.5
 31
0.0
  0
LINE
  5
6B
  8
0
 10
196.04343943161271
 20
240.0
 30
0.0
 11
207.68101805188829
 21
240.0
 31
0.0
  0
LINE
  5
6C
  8
0
 10
195.7769025277052
 20
101.00334141594929
 30
0.0
 11
207.89428485344359
 21
101.00334141594929
 31
0.0
  0
LINE
  5
6D
  8
0
 10
195.7769025277052
 20
158.99665858405061
 30
0.0
 11
207.89428485344359
 21
158.99665858405061
 31
0.0
  0
ARC
  5
6E
  8
0
 10
195.7769025277052
 20
102.00334141594929
 30
0.0
 40
1.0
 50
194.60904659075669
 51
270.0
  0
ARC
  5
6F
  8
0
 10
195.7769025277052
 20
157.99665858405061
 30
0.0
 40
1.0
 50
89.999999999999986
 51
165.39095340924419
  0
LINE
  5
70
  8
0
 10
195.7769025277052
 20
151.54959767199571
 30
0.0
 11
207.43820131944369
 21
151.54959767199571
 31
0.0
  0
LINE
  5
71
  8
0
 10
195.7769025277052
 20
142.04959767199571
 30
0.0
 11
207.43820131944369
 21
142.04959767199571
 31
0.0
  0
LINE
  5
72
  8
0
 10
195.7769025277052
 20
117.9504023280043
 30
0.0
 11
207.43820131944369
 21
117.9504023280043
 31
0.0
  0
LINE
  5
73
  8
0
 10
195.7769025277052
 20
108.4504023280043
 30
0.0
 11
207.43820131944369
 21
108.4504023280043
 31
0.0
  0
LINE
  5
74
  8
0
 10
195.05980365482779
 20
183.91515161531359
 30
0.0
 11
208.5132092176562
 21
183.91515161531359
 31
0.0
  0
ARC
  5
75
  8
0
 10
195.05980365482779
 20
184.91515161531359
 30
0.0
 40
1.0
 50
193.0610784927963
 51
270.0
  0
ARC
  5
76
  8
0
 10
189.26845757437621
 20
188.75626723856669
 30
0.0
 40
5.6697437450674348
 50
324.8260456691084
 51
32.21358235048892
  0
ARC
  5
77
  8
0
 10
187.1051132800315
 20
217.79787571487611
 30
0.0
 40
7.833088039412174
 50
335.87661315606869
 51
34.674147277808331
  0
ARC
  5
78
  8
0
 10
237.69374275008491
 20
202.82759482012321
 30
0.0
 40
45.005637762843897
 50
164.84104663565691
 51
194.2114291828394
  0
ARC
  5
79
  8
0
 10
209.72399743870119
 20
226.7049766891615
 30
0.0
 40
17.06961783992779
 50
172.4701067454848
 51
189.58022763929009
  0
ARC
  5
7A
  8
0
 10
196.83665464428361
 20
224.52982010148011
 30
0.0
 40
4.0
 50
189.58022763929009
 51
214.6741472778082
  0
ARC
  5
7B
  8
0
 10
205.9145740506259
 20
224.53122328887571
 30
0.0
 40
4.0
 50
325.32585272219183
 51
350.41977236070989
  0
ARC
  5
7C
  8
0
 10
193.0272312562083
 20
226.70637987655709
 30
0.0
 40
17.06961783992779
 50
350.41977236071
 51
7.5298932545151454
  0
ARC
  5
7D
  8
0
 10
165.05748594482461
 20
202.82899800751881
 30
0.0
 40
45.005637762843897
 50
345.78857081716058
 51
15.15895336434304
  0
ARC
  5
7E
  8
0
 10
215.64611541487801
 20
217.79927890227171
 30
0.0
 40
7.833088039412174
 50
145.3258527221916
 51
204.1233868439312
  0
ARC
  5
7F
  8
0
 10
213.4827711205333
 20
188.75767042596229
 30
0.0
 40
5.6697437450674348
 50
147.78641764951101
 51
215.1739543308916
  0
LINE
  5
80
  8
0
 10
195.77690252770529
 20
235.23446004519991
 30
0.0
 11
207.43820131944369
 21
235.23446004519991
 31
0.0
  0
LINE
  5
81
  8
0
 10
195.77690252770529
 20
225.63096375428819
 30
0.0
 11
207.43820131944369
 21
225.63096375428819
 31
0.0
  0
LINE
  5
82
  8
0
 10
195.77690252770529
 20
209.9647876754639
 30
0.0
 11
207.43820131944369
 21
209.9647876754639
 31
0.0
  0
LINE
  5
83
  8
0
 10
195.77690252770529
 20
194.42601098363409
 30
0.0
 11
207.43820131944369
 21
194.42601098363409
 31
0.0
  0
LINE
  5
89
  8
0
 10
195.77690252770529
 20
65.573989016365772
 30
0.0
 11
207.43820131944369
 21
65.573989016365772
 31
0.0
  0
LINE
  5
8A
  8
0
 10
195.77690252770529
 20
50.035212324536033
 30
0.0
 11
207.43820131944369
 21
50.035212324536033
 31
0.0
  0
LINE
  5
8B
  8
0
 10
195.77690252770529
 20
34.369036245711712
 30
0.0
 11
207.43820131944369
 21
34.369036245711712
 31
0.0
  0
LINE
  5
8C
  8
0
 10
195.77690252770529
 20
24.765539954800101
 30
0.0
 11
207.43820131944369
 21
24.765539954800101
 31
0.0
  0
ARC
  5
8D
  8
0
 10
213.4827711205333
 20
71.242329574037626
 30
0.0
 40
5.6697437450674348
 50
144.8260456691084
 51
212.21358235048899
  0
ARC
  5
8E
  8
0
 10
215.64611541487801
 20
42.20072109772827
 30
0.0
 40
7.833088039412174
 50
155.8766131560688
 51
214.6741472778084
  0
ARC
  5
8F
  8
0
 10
165.05748594482461
 20
57.171001992481152
 30
0.0
 40
45.005637762843897
 50
344.84104663565699
 51
14.211429182839391
  0
ARC
  5
90
  8
0
 10
193.0272312562083
 20
33.293620123442857
 30
0.0
 40
17.06961783992779
 50
352.47010674548488
 51
9.5802276392900225
  0
ARC
  5
91
  8
0
 10
205.9145740506259
 20
35.468776711124249
 30
0.0
 40
4.0
 50
9.5802276392901238
 51
34.674147277808267
  0
ARC
  5
92
  8
0
 10
196.83665464428361
 20
35.470179898519874
 30
0.0
 40
4.0
 50
145.3258527221918
 51
170.41977236071
  0
ARC
  5
93
  8
0
 10
209.72399743870119
 20
33.295023310838431
 30
0.0
 40
17.06961783992779
 50
170.41977236071
 51
187.5298932545152
  0
ARC
  5
94
  8
0
 10
237.69374275008491
 20
57.172405179876712
 30
0.0
 40
45.005637762843897
 50
165.7885708171606
 51
195.15895336434309
  0
ARC
  5
95
  8
0
 10
187.1051132800315
 20
42.20212428512383
 30
0.0
 40
7.833088039412174
 50
325.32585272219171
 51
24.1233868439313
  0
ARC
  5
96
  8
0
 10
189.26845757437621
 20
71.24373276143325
 30
0.0
 40
5.6697437450674348
 50
327.78641764951112
 51
35.173954330891632
  0
ARC
  5
97
  8
0
 10
195.05980365482779
 20
75.084848384686325
 30
0.0
 40
1.0
 50
90.000000000000057
 51
166.9389215072037
  0
LINE
  5
98
  8
0
 10
195.05980365482779
 20
76.084848384686325
 30
0.0
 11
208.5132092176562
 21
76.084848384686325
 31
0.0
  0
LINE
  5
99
  8
0
 10
196.04343943161271
 20
19.99999999999995
 30
0.0
 11
207.68101805188829
 21
19.99999999999995
 31
0.0
  0
LINE
  5
9A
  8
0
 10
228.68820131944369
 20
42.49999999999995
 30
0.0
 11
228.68820131944369
 21
57.49999999999995
 31
0.0
  0
LINE
  5
9B
  8
1
 10
186.18820131944361
 20
49.99999999999995
 30
0.0
 11
263.68820131944369
 21
49.99999999999995
 31
0.0
  0
ARC
  5
9C
  8
0
 10
303.18820131944369
 20
50.0
 30
0.0
 40
112.0
 50
166.93892150720521
 51
195.14491408681059
  0
LINE
  5
9D
  8
0
 10
228.38820131944371
 20
37.74999999999995
 30
0.0
 11
228.3882013194436
 21
62.250000000000007
 31
0.0
  0
LINE
  5
9E
  8
0
 10
228.38820131944371
 20
42.49999999999995
 30
0.0
 11
228.68820131944369
 21
42.49999999999995
 31
0.0
  0
LINE
  5
9F
  8
0
 10
211.18820131944369
 20
36.49999999999995
 30
0.0
 11
211.18820131944369
 21
63.49999999999995
 31
0.0
  0
LINE
  5
A0
  8
0
 10
211.99798535263869
 20
63.49999999999995
 30
0.0
 11
227.13820131944371
 21
63.49999999999995
 31
0.0
  0
LINE
  5
A1
  8
0
 10
211.99798535263869
 20
36.49999999999995
 30
0.0
 11
227.13820131944371
 21
36.49999999999995
 31
0.0
  0
LINE
  5
A2
  8
0
 10
227.13820131944371
 20
63.49999999999995
 30
0.0
 11
228.38820131944371
 21
62.24999999999995
 31
0.0
  0
LINE
  5
A3
  8
0
 10
227.13820131944371
 20
36.49999999999995
 30
0.0
 11
228.38820131944371
 21
37.74999999999995
 31
0.0
  0
LINE
  5
A4
  8
0
 10
211.0198377519049
 20
35.70791169081771
 30
0.0
 11
207.68101805188829
 21
19.99999999999995
 31
0.0
  0
LINE
  5
A5
  8
0
 10
211.0198377519049
 20
64.292088309182134
 30
0.0
 11
208.5132092176562
 21
76.084848384686325
 31
0.0
  0
ARC
  5
A6
  8
0
 10
196.04343943161271
 20
20.99999999999995
 30
0.0
 40
1.0
 50
195.14491408681079
 51
270.00000000000011
  0
ARC
  5
A7
  8
0
 10
211.99798535263869
 20
64.499999999999943
 30
0.0
 40
1.0
 50
192.00000000000011
 51
270.00000000000011
  0
ARC
  5
A8
  8
0
 10
211.99798535263869
 20
35.49999999999995
 30
0.0
 40
1.0
 50
90.000000000000057
 51
168.00000000000011
  0
LINE
  5
A9
  8
0
 10
227.13820131944371
 20
36.49999999999995
 30
0.0
 11
227.13820131944371
 21
63.49999999999995
 31
0.0
  0
LINE
  5
AA
  8
0
 10
228.38820131944371
 20
57.49999999999995
 30
0.0
 11
228.68820131944369
 21
57.49999999999995
 31
0.0
  0
LINE
  5
AB
  8
0
 10
258.68820131944381
 20
53.999999999999908
 30
0.0
 11
258.68820131944369
 21
45.999999999999901
 31
0.0
  0
LINE
  5
AC
  8
0
 10
228.68820131944361
 20
43.999999999999943
 30
0.0
 11
256.68820131944369
 21
43.999999999999901
 31
0.0
  0
LINE
  5
AD
  8
3
 10
232.18820131944369
 20
44.946999999999861
 30
0.0
 11
257.63520131944369
 21
44.94699999999991
 31
0.0
  0
LINE
  5
AE
  8
3
 10
232.18820131944369
 20
55.052999999999948
 30
0.0
 11
257.63520131944381
 21
55.052999999999962
 31
0.0
  0
LINE
  5
AF
  8
0
 10
228.68820131944361
 20
55.999999999999943
 30
0.0
 11
256.68820131944381
 21
55.999999999999901
 31
0.0
  0
LINE
  5
B0
  8
0
 10
258.68820131944381
 20
53.999999999999908
 30
0.0
 11
256.68820131944381
 21
55.999999999999901
 31
0.0
  0
LINE
  5
B1
  8
0
 10
258.68820131944369
 20
45.999999999999901
 30
0.0
 11
256.68820131944369
 21
43.999999999999901
 31
0.0
  0
LINE
  5
B2
  8
0
 10
256.68820131944381
 20
55.999999999999943
 30
0.0
 11
256.68820131944369
 21
43.999999999999901
 31
0.0
  0
LINE
  5
B7
  8
0
 10
256.68820131944381
 20
135.99999999999989
 30
0.0
 11
256.68820131944369
 21
123.9999999999999
 31
0.0
  0
LINE
  5
B8
  8
0
 10
258.68820131944369
 20
125.9999999999999
 30
0.0
 11
256.68820131944369
 21
123.9999999999999
 31
0.0
  0
LINE
  5
B9
  8
0
 10
258.68820131944381
 20
133.99999999999989
 30
0.0
 11
256.68820131944381
 21
135.99999999999989
 31
0.0
  0
LINE
  5
BA
  8
0
 10
228.68820131944361
 20
135.99999999999989
 30
0.0
 11
256.68820131944381
 21
135.99999999999989
 31
0.0
  0
LINE
  5
BB
  8
3
 10
232.18820131944369
 20
135.053
 30
0.0
 11
257.63520131944381
 21
135.053
 31
0.0
  0
LINE
  5
BC
  8
3
 10
232.18820131944369
 20
124.9469999999999
 30
0.0
 11
257.63520131944369
 21
124.9469999999999
 31
0.0
  0
LINE
  5
BD
  8
0
 10
228.68820131944361
 20
123.9999999999999
 30
0.0
 11
256.68820131944369
 21
123.9999999999999
 31
0.0
  0
LINE
  5
BE
  8
0
 10
258.68820131944381
 20
133.99999999999989
 30
0.0
 11
258.68820131944369
 21
125.9999999999999
 31
0.0
  0
LINE
  5
BF
  8
0
 10
256.68820131944381
 20
216.0
 30
0.0
 11
256.68820131944369
 21
204.0
 31
0.0
  0
LINE
  5
C0
  8
0
 10
258.68820131944369
 20
206.0
 30
0.0
 11
256.68820131944369
 21
204.0
 31
0.0
  0
LINE
  5
C1
  8
0
 10
258.68820131944381
 20
214.0
 30
0.0
 11
256.68820131944381
 21
216.0
 31
0.0
  0
LINE
  5
C2
  8
0
 10
228.68820131944361
 20
216.0
 30
0.0
 11
256.68820131944381
 21
216.0
 31
0.0
  0
LINE
  5
C3
  8
3
 10
232.18820131944369
 20
215.053
 30
0.0
 11
257.63520131944381
 21
215.053
 31
0.0
  0
LINE
  5
C4
  8
3
 10
232.18820131944369
 20
204.94699999999989
 30
0.0
 11
257.63520131944369
 21
204.947
 31
0.0
  0
LINE
  5
C5
  8
0
 10
228.68820131944361
 20
204.0
 30
0.0
 11
256.68820131944369
 21
204.0
 31
0.0
  0
LINE
  5
C6
  8
0
 10
258.68820131944381
 20
214.0
 30
0.0
 11
258.68820131944369
 21
206.0
 31
0.0
  0
LINE
  5
C7
  8
0
 10
232.18820131944369
 20
216.0
 30
0.0
 11
232.18820131944369
 21
204.0
 31
0.0
  0
LINE
  5
C8
  8
3
 10
232.18820131944369
 20
215.05300000000011
 30
0.0
 11
230.54794920467609
 21
216.0
 31
0.0
  0
LINE
  5
C9
  8
3
 10
232.18820131944369
 20
204.94699999999989
 30
0.0
 11
230.54794920467609
 21
204.0
 31
0.0
  0
LINE
  5
CA
  8
3
 10
232.18820131944369
 20
44.946999999999889
 30
0.0
 11
230.547949204676
 21
43.999999999999943
 31
0.0
  0
LINE
  5
CB
  8
3
 10
232.18820131944369
 20
55.052999999999997
 30
0.0
 11
230.547949204676
 21
55.999999999999943
 31
0.0
  0
LINE
  5
CC
  8
0
 10
232.18820131944369
 20
55.999999999999943
 30
0.0
 11
232.18820131944369
 21
43.999999999999943
 31
0.0
  0
LINE
  5
CD
  8
3
 10
232.18820131944361
 20
124.9469999999999
 30
0.0
 11
230.547949204676
 21
123.9999999999999
 31
0.0
  0
LINE
  5
CE
  8
3
 10
232.18820131944361
 20
135.053
 30
0.0
 11
230.547949204676
 21
135.99999999999989
 31
0.0
  0
LINE
  5
CF
  8
0
 10
232.18820131944361
 20
135.99999999999989
 30
0.0
 11
232.18820131944361
 21
123.9999999999999
 31
0.0
  0
TEXT
  5
21C
  8
0
 62
     3
 10
0.0
 20
0.0
 30
0.0
 40
10.0
  1
BTK60X30-SUS
  7
STANDARD1
  0
ENDSEC
  0
EOF
