  0
SECTION
  2
HEADER
  9
$ACADVER
  1
AC1009
  9
$INSBASE
 10
0.0
 20
0.0
 30
0.0
  9
$EXTMIN
 10
0.0
 20
-2.960436562073669
 30
0.0
  9
$EXTMAX
 10
298.99665858405069
 20
234.9999999999994
 30
0.0
  9
$LIMMIN
 10
0.0
 20
0.0
  9
$LIMMAX
 10
375.0
 20
270.0
  9
$ORTHOMODE
 70
     1
  9
$REGENMODE
 70
     1
  9
$FILLMODE
 70
     1
  9
$QTEXTMODE
 70
     0
  9
$MIRRTEXT
 70
     0
  9
$DRAGMODE
 70
     2
  9
$LTSCALE
 40
10.0
  9
$OSMODE
 70
  3071
  9
$ATTMODE
 70
     1
  9
$TEXTSIZE
 40
0.2
  9
$TRACEWID
 40
0.05
  9
$TEXTSTYLE
  7
STANDARD
  9
$CLAYER
  8
0
  9
$CELTYPE
  6
BYLAYER
  9
$CECOLOR
 62
   256
  9
$DIMSCALE
 40
1.0
  9
$DIMASZ
 40
3.0
  9
$DIMEXO
 40
2.0
  9
$DIMDLI
 40
0.38
  9
$DIMRND
 40
0.0
  9
$DIMDLE
 40
0.0
  9
$DIMEXE
 40
2.0
  9
$DIMTP
 40
0.0
  9
$DIMTM
 40
0.0
  9
$DIMTXT
 40
3.2000000000000002
  9
$DIMCEN
 40
0.0
  9
$DIMTSZ
 40
0.0
  9
$DIMTOL
 70
     0
  9
$DIMLIM
 70
     0
  9
$DIMTIH
 70
     0
  9
$DIMTOH
 70
     0
  9
$DIMSE1
 70
     0
  9
$DIMSE2
 70
     0
  9
$DIMTAD
 70
     1
  9
$DIMZIN
 70
     0
  9
$DIMBLK
  1

  9
$DIMASO
 70
     1
  9
$DIMSHO
 70
     0
  9
$DIMPOST
  1

  9
$DIMAPOST
  1

  9
$DIMALT
 70
     0
  9
$DIMALTD
 70
     2
  9
$DIMALTF
 40
25.399999999999999
  9
$DIMLFAC
 40
1.0
  9
$DIMTOFL
 70
     1
  9
$DIMTVP
 40
1.6000000000000001
  9
$DIMTIX
 70
     1
  9
$DIMSOXD
 70
     0
  9
$DIMSAH
 70
     0
  9
$DIMBLK1
  1

  9
$DIMBLK2
  1

  9
$DIMSTYLE
  2
STANDARD
  9
$DIMCLRD
 70
     0
  9
$DIMCLRE
 70
     0
  9
$DIMCLRT
 70
     0
  9
$DIMTFAC
 40
1.0
  9
$DIMGAP
 40
0.09
  9
$LUNITS
 70
     2
  9
$LUPREC
 70
     4
  9
$SKETCHINC
 40
0.1
  9
$FILLETRAD
 40
1.1999999999999991
  9
$AUNITS
 70
     0
  9
$AUPREC
 70
     4
  9
$MENU
  1
E:\r13\win\SUPPORT\ACAD
  9
$ELEVATION
 40
0.0
  9
$PELEVATION
 40
0.0
  9
$THICKNESS
 40
0.0
  9
$LIMCHECK
 70
     0
  9
$BLIPMODE
 70
     0
  9
$CHAMFERA
 40
0.0
  9
$CHAMFERB
 40
0.0
  9
$SKPOLY
 70
     0
  9
$TDCREATE
 40
2449839.7893171301
  9
$TDUPDATE
 40
2456598.4695673729
  9
$TDINDWG
 40
0.0001548264
  9
$TDUSRTIMER
 40
0.0001548264
  9
$USRTIMER
 70
     1
  9
$ANGBASE
 50
0.0
  9
$ANGDIR
 70
     0
  9
$PDMODE
 70
     0
  9
$PDSIZE
 40
0.0
  9
$PLINEWID
 40
0.0
  9
$COORDS
 70
     1
  9
$SPLFRAME
 70
     0
  9
$SPLINETYPE
 70
     6
  9
$SPLINESEGS
 70
     8
  9
$ATTDIA
 70
     0
  9
$ATTREQ
 70
     1
  9
$HANDLING
 70
     1
  9
$HANDSEED
  5
2AB
  9
$SURFTAB1
 70
     6
  9
$SURFTAB2
 70
     6
  9
$SURFTYPE
 70
     6
  9
$SURFU
 70
     6
  9
$SURFV
 70
     6
  9
$UCSNAME
  2

  9
$UCSORG
 10
0.0
 20
0.0
 30
0.0
  9
$UCSXDIR
 10
1.0
 20
0.0
 30
0.0
  9
$UCSYDIR
 10
0.0
 20
1.0
 30
0.0
  9
$PUCSNAME
  2

  9
$PUCSORG
 10
0.0
 20
0.0
 30
0.0
  9
$PUCSXDIR
 10
1.0
 20
0.0
 30
0.0
  9
$PUCSYDIR
 10
0.0
 20
1.0
 30
0.0
  9
$USERI1
 70
     0
  9
$USERI2
 70
     1
  9
$USERI3
 70
     1
  9
$USERI4
 70
     0
  9
$USERI5
 70
     0
  9
$USERR1
 40
0.0
  9
$USERR2
 40
0.0
  9
$USERR3
 40
0.0
  9
$USERR4
 40
0.0
  9
$USERR5
 40
0.0
  9
$WORLDVIEW
 70
     1
  9
$SHADEDGE
 70
     3
  9
$SHADEDIF
 70
    70
  9
$TILEMODE
 70
     1
  9
$MAXACTVP
 70
    16
  9
$PLIMCHECK
 70
     0
  9
$PEXTMIN
 10
1.0000000000000000E+020
 20
1.0000000000000000E+020
 30
1.0000000000000000E+020
  9
$PEXTMAX
 10
-1.0000000000000000E+020
 20
-1.0000000000000000E+020
 30
-1.0000000000000000E+020
  9
$PLIMMIN
 10
0.0
 20
0.0
  9
$PLIMMAX
 10
12.0
 20
9.0
  9
$UNITMODE
 70
     0
  9
$VISRETAIN
 70
     0
  9
$PLINEGEN
 70
     0
  9
$PSLTSCALE
 70
     0
  0
ENDSEC
  0
SECTION
  2
TABLES
  0
TABLE
  2
VPORT
 70
     1
  0
VPORT
  2
*ACTIVE
 70
     0
 10
0.0
 20
0.0
 11
1.0
 21
1.0
 12
195.0581083320873
 22
133.5127261426681
 13
0.0
 23
0.0
 14
10.0
 24
10.0
 15
10.0
 25
10.0
 16
0.0
 26
0.0
 36
1.0
 17
0.0
 27
0.0
 37
0.0
 40
275.42274993631997
 41
1.831871345029239
 42
50.0
 43
0.0
 44
0.0
 50
0.0
 51
0.0
 71
     0
 72
   500
 73
     1
 74
     0
 75
     0
 76
     0
 77
     0
 78
     2
  0
ENDTAB
  0
TABLE
  2
LTYPE
 70
     3
  0
LTYPE
  2
CONTINUOUS
 70
     0
  3
Solid Line
 72
    65
 73
     0
 40
0.0
  0
LTYPE
  2
CENTER
 70
     0
  3
____ _ ____ _ ____ _ ____ _ ____ _ ____ _ ____
 72
    65
 73
     4
 40
2.0
 49
1.25
 49
-0.25
 49
0.25
 49
-0.25
  0
LTYPE
  2
PHANTOM2
 70
     0
  3
___ _ _ ___ _ _ ___ _ _ ___ _ _
 72
    65
 73
     6
 40
1.25
 49
0.625
 49
-0.125
 49
0.125
 49
-0.125
 49
0.125
 49
-0.125
  0
ENDTAB
  0
TABLE
  2
LAYER
 70
     3
  0
LAYER
  2
0
 70
     0
 62
     7
  6
CONTINUOUS
  0
LAYER
  2
1
 70
     0
 62
     1
  6
CENTER
  0
LAYER
  2
3
 70
     0
 62
     3
  6
CONTINUOUS
  0
ENDTAB
  0
TABLE
  2
STYLE
 70
     2
  0
STYLE
  2
STANDARD
 70
     0
 40
0.0
 41
1.0
 50
0.0
 71
     0
 42
0.2
  3
TXT
  4
BIGFONT
  0
STYLE
  2
STANDARD1
 70
     0
 40
0.0
 41
1.0
 50
0.0
 71
     0
 42
3.0
  3
txt
  4

  0
ENDTAB
  0
TABLE
  2
VIEW
 70
     1
  0
VIEW
  2
ALL
 70
     0
 40
270.0
 10
220.99159663865549
 20
135.0
 41
0.0
 11
0.0
 21
0.0
 31
1.0
 12
0.0
 22
0.0
 32
0.0
 42
0.0
 43
0.0
 44
0.0
 50
0.0
 71
     0
  0
ENDTAB
  0
TABLE
  2
UCS
 70
     0
  0
ENDTAB
  0
TABLE
  2
APPID
 70
     3
  0
APPID
  2
ACAD
 70
     0
  0
APPID
  2
ACAD_MLEADERVER
 70
     0
  0
APPID
  2
ACAD_NAV_VCDISPLAY
 70
     0
  0
ENDTAB
  0
TABLE
  2
DIMSTYLE
 70
     1
  0
DIMSTYLE
  2
STANDARD
 70
     0
  3

  4

  5

  6

  7

 40
1.0
 41
0.18
 42
0.0625
 43
0.38
 44
0.18
 45
0.0
 46
0.0
 47
0.0
 48
0.0
140
0.18
141
0.09
142
0.0
143
25.399999999999999
144
1.0
145
0.0
146
1.0
147
0.09
 71
     0
 72
     0
 73
     1
 74
     1
 75
     0
 76
     0
 77
     0
 78
     0
170
     0
171
     2
172
     0
173
     0
174
     0
175
     0
176
     0
177
     0
178
     0
  0
ENDTAB
  0
ENDSEC
  0
SECTION
  2
BLOCKS
  0
BLOCK
  8
0
  2
$MODEL_SPACE
 70
     0
 10
0.0
 20
0.0
 30
0.0
  3
$MODEL_SPACE
  1

  0
ENDBLK
  5
12C
  8
0
  0
BLOCK
 67
     1
  8
0
  2
$PAPER_SPACE
 70
     0
 10
0.0
 20
0.0
 30
0.0
  3
$PAPER_SPACE
  1

  0
ENDBLK
  5
12A
 67
     1
  8
0
  0
ENDSEC
  0
SECTION
  2
ENTITIES
  0
LINE
  5
34
  8
1
 10
180.0000000000004
 20
234.9999999999994
 30
0.0
 11
180.0000000000004
 21
164.9999999999994
 31
0.0
  0
LINE
  5
35
  8
1
 10
145.0000000000004
 20
199.9999999999994
 30
0.0
 11
215.0000000000004
 21
199.9999999999994
 31
0.0
  0
ARC
  5
36
  8
0
 10
196.58484838468669
 20
212.04959767199551
 30
0.0
 40
9.4999999999999645
 50
333.64205042154782
 51
98.357949578474106
  0
ARC
  5
37
  8
0
 10
173.6651516153141
 20
219.49665858405001
 30
0.0
 40
9.5000000000000711
 50
45.642050421543857
 51
170.3579495783687
  0
ARC
  5
38
  8
0
 10
159.5000000000004
 20
199.9999999999994
 30
0.0
 40
9.5
 50
117.64205042163501
 51
242.35794957837049
  0
ARC
  5
39
  8
0
 10
173.6651516153139
 20
180.5033414159488
 30
0.0
 40
9.5000000000000568
 50
189.6420504216467
 51
314.3579495784266
  0
ARC
  5
3A
  8
0
 10
196.58484838468689
 20
187.9504023280038
 30
0.0
 40
9.5000000000000338
 50
261.64205042156499
 51
26.3579495784955
  0
ARC
  5
3B
  8
0
 10
144.80776074468989
 20
225.5686584747223
 30
0.0
 40
20.0
 50
300.94649968890531
 51
347.05350031109282
  0
ARC
  5
3C
  8
0
 10
193.44223925531051
 20
241.3709584588384
 30
0.0
 40
20.0
 50
228.94649968894859
 51
275.05350031104467
  0
ARC
  5
3D
  8
0
 10
223.4999999999998
 20
199.9999999999994
 30
0.0
 40
20.0
 50
156.94649968894379
 51
203.05350031103461
  0
ARC
  5
3E
  8
0
 10
193.4422392553106
 20
158.6290415411604
 30
0.0
 40
20.0
 50
84.946499688937266
 51
131.05350031106661
  0
ARC
  5
3F
  8
0
 10
144.80776074468949
 20
174.43134152527679
 30
0.0
 40
20.0
 50
12.94649968889885
 51
59.053500311090801
  0
ARC
  5
40
  8
0
 10
75.5
 20
116.190215966805
 30
0.0
 40
1.0
 50
359.99999999999989
 51
77.999999999999986
  0
ARC
  5
41
  8
0
 10
104.4999999999999
 20
116.190215966805
 30
0.0
 40
1.0
 50
102.0
 51
179.9999999999998
  0
ARC
  5
42
  8
0
 10
117.7966585840507
 20
132.25663509341371
 30
0.0
 40
1.1999999999999991
 50
0.0
 51
75.470859464057355
  0
ARC
  5
43
  8
0
 10
62.20334141594936
 20
132.25663509341379
 30
0.0
 40
1.1999999999999991
 50
104.5291405359425
 51
180.0
  0
LINE
  5
44
  8
0
 10
75.707911690817767
 20
117.1683635675388
 30
0.0
 11
61.003341415949357
 21
120.293916466
 31
0.0
  0
LINE
  5
45
  8
0
 10
104.2920883091822
 20
117.1683635675388
 30
0.0
 11
118.99665858405071
 21
120.293916466
 31
0.0
  0
LINE
  5
46
  8
0
 10
76.499999999999972
 20
101.55
 30
0.0
 11
103.4999999999999
 21
101.5499999999999
 31
0.0
  0
LINE
  5
47
  8
0
 10
102.2499999999999
 20
100.3
 30
0.0
 11
103.4999999999999
 21
101.55
 31
0.0
  0
LINE
  5
48
  8
0
 10
77.749999999999986
 20
100.3
 30
0.0
 11
76.499999999999986
 21
101.55
 31
0.0
  0
LINE
  5
49
  8
0
 10
103.4999999999999
 20
116.190215966805
 30
0.0
 11
103.4999999999999
 21
101.55
 31
0.0
  0
LINE
  5
4A
  8
0
 10
76.5
 20
116.190215966805
 30
0.0
 11
76.499999999999986
 21
101.55
 31
0.0
  0
LINE
  5
4B
  8
0
 10
102.2499999999999
 20
100.3
 30
0.0
 11
77.749999999999986
 21
100.3
 31
0.0
  0
ARC
  5
4C
  8
0
 10
89.999999999999986
 20
25.0
 30
0.0
 40
112.0
 50
75.470859464056574
 51
104.5291405359433
  0
LINE
  5
4D
  8
0
 10
103.5
 20
117.0
 30
0.0
 11
76.5
 21
117.0
 31
0.0
  0
LINE
  5
4E
  8
0
 10
118.99665858405071
 20
132.25663509341371
 30
0.0
 11
118.99665858405071
 21
120.293916466
 31
0.0
  0
LINE
  5
4F
  8
0
 10
61.003341415949379
 20
132.25663509341379
 30
0.0
 11
61.003341415949357
 21
120.293916466
 31
0.0
  0
LINE
  5
50
  8
1
 10
90.0
 20
142.0
 30
0.0
 11
90.0
 21
54.999999999999957
 31
0.0
  0
LINE
  5
51
  8
1
 10
180.0
 20
142.0
 30
0.0
 11
180.0
 21
54.999999999999957
 31
0.0
  0
LINE
  5
52
  8
0
 10
193.5
 20
117.0
 30
0.0
 11
166.5
 21
117.0
 31
0.0
  0
ARC
  5
53
  8
0
 10
180.0
 20
25.0
 30
0.0
 40
112.0
 50
77.02108346449846
 51
105.065777968384
  0
LINE
  5
54
  8
0
 10
192.24999999999989
 20
100.3
 30
0.0
 11
167.75
 21
100.3
 31
0.0
  0
LINE
  5
55
  8
0
 10
166.5
 20
116.190215966805
 30
0.0
 11
166.5
 21
101.55
 31
0.0
  0
LINE
  5
56
  8
0
 10
193.5
 20
116.190215966805
 30
0.0
 11
193.5
 21
101.55
 31
0.0
  0
LINE
  5
57
  8
0
 10
167.75
 20
100.3
 30
0.0
 11
166.5
 21
101.55
 31
0.0
  0
LINE
  5
58
  8
0
 10
192.24999999999989
 20
100.3
 30
0.0
 11
193.5
 21
101.55
 31
0.0
  0
LINE
  5
59
  8
0
 10
166.5
 20
101.55
 30
0.0
 11
193.49999999999989
 21
101.5499999999999
 31
0.0
  0
LINE
  5
5A
  8
0
 10
194.29208830918219
 20
117.1683635675388
 30
0.0
 11
206.08484838468701
 21
119.67499210178759
 31
0.0
  0
LINE
  5
5B
  8
0
 10
165.7079116908177
 20
117.1683635675388
 30
0.0
 11
150.0000000000004
 21
120.50718326755521
 31
0.0
  0
ARC
  5
5C
  8
0
 10
194.5
 20
116.190215966805
 30
0.0
 40
1.0
 50
102.0
 51
179.9999999999998
  0
ARC
  5
5D
  8
0
 10
165.5
 20
116.190215966805
 30
0.0
 40
1.0
 50
359.99999999999989
 51
77.999999999999986
  0
LINE
  5
5E
  8
1
 10
270.0
 20
142.0
 30
0.0
 11
269.99999999999989
 21
54.999999999999957
 31
0.0
  0
LINE
  5
5F
  8
0
 10
241.00334141594939
 20
132.25663509341379
 30
0.0
 11
241.00334141594939
 21
120.293916466
 31
0.0
  0
LINE
  5
60
  8
0
 10
298.99665858405069
 20
132.25663509341371
 30
0.0
 11
298.99665858405069
 21
120.293916466
 31
0.0
  0
LINE
  5
61
  8
0
 10
283.5
 20
117.0
 30
0.0
 11
256.5
 21
117.0
 31
0.0
  0
ARC
  5
62
  8
0
 10
270.0
 20
25.0
 30
0.0
 40
112.0
 50
75.470859464056574
 51
104.5291405359433
  0
LINE
  5
63
  8
0
 10
282.25
 20
100.3
 30
0.0
 11
257.75
 21
100.3
 31
0.0
  0
LINE
  5
64
  8
0
 10
256.5
 20
116.190215966805
 30
0.0
 11
256.5
 21
101.55
 31
0.0
  0
LINE
  5
65
  8
0
 10
283.5
 20
116.190215966805
 30
0.0
 11
283.5
 21
101.55
 31
0.0
  0
LINE
  5
66
  8
0
 10
257.75
 20
100.3
 30
0.0
 11
256.5
 21
101.55
 31
0.0
  0
LINE
  5
67
  8
0
 10
282.25
 20
100.3
 30
0.0
 11
283.5
 21
101.55
 31
0.0
  0
LINE
  5
68
  8
0
 10
256.5
 20
101.55
 30
0.0
 11
283.49999999999989
 21
101.5499999999999
 31
0.0
  0
LINE
  5
69
  8
0
 10
284.29208830918219
 20
117.1683635675388
 30
0.0
 11
298.99665858405069
 21
120.293916466
 31
0.0
  0
LINE
  5
6A
  8
0
 10
255.70791169081781
 20
117.1683635675388
 30
0.0
 11
241.00334141594939
 21
120.293916466
 31
0.0
  0
ARC
  5
6B
  8
0
 10
242.20334141594941
 20
132.25663509341379
 30
0.0
 40
1.1999999999999991
 50
104.5291405359425
 51
180.0
  0
ARC
  5
6C
  8
0
 10
297.7966585840507
 20
132.25663509341371
 30
0.0
 40
1.1999999999999991
 50
0.0
 51
75.470859464057355
  0
ARC
  5
6D
  8
0
 10
284.5
 20
116.190215966805
 30
0.0
 40
1.0
 50
102.0
 51
179.9999999999998
  0
ARC
  5
6E
  8
0
 10
255.5
 20
116.190215966805
 30
0.0
 40
1.0
 50
359.99999999999989
 51
77.999999999999986
  0
ARC
  5
6F
  8
0
 10
270.0
 20
183.0
 30
0.0
 40
64.5
 50
256.0694463097584
 51
283.93055543447372
  0
ARC
  5
70
  8
0
 10
270.0
 20
71.0
 30
0.0
 40
64.5
 50
76.069444565526283
 51
103.9305536902416
  0
ARC
  5
71
  8
0
 10
288.41704373671303
 20
145.25
 30
0.0
 40
12.0
 50
256.0694034293677
 51
284.2888991391157
  0
ARC
  5
72
  8
0
 10
294.34050686873007
 20
121.9924725191254
 30
0.0
 40
12.0
 50
75.912404716652617
 51
104.28886357220991
  0
ARC
  5
73
  8
0
 10
251.582956263287
 20
145.25
 30
0.0
 40
12.0
 50
255.7111008608843
 51
283.93059657063242
  0
ARC
  5
74
  8
0
 10
245.65949313126981
 20
121.9924725191254
 30
0.0
 40
12.0
 50
75.711136427790095
 51
104.0875952833474
  0
ARC
  5
75
  8
0
 10
288.41704373671303
 20
108.75
 30
0.0
 40
12.0
 50
73.502097278731767
 51
103.9305965706326
  0
ARC
  5
76
  8
0
 10
295.23257227538147
 20
131.76192236078049
 30
0.0
 40
12.0
 50
253.50208433514919
 51
281.99998740231092
  0
ARC
  5
77
  8
0
 10
251.582956263287
 20
108.75
 30
0.0
 40
12.0
 50
76.069403429367441
 51
106.4979027212682
  0
ARC
  5
78
  8
0
 10
244.7674277246185
 20
131.76192236078049
 30
0.0
 40
12.0
 50
258.00001259768919
 51
286.49791566485078
  0
LINE
  5
79
  8
0
 10
248.45040232800429
 20
132.63306273921651
 30
0.0
 11
248.45040232800429
 21
121.3669372607833
 31
0.0
  0
LINE
  5
7A
  8
0
 10
257.95040232800437
 20
133.34626850055281
 30
0.0
 11
257.95040232800437
 21
120.65373149944701
 31
0.0
  0
LINE
  5
7B
  8
0
 10
282.04959767199608
 20
133.34626850055281
 30
0.0
 11
282.04959767199608
 21
120.6537314994471
 31
0.0
  0
LINE
  5
7C
  8
0
 10
291.54959767199603
 20
132.633062739217
 30
0.0
 11
291.54959767199603
 21
121.3669372607836
 31
0.0
  0
LINE
  5
7D
  8
0
 10
150.0000000000004
 20
131.9915884544202
 30
0.0
 11
150.0000000000004
 21
120.50718326755521
 31
0.0
  0
LINE
  5
7E
  8
0
 10
206.08484838468701
 20
132.96936751167499
 30
0.0
 11
206.08484838468701
 21
119.67499210178759
 31
0.0
  0
ARC
  5
7F
  8
0
 10
151.20000000000039
 20
131.9915884544202
 30
0.0
 40
1.1999999999999991
 50
105.0657779683838
 51
180.0
  0
ARC
  5
80
  8
0
 10
204.88484838468699
 20
132.96936751167499
 30
0.0
 40
1.1999999999999991
 50
359.99999999999972
 51
77.02108346449738
  0
ARC
  5
81
  8
0
 10
187.7554637558666
 20
122.1002328931763
 30
0.0
 40
13.408853952604209
 50
75.922216372870793
 51
106.76306749602961
  0
ARC
  5
82
  8
0
 10
159.69593228862001
 20
128.15137167079089
 30
0.0
 40
6.8693163572406331
 50
74.158536694624303
 51
113.7107769698013
  0
ARC
  5
83
  8
0
 10
172.42276591468121
 20
173.0031342450838
 30
0.0
 40
39.753134245083857
 50
254.1585366946243
 51
286.76306955861628
  0
ARC
  5
84
  8
0
 10
151.2608716917178
 20
147.35715781269241
 30
0.0
 40
14.10715781269238
 50
269.99999971169672
 51
293.71078055126708
  0
ARC
  5
85
  8
0
 10
206.05157251976371
 20
195.05982785945099
 30
0.0
 40
61.80982785945104
 50
255.9222189238223
 51
270.00000007910347
  0
ARC
  5
86
  8
0
 10
151.2608716917178
 20
106.64284218730759
 30
0.0
 40
14.10715781269238
 50
66.289219448732894
 51
95.127833636233447
  0
ARC
  5
87
  8
0
 10
172.42276591468121
 20
80.996865754916143
 30
0.0
 40
39.753134245083857
 50
73.236930441383635
 51
105.8414633053757
  0
ARC
  5
88
  8
0
 10
159.69593228862001
 20
125.84862832920901
 30
0.0
 40
6.8693163572406331
 50
246.28922303019871
 51
285.84146330537573
  0
ARC
  5
89
  8
0
 10
187.7554637558666
 20
131.8997671068237
 30
0.0
 40
13.408853952604209
 50
253.23693250397039
 51
291.3885949104594
  0
ARC
  5
8A
  8
0
 10
199.7178564654831
 20
101.35747825678381
 30
0.0
 40
19.392521743216211
 50
70.833039433279367
 51
111.3886317963987
  0
LINE
  5
8B
  8
0
 10
155.09251004245999
 20
132.74398687936269
 30
0.0
 11
155.09251004245999
 21
121.25601312063741
 31
0.0
  0
LINE
  5
8C
  8
0
 10
164.29935453478001
 20
133.06783484279171
 30
0.0
 11
164.29935453478001
 21
120.9321651572083
 31
0.0
  0
LINE
  5
8D
  8
0
 10
180.30697009702109
 20
133.01992182775791
 30
0.0
 11
180.30697009702109
 21
120.9800781722421
 31
0.0
  0
LINE
  5
8E
  8
0
 10
195.20395741471211
 20
133.19381358451551
 30
0.0
 11
195.20395741471211
 21
121.244148626833
 31
0.0
  0
ARC
  5
8F
  8
0
 10
75.248231316182142
 20
125.6495838065357
 30
0.0
 40
9.8950529694075566
 50
72.316996746111911
 51
113.6968770077932
  0
ARC
  5
90
  8
0
 10
104.7517686838178
 20
125.6495838065357
 30
0.0
 40
9.8950529694075566
 50
66.303097942285973
 51
107.68299904287829
  0
ARC
  5
91
  8
0
 10
90.0
 20
171.92037567948211
 30
0.0
 40
38.670375679482142
 50
252.3169997096829
 51
287.68300200644933
  0
ARC
  5
92
  8
0
 10
64.310637735652193
 20
150.56977958617631
 30
0.0
 40
17.319779586176331
 50
262.00702951057542
 51
293.69691472211758
  0
ARC
  5
93
  8
0
 10
115.68936226434781
 20
150.56977958617631
 30
0.0
 40
17.319779586176331
 50
246.30308527788239
 51
277.99297048942469
  0
ARC
  5
94
  8
0
 10
64.310637735652193
 20
103.4302204138236
 30
0.0
 40
17.319779586176331
 50
66.303085277882388
 51
101.0085147609534
  0
ARC
  5
95
  8
0
 10
90.0
 20
82.079624320517837
 30
0.0
 40
38.670375679482142
 50
72.316997993550686
 51
107.6830002903171
  0
ARC
  5
96
  8
0
 10
75.248231316182142
 20
128.3504161934643
 30
0.0
 40
9.8950529694075566
 50
246.3031229922068
 51
287.6830032538881
  0
ARC
  5
97
  8
0
 10
115.68936226434781
 20
103.4302204138236
 30
0.0
 40
17.319779586176331
 50
78.991485239046312
 51
113.6969147221176
  0
ARC
  5
98
  8
0
 10
104.7517686838178
 20
128.3504161934643
 30
0.0
 40
9.8950529694075566
 50
252.31700095712171
 51
293.69690205771411
  0
LINE
  5
99
  8
0
 10
68.912164164272554
 20
132.83731561151129
 30
0.0
 11
68.912164164272554
 21
121.1626843884886
 31
0.0
  0
LINE
  5
9A
  8
0
 10
81.584298468091674
 20
133.15293219558589
 30
0.0
 11
81.584298468091674
 21
120.847067804414
 31
0.0
  0
LINE
  5
9B
  8
0
 10
98.41570153190986
 20
133.15293219558629
 30
0.0
 11
98.41570153190986
 21
120.8470678044137
 31
0.0
  0
LINE
  5
9C
  8
0
 10
111.087835835731
 20
132.83731561151041
 30
0.0
 11
111.087835835731
 21
121.1626843884895
 31
0.0
  0
LINE
  5
A4
  8
0
 10
277.0
 20
100.2999999999999
 30
0.0
 11
277.0
 21
99.999999999999957
 31
0.0
  0
LINE
  5
A5
  8
0
 10
263.00000000000023
 20
100.2999999999999
 30
0.0
 11
263.00000000000023
 21
99.999999999999957
 31
0.0
  0
LINE
  5
A6
  8
0
 10
277.0
 20
99.999999999999957
 30
0.0
 11
263.00000000000023
 21
99.999999999999957
 31
0.0
  0
LINE
  5
A7
  8
0
 10
273.99999999999977
 20
59.999999999999822
 30
0.0
 11
276.0
 21
61.999999999999851
 31
0.0
  0
LINE
  5
A8
  8
0
 10
276.0
 20
99.999999999999957
 30
0.0
 11
276.0
 21
61.999999999999851
 31
0.0
  0
LINE
  5
A9
  8
3
 10
275.05300000000011
 20
96.500000000000014
 30
0.0
 11
275.05300000000011
 21
61.052999999999962
 31
0.0
  0
LINE
  5
AA
  8
3
 10
264.947
 20
96.500000000000014
 30
0.0
 11
264.947
 21
61.052999999999962
 31
0.0
  0
LINE
  5
AB
  8
0
 10
273.99999999999977
 20
59.999999999999822
 30
0.0
 11
266.0
 21
59.999999999999957
 31
0.0
  0
LINE
  5
AC
  8
0
 10
263.99999999999977
 20
99.999999999999957
 30
0.0
 11
263.99999999999977
 21
61.999999999999993
 31
0.0
  0
LINE
  5
AD
  8
0
 10
276.0
 20
61.999999999999851
 30
0.0
 11
263.99999999999977
 21
61.999999999999993
 31
0.0
  0
LINE
  5
AE
  8
0
 10
266.0
 20
59.999999999999957
 30
0.0
 11
263.99999999999977
 21
61.999999999999993
 31
0.0
  0
LINE
  5
AF
  8
3
 10
264.947
 20
96.500000000000014
 30
0.0
 11
263.99999999999977
 21
98.140252114767705
 31
0.0
  0
LINE
  5
B0
  8
3
 10
275.05300000000011
 20
96.500000000000014
 30
0.0
 11
276.0
 21
98.140252114767705
 31
0.0
  0
LINE
  5
B1
  8
0
 10
263.99999999999977
 20
96.500000000000014
 30
0.0
 11
276.0
 21
96.500000000000014
 31
0.0
  0
LINE
  5
B2
  8
0
 10
173.9999999999998
 20
96.500000000000014
 30
0.0
 11
186.0
 21
96.500000000000014
 31
0.0
  0
LINE
  5
B3
  8
3
 10
185.05300000000011
 20
96.500000000000014
 30
0.0
 11
186.0
 21
98.140252114767705
 31
0.0
  0
LINE
  5
B4
  8
3
 10
174.947
 20
96.500000000000014
 30
0.0
 11
173.9999999999998
 21
98.140252114767705
 31
0.0
  0
LINE
  5
B5
  8
0
 10
176.0
 20
59.999999999999957
 30
0.0
 11
173.9999999999998
 21
61.999999999999993
 31
0.0
  0
LINE
  5
B6
  8
0
 10
186.0
 20
61.999999999999851
 30
0.0
 11
173.9999999999998
 21
61.999999999999993
 31
0.0
  0
LINE
  5
B7
  8
0
 10
173.9999999999998
 20
99.999999999999957
 30
0.0
 11
173.9999999999998
 21
61.999999999999993
 31
0.0
  0
LINE
  5
B8
  8
0
 10
183.9999999999998
 20
59.999999999999822
 30
0.0
 11
176.0
 21
59.999999999999957
 31
0.0
  0
LINE
  5
B9
  8
3
 10
174.947
 20
96.500000000000014
 30
0.0
 11
174.947
 21
61.052999999999962
 31
0.0
  0
LINE
  5
BA
  8
3
 10
185.05300000000011
 20
96.500000000000014
 30
0.0
 11
185.05300000000011
 21
61.052999999999962
 31
0.0
  0
LINE
  5
BB
  8
0
 10
186.0
 20
99.999999999999957
 30
0.0
 11
186.0
 21
61.999999999999851
 31
0.0
  0
LINE
  5
BC
  8
0
 10
183.9999999999998
 20
59.999999999999822
 30
0.0
 11
186.0
 21
61.999999999999851
 31
0.0
  0
LINE
  5
BD
  8
0
 10
186.99999999999989
 20
99.999999999999957
 30
0.0
 11
173.0000000000002
 21
99.999999999999957
 31
0.0
  0
LINE
  5
BE
  8
0
 10
173.0000000000002
 20
100.2999999999999
 30
0.0
 11
173.0000000000002
 21
99.999999999999957
 31
0.0
  0
LINE
  5
BF
  8
0
 10
186.99999999999989
 20
100.2999999999999
 30
0.0
 11
186.99999999999989
 21
99.999999999999957
 31
0.0
  0
LINE
  5
C0
  8
0
 10
83.999999999999815
 20
96.500000000000014
 30
0.0
 11
96.0
 21
96.500000000000014
 31
0.0
  0
LINE
  5
C1
  8
3
 10
95.053000000000097
 20
96.500000000000014
 30
0.0
 11
96.0
 21
98.140252114767705
 31
0.0
  0
LINE
  5
C2
  8
3
 10
84.946999999999989
 20
96.500000000000014
 30
0.0
 11
83.999999999999815
 21
98.140252114767705
 31
0.0
  0
LINE
  5
C3
  8
0
 10
86.0
 20
59.999999999999957
 30
0.0
 11
83.999999999999815
 21
61.999999999999993
 31
0.0
  0
LINE
  5
C4
  8
0
 10
96.0
 20
61.999999999999851
 30
0.0
 11
83.999999999999815
 21
61.999999999999993
 31
0.0
  0
LINE
  5
C5
  8
0
 10
83.999999999999815
 20
99.999999999999957
 30
0.0
 11
83.999999999999815
 21
61.999999999999993
 31
0.0
  0
LINE
  5
C6
  8
0
 10
93.999999999999815
 20
59.999999999999822
 30
0.0
 11
86.0
 21
59.999999999999957
 31
0.0
  0
LINE
  5
C7
  8
3
 10
84.946999999999989
 20
96.500000000000014
 30
0.0
 11
84.946999999999989
 21
61.052999999999962
 31
0.0
  0
LINE
  5
C8
  8
3
 10
95.053000000000097
 20
96.500000000000014
 30
0.0
 11
95.053000000000097
 21
61.052999999999962
 31
0.0
  0
LINE
  5
C9
  8
0
 10
96.0
 20
99.999999999999957
 30
0.0
 11
96.0
 21
61.999999999999851
 31
0.0
  0
LINE
  5
CA
  8
0
 10
93.999999999999815
 20
59.999999999999822
 30
0.0
 11
96.0
 21
61.999999999999851
 31
0.0
  0
LINE
  5
CB
  8
0
 10
96.999999999999943
 20
99.999999999999957
 30
0.0
 11
83.000000000000156
 21
99.999999999999957
 31
0.0
  0
LINE
  5
CC
  8
0
 10
83.000000000000156
 20
100.2999999999999
 30
0.0
 11
83.000000000000156
 21
99.999999999999957
 31
0.0
  0
LINE
  5
CD
  8
0
 10
96.999999999999943
 20
100.2999999999999
 30
0.0
 11
96.999999999999943
 21
99.999999999999957
 31
0.0
  0
TEXT
  5
21C
  8
0
 62
     3
 10
0.0
 20
0.0
 30
0.0
 40
10.0
  1
BTK60X40B
  7
STANDARD1
  0
ENDSEC
  0
EOF
