  0
SECTION
  2
HEADER
  9
$ACADVER
  1
AC1009
  9
$INSBASE
 10
0.0
 20
0.0
 30
0.0
  9
$EXTMIN
 10
0.0
 20
-2.960436562073669
 30
0.0
  9
$EXTMAX
 10
323.82535639108357
 20
229.99999999999989
 30
0.0
  9
$LIMMIN
 10
0.0
 20
0.0
  9
$LIMMAX
 10
375.0
 20
270.0
  9
$ORTHOMODE
 70
     1
  9
$REGENMODE
 70
     1
  9
$FILLMODE
 70
     1
  9
$QTEXTMODE
 70
     0
  9
$MIRRTEXT
 70
     0
  9
$DRAGMODE
 70
     2
  9
$LTSCALE
 40
10.0
  9
$OSMODE
 70
  3071
  9
$ATTMODE
 70
     1
  9
$TEXTSIZE
 40
0.2
  9
$TRACEWID
 40
0.05
  9
$TEXTSTYLE
  7
STANDARD
  9
$CLAYER
  8
0
  9
$CELTYPE
  6
BYLAYER
  9
$CECOLOR
 62
   256
  9
$DIMSCALE
 40
1.0
  9
$DIMASZ
 40
3.0
  9
$DIMEXO
 40
2.0
  9
$DIMDLI
 40
0.38
  9
$DIMRND
 40
0.0
  9
$DIMDLE
 40
0.0
  9
$DIMEXE
 40
2.0
  9
$DIMTP
 40
0.0
  9
$DIMTM
 40
0.0
  9
$DIMTXT
 40
3.2000000000000002
  9
$DIMCEN
 40
0.0
  9
$DIMTSZ
 40
0.0
  9
$DIMTOL
 70
     0
  9
$DIMLIM
 70
     0
  9
$DIMTIH
 70
     0
  9
$DIMTOH
 70
     0
  9
$DIMSE1
 70
     0
  9
$DIMSE2
 70
     0
  9
$DIMTAD
 70
     1
  9
$DIMZIN
 70
     0
  9
$DIMBLK
  1

  9
$DIMASO
 70
     1
  9
$DIMSHO
 70
     0
  9
$DIMPOST
  1

  9
$DIMAPOST
  1

  9
$DIMALT
 70
     0
  9
$DIMALTD
 70
     2
  9
$DIMALTF
 40
25.399999999999999
  9
$DIMLFAC
 40
1.0
  9
$DIMTOFL
 70
     1
  9
$DIMTVP
 40
1.6000000000000001
  9
$DIMTIX
 70
     1
  9
$DIMSOXD
 70
     0
  9
$DIMSAH
 70
     0
  9
$DIMBLK1
  1

  9
$DIMBLK2
  1

  9
$DIMSTYLE
  2
STANDARD
  9
$DIMCLRD
 70
     0
  9
$DIMCLRE
 70
     0
  9
$DIMCLRT
 70
     0
  9
$DIMTFAC
 40
1.0
  9
$DIMGAP
 40
0.09
  9
$LUNITS
 70
     2
  9
$LUPREC
 70
     4
  9
$SKETCHINC
 40
0.1
  9
$FILLETRAD
 40
1.7
  9
$AUNITS
 70
     0
  9
$AUPREC
 70
     4
  9
$MENU
  1
E:\r13\win\SUPPORT\ACAD
  9
$ELEVATION
 40
0.0
  9
$PELEVATION
 40
0.0
  9
$THICKNESS
 40
0.0
  9
$LIMCHECK
 70
     0
  9
$BLIPMODE
 70
     0
  9
$CHAMFERA
 40
0.0
  9
$CHAMFERB
 40
0.0
  9
$SKPOLY
 70
     0
  9
$TDCREATE
 40
2449839.7888773149
  9
$TDUPDATE
 40
2456598.4696898502
  9
$TDINDWG
 40
0.0003111458
  9
$TDUSRTIMER
 40
0.0003111458
  9
$USRTIMER
 70
     1
  9
$ANGBASE
 50
0.0
  9
$ANGDIR
 70
     0
  9
$PDMODE
 70
     0
  9
$PDSIZE
 40
0.0
  9
$PLINEWID
 40
0.0
  9
$COORDS
 70
     1
  9
$SPLFRAME
 70
     0
  9
$SPLINETYPE
 70
     6
  9
$SPLINESEGS
 70
     8
  9
$ATTDIA
 70
     0
  9
$ATTREQ
 70
     1
  9
$HANDLING
 70
     1
  9
$HANDSEED
  5
2C2
  9
$SURFTAB1
 70
     6
  9
$SURFTAB2
 70
     6
  9
$SURFTYPE
 70
     6
  9
$SURFU
 70
     6
  9
$SURFV
 70
     6
  9
$UCSNAME
  2

  9
$UCSORG
 10
0.0
 20
0.0
 30
0.0
  9
$UCSXDIR
 10
1.0
 20
0.0
 30
0.0
  9
$UCSYDIR
 10
0.0
 20
1.0
 30
0.0
  9
$PUCSNAME
  2

  9
$PUCSORG
 10
0.0
 20
0.0
 30
0.0
  9
$PUCSXDIR
 10
1.0
 20
0.0
 30
0.0
  9
$PUCSYDIR
 10
0.0
 20
1.0
 30
0.0
  9
$USERI1
 70
     0
  9
$USERI2
 70
     1
  9
$USERI3
 70
     1
  9
$USERI4
 70
     0
  9
$USERI5
 70
     0
  9
$USERR1
 40
0.0
  9
$USERR2
 40
0.0
  9
$USERR3
 40
0.0
  9
$USERR4
 40
0.0
  9
$USERR5
 40
0.0
  9
$WORLDVIEW
 70
     1
  9
$SHADEDGE
 70
     3
  9
$SHADEDIF
 70
    70
  9
$TILEMODE
 70
     1
  9
$MAXACTVP
 70
    16
  9
$PLIMCHECK
 70
     0
  9
$PEXTMIN
 10
1.0000000000000000E+020
 20
1.0000000000000000E+020
 30
1.0000000000000000E+020
  9
$PEXTMAX
 10
-1.0000000000000000E+020
 20
-1.0000000000000000E+020
 30
-1.0000000000000000E+020
  9
$PLIMMIN
 10
0.0
 20
0.0
  9
$PLIMMAX
 10
12.0
 20
9.0
  9
$UNITMODE
 70
     0
  9
$VISRETAIN
 70
     0
  9
$PLINEGEN
 70
     0
  9
$PSLTSCALE
 70
     0
  0
ENDSEC
  0
SECTION
  2
TABLES
  0
TABLE
  2
VPORT
 70
     1
  0
VPORT
  2
*ACTIVE
 70
     0
 10
0.0
 20
0.0
 11
1.0
 21
1.0
 12
195.0581083320873
 22
133.5127261426681
 13
0.0
 23
0.0
 14
10.0
 24
10.0
 15
10.0
 25
10.0
 16
0.0
 26
0.0
 36
1.0
 17
0.0
 27
0.0
 37
0.0
 40
275.42274993631997
 41
1.831871345029239
 42
50.0
 43
0.0
 44
0.0
 50
0.0
 51
0.0
 71
     0
 72
   500
 73
     1
 74
     0
 75
     0
 76
     0
 77
     0
 78
     2
  0
ENDTAB
  0
TABLE
  2
LTYPE
 70
     4
  0
LTYPE
  2
CONTINUOUS
 70
     0
  3
Solid Line
 72
    65
 73
     0
 40
0.0
  0
LTYPE
  2
CENTER
 70
     0
  3
____ _ ____ _ ____ _ ____ _ ____ _ ____ _ ____
 72
    65
 73
     4
 40
2.0
 49
1.25
 49
-0.25
 49
0.25
 49
-0.25
  0
LTYPE
  2
HIDDEN
 70
     0
  3
_ _ _ _ _ _ _ _ _ _ _ _ _ _ _ _ _ _ _ _ _ _ _
 72
    65
 73
     2
 40
0.375
 49
0.25
 49
-0.125
  0
LTYPE
  2
PHANTOM2
 70
     0
  3
___ _ _ ___ _ _ ___ _ _ ___ _ _
 72
    65
 73
     6
 40
1.25
 49
0.625
 49
-0.125
 49
0.125
 49
-0.125
 49
0.125
 49
-0.125
  0
ENDTAB
  0
TABLE
  2
LAYER
 70
     3
  0
LAYER
  2
0
 70
     0
 62
     7
  6
CONTINUOUS
  0
LAYER
  2
1
 70
     0
 62
     1
  6
CENTER
  0
LAYER
  2
2
 70
     0
 62
     2
  6
HIDDEN
  0
ENDTAB
  0
TABLE
  2
STYLE
 70
     2
  0
STYLE
  2
STANDARD
 70
     0
 40
0.0
 41
1.0
 50
0.0
 71
     0
 42
0.2
  3
TXT
  4
BIGFONT
  0
STYLE
  2
STANDARD1
 70
     0
 40
0.0
 41
1.0
 50
0.0
 71
     0
 42
3.0
  3
txt
  4

  0
ENDTAB
  0
TABLE
  2
VIEW
 70
     1
  0
VIEW
  2
ALL
 70
     0
 40
270.0
 10
220.99159663865549
 20
135.0
 41
0.0
 11
0.0
 21
0.0
 31
1.0
 12
0.0
 22
0.0
 32
0.0
 42
0.0
 43
0.0
 44
0.0
 50
0.0
 71
     0
  0
ENDTAB
  0
TABLE
  2
UCS
 70
     0
  0
ENDTAB
  0
TABLE
  2
APPID
 70
     3
  0
APPID
  2
ACAD
 70
     0
  0
APPID
  2
ACAD_MLEADERVER
 70
     0
  0
APPID
  2
ACAD_NAV_VCDISPLAY
 70
     0
  0
ENDTAB
  0
TABLE
  2
DIMSTYLE
 70
     1
  0
DIMSTYLE
  2
STANDARD
 70
     0
  3

  4

  5

  6

  7

 40
1.0
 41
0.18
 42
0.0625
 43
0.38
 44
0.18
 45
0.0
 46
0.0
 47
0.0
 48
0.0
140
0.18
141
0.09
142
0.0
143
25.399999999999999
144
1.0
145
0.0
146
1.0
147
0.09
 71
     0
 72
     0
 73
     1
 74
     1
 75
     0
 76
     0
 77
     0
 78
     0
170
     0
171
     2
172
     0
173
     0
174
     0
175
     0
176
     0
177
     0
178
     0
  0
ENDTAB
  0
ENDSEC
  0
SECTION
  2
BLOCKS
  0
BLOCK
  8
0
  2
$MODEL_SPACE
 70
     0
 10
0.0
 20
0.0
 30
0.0
  3
$MODEL_SPACE
  1

  0
ENDBLK
  5
143
  8
0
  0
BLOCK
 67
     1
  8
0
  2
$PAPER_SPACE
 70
     0
 10
0.0
 20
0.0
 30
0.0
  3
$PAPER_SPACE
  1

  0
ENDBLK
  5
141
 67
     1
  8
0
  0
ENDSEC
  0
SECTION
  2
ENTITIES
  0
LINE
  5
35
  8
1
 10
190.0
 20
229.99999999999989
 30
0.0
 11
190.0
 21
149.99999999999989
 31
0.0
  0
LINE
  5
36
  8
1
 10
150.0
 20
189.99999999999989
 30
0.0
 11
230.00000000000011
 21
189.99999999999989
 31
0.0
  0
ARC
  5
37
  8
0
 10
209.41640786499869
 20
204.1068460550193
 30
0.0
 40
11.00000000000002
 50
331.97575267530351
 51
100.0242473246963
  0
ARC
  5
38
  8
0
 10
182.58359213500131
 20
212.8253563910836
 30
0.0
 40
11.0
 50
43.975752675304932
 51
172.02424732469211
  0
ARC
  5
39
  8
0
 10
166.0
 20
189.99999999999989
 30
0.0
 40
11.0
 50
115.9757526753053
 51
244.0242473246951
  0
ARC
  5
3A
  8
0
 10
182.58359213500131
 20
167.1746436089162
 30
0.0
 40
10.99999999999998
 50
187.97575267530689
 51
316.02424732470053
  0
ARC
  5
3B
  8
0
 10
209.41640786499889
 20
175.8931539449805
 30
0.0
 40
10.999999999999931
 50
259.97575267530158
 51
28.024247324698148
  0
ARC
  5
3C
  8
0
 10
148.4165264891277
 20
220.21216196783311
 30
0.0
 40
24.0
 50
302.13385079144928
 51
345.86614920855158
  0
ARC
  5
3D
  8
0
 10
205.88347351087239
 20
238.88430493757079
 30
0.0
 40
24.0
 50
230.1338507914497
 51
273.86614920854993
  0
ARC
  5
3E
  8
0
 10
241.40000000000009
 20
189.99999999999989
 30
0.0
 40
24.0
 50
158.1338507914503
 51
201.86614920854959
  0
ARC
  5
3F
  8
0
 10
205.88347351087231
 20
141.1156950624291
 30
0.0
 40
24.0
 50
86.133850791450513
 51
129.86614920854871
  0
ARC
  5
40
  8
0
 10
148.4165264891277
 20
159.7878380321668
 30
0.0
 40
24.0
 50
14.133850791448079
 51
57.866149208550361
  0
ARC
  5
41
  8
0
 10
73.750000000000014
 20
88.951125461028397
 30
0.0
 40
1.25
 50
0.0
 51
80.000000000000014
  0
ARC
  5
42
  8
0
 10
106.25
 20
88.951125461028397
 30
0.0
 40
1.25
 50
100.0
 51
179.99999999999989
  0
LINE
  5
43
  8
0
 10
73.967060222083674
 20
90.182135152293654
 30
0.0
 11
56.174643608916398
 21
93.319418253200581
 31
0.0
  0
LINE
  5
44
  8
0
 10
105.0
 20
90.0
 30
0.0
 11
74.999999999999943
 21
90.0
 31
0.0
  0
LINE
  5
45
  8
0
 10
106.0329397779163
 20
90.182135152293654
 30
0.0
 11
123.8253563910836
 21
93.319418253200581
 31
0.0
  0
LINE
  5
46
  8
0
 10
75.0
 20
71.550000000000011
 30
0.0
 11
105.0
 21
71.550000000000011
 31
0.0
  0
LINE
  5
47
  8
0
 10
103.75
 20
70.299999999999997
 30
0.0
 11
105.0
 21
71.549999999999997
 31
0.0
  0
LINE
  5
48
  8
0
 10
75.0
 20
71.549999999999997
 30
0.0
 11
76.25
 21
70.299999999999997
 31
0.0
  0
LINE
  5
49
  8
0
 10
97.5
 20
70.299999999999997
 30
0.0
 11
97.5
 21
70.0
 31
0.0
  0
LINE
  5
4A
  8
0
 10
82.5
 20
70.299999999999997
 30
0.0
 11
82.5
 21
70.0
 31
0.0
  0
LINE
  5
4B
  8
0
 10
105.0
 20
88.951125461028397
 30
0.0
 11
105.0
 21
71.549999999999997
 31
0.0
  0
LINE
  5
4C
  8
0
 10
75.000000000000014
 20
88.951125461028397
 30
0.0
 11
75.0
 21
71.549999999999997
 31
0.0
  0
LINE
  5
4D
  8
0
 10
103.75
 20
70.299999999999997
 30
0.0
 11
76.25
 21
70.299999999999997
 31
0.0
  0
ARC
  5
4E
  8
0
 10
122.1253563910836
 20
108.57251362095469
 30
0.0
 40
1.7
 50
0.0
 51
76.763198011235744
  0
ARC
  5
4F
  8
0
 10
57.874643608916323
 20
108.57251362095469
 30
0.0
 40
1.7
 50
103.23680198876281
 51
180.0
  0
ARC
  5
50
  8
0
 10
89.999999999999986
 20
-28.0
 30
0.0
 40
142.0
 50
76.763198011235929
 51
103.236801988764
  0
LINE
  5
51
  8
0
 10
123.8253563910836
 20
108.57251362095469
 30
0.0
 11
123.8253563910836
 21
93.319418253200581
 31
0.0
  0
LINE
  5
52
  8
0
 10
56.174643608916313
 20
108.57251362095469
 30
0.0
 11
56.174643608916298
 21
93.319418253200581
 31
0.0
  0
LINE
  5
53
  8
1
 10
90.0
 20
119.0
 30
0.0
 11
90.0
 21
65.0
 31
0.0
  0
LINE
  5
54
  8
0
 10
97.5
 20
70.0
 30
0.0
 11
82.5
 21
70.0
 31
0.0
  0
LINE
  5
55
  8
2
 10
95.053000000000225
 20
92.0
 30
0.0
 11
90.000000000000171
 21
95.036148707946381
 31
0.0
  0
LINE
  5
56
  8
2
 10
97.5
 20
95.5
 30
0.0
 11
97.5
 21
70.299999999999997
 31
0.0
  0
LINE
  5
57
  8
2
 10
95.5
 20
97.5
 30
0.0
 11
97.5
 21
95.5
 31
0.0
  0
LINE
  5
58
  8
2
 10
96.0
 20
71.052999999999983
 30
0.0
 11
96.0
 21
90.0
 31
0.0
  0
LINE
  5
59
  8
2
 10
95.052999999999997
 20
72.0
 30
0.0
 11
95.052999999999997
 21
92.0
 31
0.0
  0
LINE
  5
5A
  8
2
 10
96.000000000000355
 20
90.0
 30
0.0
 11
95.053000000000395
 21
91.640252114767691
 31
0.0
  0
LINE
  5
5B
  8
2
 10
97.053000000000054
 20
70.0
 30
0.0
 11
95.052999999999997
 21
72.0
 31
0.0
  0
LINE
  5
5C
  8
2
 10
82.946999999999946
 20
70.0
 30
0.0
 11
84.946999999999989
 21
72.0
 31
0.0
  0
LINE
  5
5D
  8
2
 10
95.052999999999997
 20
72.0
 30
0.0
 11
84.946999999999989
 21
72.0
 31
0.0
  0
LINE
  5
5E
  8
2
 10
83.999999999999659
 20
90.0
 30
0.0
 11
84.946999999999605
 21
91.640252114767691
 31
0.0
  0
LINE
  5
5F
  8
2
 10
84.946999999999775
 20
92.0
 30
0.0
 11
89.999999999999844
 21
95.036148707946381
 31
0.0
  0
LINE
  5
60
  8
2
 10
84.946999999999989
 20
92.0
 30
0.0
 11
95.052999999999997
 21
92.0
 31
0.0
  0
LINE
  5
61
  8
2
 10
84.0
 20
90.0
 30
0.0
 11
96.0
 21
90.0
 31
0.0
  0
LINE
  5
62
  8
2
 10
84.946999999999989
 20
72.0
 30
0.0
 11
84.946999999999989
 21
92.0
 31
0.0
  0
LINE
  5
63
  8
2
 10
84.0
 20
71.052999999999983
 30
0.0
 11
84.0
 21
90.0
 31
0.0
  0
LINE
  5
64
  8
2
 10
84.500000000000014
 20
97.5
 30
0.0
 11
82.5
 21
95.5
 31
0.0
  0
LINE
  5
65
  8
2
 10
82.5
 20
95.5
 30
0.0
 11
82.5
 21
70.299999999999997
 31
0.0
  0
LINE
  5
66
  8
2
 10
95.5
 20
97.5
 30
0.0
 11
84.500000000000014
 21
97.5
 31
0.0
  0
LINE
  5
67
  8
2
 10
195.5
 20
97.5
 30
0.0
 11
184.5
 21
97.5
 31
0.0
  0
LINE
  5
68
  8
2
 10
182.5
 20
95.5
 30
0.0
 11
182.5
 21
70.299999999999997
 31
0.0
  0
LINE
  5
69
  8
2
 10
184.5
 20
97.5
 30
0.0
 11
182.5
 21
95.5
 31
0.0
  0
LINE
  5
6A
  8
2
 10
184.0
 20
71.052999999999983
 30
0.0
 11
184.0
 21
90.0
 31
0.0
  0
LINE
  5
6B
  8
2
 10
184.947
 20
72.0
 30
0.0
 11
184.947
 21
92.0
 31
0.0
  0
LINE
  5
6C
  8
2
 10
184.0
 20
90.0
 30
0.0
 11
196.0
 21
90.0
 31
0.0
  0
LINE
  5
6D
  8
2
 10
184.947
 20
92.0
 30
0.0
 11
195.053
 21
92.0
 31
0.0
  0
LINE
  5
6E
  8
2
 10
184.9469999999998
 20
92.0
 30
0.0
 11
189.9999999999998
 21
95.036148707946381
 31
0.0
  0
LINE
  5
6F
  8
2
 10
183.9999999999996
 20
90.0
 30
0.0
 11
184.9469999999996
 21
91.640252114767691
 31
0.0
  0
LINE
  5
70
  8
2
 10
195.053
 20
72.0
 30
0.0
 11
184.947
 21
72.0
 31
0.0
  0
LINE
  5
71
  8
2
 10
182.94699999999989
 20
70.0
 30
0.0
 11
184.947
 21
72.0
 31
0.0
  0
LINE
  5
72
  8
2
 10
197.053
 20
70.0
 30
0.0
 11
195.053
 21
72.0
 31
0.0
  0
LINE
  5
73
  8
2
 10
196.00000000000031
 20
90.0
 30
0.0
 11
195.0530000000004
 21
91.640252114767691
 31
0.0
  0
LINE
  5
74
  8
2
 10
195.053
 20
72.0
 30
0.0
 11
195.053
 21
92.0
 31
0.0
  0
LINE
  5
75
  8
2
 10
196.0
 20
71.052999999999983
 30
0.0
 11
196.0
 21
90.0
 31
0.0
  0
LINE
  5
76
  8
2
 10
195.5
 20
97.5
 30
0.0
 11
197.5
 21
95.5
 31
0.0
  0
LINE
  5
77
  8
2
 10
197.5
 20
95.5
 30
0.0
 11
197.5
 21
70.299999999999997
 31
0.0
  0
LINE
  5
78
  8
2
 10
195.0530000000002
 20
92.0
 30
0.0
 11
190.00000000000011
 21
95.036148707946381
 31
0.0
  0
LINE
  5
79
  8
0
 10
197.5
 20
70.0
 30
0.0
 11
182.5
 21
70.0
 31
0.0
  0
LINE
  5
7A
  8
1
 10
190.0
 20
119.0
 30
0.0
 11
190.0
 21
65.0
 31
0.0
  0
ARC
  5
7B
  8
0
 10
190.0
 20
-28.0
 30
0.0
 40
142.0
 50
78.189314631023123
 51
103.730101644542
  0
LINE
  5
7C
  8
0
 10
203.75
 20
70.299999999999997
 30
0.0
 11
176.25
 21
70.299999999999997
 31
0.0
  0
LINE
  5
7D
  8
0
 10
175.0
 20
88.951125461028397
 30
0.0
 11
175.0
 21
71.549999999999997
 31
0.0
  0
LINE
  5
7E
  8
0
 10
205.0
 20
88.951125461028397
 30
0.0
 11
205.0
 21
71.549999999999997
 31
0.0
  0
LINE
  5
7F
  8
0
 10
182.5
 20
70.299999999999997
 30
0.0
 11
182.5
 21
70.0
 31
0.0
  0
LINE
  5
80
  8
0
 10
197.5
 20
70.299999999999997
 30
0.0
 11
197.5
 21
70.0
 31
0.0
  0
LINE
  5
81
  8
0
 10
175.0
 20
71.549999999999997
 30
0.0
 11
176.25
 21
70.299999999999997
 31
0.0
  0
LINE
  5
82
  8
0
 10
203.75
 20
70.299999999999997
 30
0.0
 11
205.0
 21
71.549999999999997
 31
0.0
  0
LINE
  5
83
  8
0
 10
175.0
 20
71.550000000000011
 30
0.0
 11
205.0
 21
71.550000000000011
 31
0.0
  0
LINE
  5
84
  8
0
 10
206.03293977791631
 20
90.182135152293654
 30
0.0
 11
220.4164078649988
 21
92.718328652205486
 31
0.0
  0
LINE
  5
85
  8
0
 10
205.0
 20
90.0
 30
0.0
 11
174.99999999999989
 21
90.0
 31
0.0
  0
LINE
  5
86
  8
0
 10
173.9670602220836
 20
90.182135152293654
 30
0.0
 11
155.0
 21
93.526539614169295
 31
0.0
  0
ARC
  5
87
  8
0
 10
206.25
 20
88.951125461028397
 30
0.0
 40
1.25
 50
100.0
 51
179.99999999999989
  0
ARC
  5
88
  8
0
 10
173.75
 20
88.951125461028397
 30
0.0
 40
1.25
 50
0.0
 51
80.000000000000014
  0
LINE
  5
89
  8
2
 10
295.5
 20
97.5
 30
0.0
 11
284.5
 21
97.5
 31
0.0
  0
LINE
  5
8A
  8
2
 10
282.5
 20
95.5
 30
0.0
 11
282.5
 21
70.299999999999997
 31
0.0
  0
LINE
  5
8B
  8
2
 10
284.5
 20
97.5
 30
0.0
 11
282.5
 21
95.5
 31
0.0
  0
LINE
  5
8C
  8
2
 10
284.0
 20
71.052999999999983
 30
0.0
 11
284.0
 21
90.0
 31
0.0
  0
LINE
  5
8D
  8
2
 10
284.947
 20
72.0
 30
0.0
 11
284.947
 21
92.0
 31
0.0
  0
LINE
  5
8E
  8
2
 10
284.0
 20
90.0
 30
0.0
 11
296.0
 21
90.0
 31
0.0
  0
LINE
  5
8F
  8
2
 10
284.947
 20
92.0
 30
0.0
 11
295.053
 21
92.0
 31
0.0
  0
LINE
  5
90
  8
2
 10
284.94699999999978
 20
92.0
 30
0.0
 11
289.99999999999977
 21
95.036148707946381
 31
0.0
  0
LINE
  5
91
  8
2
 10
283.99999999999972
 20
90.0
 30
0.0
 11
284.9469999999996
 21
91.640252114767691
 31
0.0
  0
LINE
  5
92
  8
2
 10
295.053
 20
72.0
 30
0.0
 11
284.947
 21
72.0
 31
0.0
  0
LINE
  5
93
  8
2
 10
282.947
 20
70.0
 30
0.0
 11
284.947
 21
72.0
 31
0.0
  0
LINE
  5
94
  8
2
 10
297.05300000000011
 20
70.0
 30
0.0
 11
295.053
 21
72.0
 31
0.0
  0
LINE
  5
95
  8
2
 10
296.0000000000004
 20
90.0
 30
0.0
 11
295.0530000000004
 21
91.640252114767691
 31
0.0
  0
LINE
  5
96
  8
2
 10
295.053
 20
72.0
 30
0.0
 11
295.053
 21
92.0
 31
0.0
  0
LINE
  5
97
  8
2
 10
296.0
 20
71.052999999999983
 30
0.0
 11
296.0
 21
90.0
 31
0.0
  0
LINE
  5
98
  8
2
 10
295.5
 20
97.5
 30
0.0
 11
297.5
 21
95.5
 31
0.0
  0
LINE
  5
99
  8
2
 10
297.5
 20
95.5
 30
0.0
 11
297.5
 21
70.299999999999997
 31
0.0
  0
LINE
  5
9A
  8
2
 10
295.05300000000022
 20
92.0
 30
0.0
 11
290.00000000000023
 21
95.036148707946381
 31
0.0
  0
LINE
  5
9B
  8
0
 10
297.5
 20
70.0
 30
0.0
 11
282.5
 21
70.0
 31
0.0
  0
LINE
  5
9C
  8
1
 10
290.0
 20
119.0
 30
0.0
 11
290.0
 21
65.0
 31
0.0
  0
LINE
  5
9D
  8
0
 10
256.17464360891631
 20
108.57251362095469
 30
0.0
 11
256.17464360891631
 21
93.319418253200581
 31
0.0
  0
LINE
  5
9E
  8
0
 10
323.82535639108357
 20
108.57251362095469
 30
0.0
 11
323.82535639108357
 21
93.319418253200581
 31
0.0
  0
ARC
  5
9F
  8
0
 10
290.0
 20
-28.0
 30
0.0
 40
142.0
 50
76.763198011235929
 51
103.236801988764
  0
ARC
  5
A0
  8
0
 10
257.8746436089163
 20
108.57251362095469
 30
0.0
 40
1.7
 50
103.23680198876281
 51
180.0
  0
ARC
  5
A1
  8
0
 10
322.1253563910837
 20
108.57251362095469
 30
0.0
 40
1.7
 50
0.0
 51
76.763198011235744
  0
LINE
  5
A2
  8
0
 10
303.75
 20
70.299999999999997
 30
0.0
 11
276.25
 21
70.299999999999997
 31
0.0
  0
LINE
  5
A3
  8
0
 10
275.0
 20
88.951125461028397
 30
0.0
 11
275.0
 21
71.549999999999997
 31
0.0
  0
LINE
  5
A4
  8
0
 10
305.0
 20
88.951125461028397
 30
0.0
 11
305.0
 21
71.549999999999997
 31
0.0
  0
LINE
  5
A5
  8
0
 10
282.5
 20
70.299999999999997
 30
0.0
 11
282.5
 21
70.0
 31
0.0
  0
LINE
  5
A6
  8
0
 10
297.5
 20
70.299999999999997
 30
0.0
 11
297.5
 21
70.0
 31
0.0
  0
LINE
  5
A7
  8
0
 10
275.0
 20
71.549999999999997
 30
0.0
 11
276.25
 21
70.299999999999997
 31
0.0
  0
LINE
  5
A8
  8
0
 10
303.75
 20
70.299999999999997
 30
0.0
 11
305.0
 21
71.549999999999997
 31
0.0
  0
LINE
  5
A9
  8
0
 10
275.0
 20
71.550000000000011
 30
0.0
 11
305.0
 21
71.550000000000011
 31
0.0
  0
LINE
  5
AA
  8
0
 10
306.0329397779164
 20
90.182135152293654
 30
0.0
 11
323.82535639108357
 21
93.319418253200581
 31
0.0
  0
LINE
  5
AB
  8
0
 10
305.0
 20
90.0
 30
0.0
 11
275.0
 21
90.0
 31
0.0
  0
LINE
  5
AC
  8
0
 10
273.96706022208372
 20
90.182135152293654
 30
0.0
 11
256.17464360891643
 21
93.319418253200581
 31
0.0
  0
ARC
  5
AD
  8
0
 10
306.25
 20
88.951125461028397
 30
0.0
 40
1.25
 50
100.0
 51
179.99999999999989
  0
ARC
  5
AE
  8
0
 10
273.75
 20
88.951125461028397
 30
0.0
 40
1.25
 50
0.0
 51
80.000000000000014
  0
ARC
  5
AF
  8
0
 10
290.0
 20
40.0
 30
0.0
 40
71.5
 50
74.953240949444705
 51
105.0467576698552
  0
ARC
  5
B0
  8
0
 10
290.0
 20
162.0
 30
0.0
 40
71.5
 50
254.9532331186052
 51
285.04676688139489
  0
ARC
  5
B1
  8
0
 10
312.71563338320112
 20
124.5
 30
0.0
 40
16.0
 50
254.95324241104319
 51
287.62530575816868
  0
ARC
  5
B2
  8
0
 10
321.95075271321252
 20
95.431760098684236
 30
0.0
 40
14.5
 50
84.993608431761132
 51
107.6252984088898
  0
ARC
  5
B3
  8
0
 10
312.71563338320112
 20
77.5
 30
0.0
 40
16.0
 50
77.360878677702644
 51
105.0467966018599
  0
ARC
  5
B4
  8
0
 10
319.38932294235821
 20
107.2609117412083
 30
0.0
 40
14.5
 50
257.36088469243788
 51
279.99998340330859
  0
ARC
  5
B5
  8
0
 10
267.28436661679888
 20
124.5
 30
0.0
 40
16.0
 50
252.37469424183141
 51
285.04675758895689
  0
ARC
  5
B6
  8
0
 10
258.04924728678748
 20
95.431760098684236
 30
0.0
 40
14.5
 50
72.374701591110167
 51
95.006391568238882
  0
ARC
  5
B7
  8
0
 10
267.28436661679888
 20
77.5
 30
0.0
 40
16.0
 50
74.953203398140076
 51
102.6391213222973
  0
ARC
  5
B8
  8
0
 10
260.61067705764179
 20
107.2609117412083
 30
0.0
 40
14.5
 50
260.00001659669141
 51
282.63911530756218
  0
LINE
  5
B9
  8
0
 10
264.89315394498072
 20
107.6690136368026
 30
0.0
 11
264.89315394498072
 21
94.330986363197397
 31
0.0
  0
LINE
  5
BA
  8
0
 10
275.89315394498061
 20
109.074212947959
 30
0.0
 11
275.89315394498061
 21
92.925787052041017
 31
0.0
  0
LINE
  5
BB
  8
0
 10
304.10684605501928
 20
109.074212947959
 30
0.0
 11
304.10684605501928
 21
92.925787052040974
 31
0.0
  0
LINE
  5
BC
  8
0
 10
315.10684605501928
 20
107.6690136368025
 30
0.0
 11
315.10684605501928
 21
94.330986363197226
 31
0.0
  0
LINE
  5
BD
  8
0
 10
155.0
 20
108.29086543125329
 30
0.0
 11
155.0
 21
93.526539614169309
 31
0.0
  0
LINE
  5
BE
  8
0
 10
220.4164078649988
 20
109.3297415687186
 30
0.0
 11
220.4164078649988
 21
92.718328652205486
 31
0.0
  0
ARC
  5
BF
  8
0
 10
156.69999999999999
 20
108.29086543125329
 30
0.0
 40
1.7
 50
103.73010164454161
 51
180.0
  0
ARC
  5
C0
  8
0
 10
218.71640786499881
 20
109.3297415687186
 30
0.0
 40
1.7
 50
0.0
 51
78.18931463102308
  0
ARC
  5
C1
  8
0
 10
199.00062831119399
 20
98.002762865119436
 30
0.0
 40
13.50777921765917
 50
61.66938817663582
 51
110.1087546508919
  0
ARC
  5
C2
  8
0
 10
166.43604916119
 20
105.3993395911037
 30
0.0
 40
6.1006604088963217
 50
68.207746226133793
 51
119.4299956200543
  0
ARC
  5
C3
  8
0
 10
182.02094500125691
 20
144.38083598762751
 30
0.0
 40
35.880835987627513
 50
248.2084540451805
 51
290.10827895041223
  0
ARC
  5
C4
  8
0
 10
155.01291300144101
 20
125.6473462117976
 30
0.0
 40
17.147346211797661
 50
269.99999981041248
 51
299.4299979098771
  0
ARC
  5
C5
  8
0
 10
210.92854309819671
 20
120.1269823363964
 30
0.0
 40
11.62698233639639
 50
241.66939639738021
 51
309.44498463146812
  0
ARC
  5
C6
  8
0
 10
182.02094500125691
 20
57.619164012372487
 30
0.0
 40
35.880835987627513
 50
69.891721049587801
 51
106.8994994146241
  0
ARC
  5
C7
  8
0
 10
199.00062831119399
 20
103.99723713488061
 30
0.0
 40
13.50777921765917
 50
249.89124534910809
 51
292.54637378363333
  0
ARC
  5
C8
  8
0
 10
168.02039860596329
 20
103.70186636426671
 30
0.0
 40
12.28170916335104
 50
260.00000876284969
 51
286.89945791439283
  0
ARC
  5
C9
  8
0
 10
214.10368259760139
 20
67.618591840571455
 30
0.0
 40
25.881408159428531
 50
75.882593262894375
 51
112.5464119918106
  0
LINE
  5
CA
  8
0
 10
161.182101840044
 20
108.58079167948191
 30
0.0
 11
161.182101840044
 21
93.451894874167877
 31
0.0
  0
LINE
  5
CB
  8
0
 10
171.68999648233611
 20
108.9764921037806
 30
0.0
 11
171.68999648233611
 21
93.023507896219513
 31
0.0
  0
LINE
  5
CC
  8
0
 10
190.49956297047879
 20
108.4878129820591
 30
0.0
 11
190.49956297047879
 21
93.512187017940946
 31
0.0
  0
LINE
  5
CD
  8
0
 10
207.50169365190919
 20
107.97390100711389
 30
0.0
 11
207.50169365190919
 21
93.676677852301992
 31
0.0
  0
ARC
  5
CE
  8
0
 10
107.1202124122233
 20
101.456052975582
 30
0.0
 40
10.095092210268771
 50
58.836554573363408
 51
110.2101882433318
  0
ARC
  5
CF
  8
0
 10
72.879787587776676
 20
101.456052975582
 30
0.0
 40
10.095092210268771
 50
69.789806369118281
 51
121.1634434210942
  0
ARC
  5
D0
  8
0
 10
90.000000000000014
 20
147.96190058495651
 30
0.0
 40
39.461900584956467
 50
249.78980975201131
 51
290.2101916262248
  0
ARC
  5
D1
  8
0
 10
61.938338574124231
 20
119.54857444673409
 30
0.0
 40
11.048574446734159
 50
241.77466920211921
 51
301.1634434210942
  0
ARC
  5
D2
  8
0
 10
118.0616614258757
 20
119.54857444673409
 30
0.0
 40
11.048574446734159
 50
238.83655657890591
 51
298.22533079788087
  0
ARC
  5
D3
  8
0
 10
90.000000000000014
 20
54.038099415043533
 30
0.0
 40
39.461900584956467
 50
70.105502008339442
 51
109.8944979916603
  0
ARC
  5
D4
  8
0
 10
72.989899437208081
 20
101.04206193868821
 30
0.0
 40
10.52525790680505
 50
244.1908693988089
 51
289.89454236449012
  0
ARC
  5
D5
  8
0
 10
59.969348749640979
 20
74.118707968631
 30
0.0
 40
19.381292031369
 50
64.190869949127062
 51
99.672364112803464
  0
ARC
  5
D6
  8
0
 10
120.0306531577076
 20
74.118707968631
 30
0.0
 40
19.381292031369
 50
80.327635887196564
 51
115.80913005087289
  0
ARC
  5
D7
  8
0
 10
107.01010247014059
 20
101.04206193868821
 30
0.0
 40
10.52525790680505
 50
250.10545763550999
 51
295.8091306011911
  0
LINE
  5
D8
  8
0
 10
65.648349483843049
 20
108.0854175844966
 30
0.0
 11
65.648349483843063
 21
93.69282392641766
 31
0.0
  0
LINE
  5
D9
  8
0
 10
80.111225691710345
 20
108.7269984998663
 30
0.0
 11
80.111225691710345
 21
93.27300150013366
 31
0.0
  0
LINE
  5
DA
  8
0
 10
99.888774308289811
 20
108.7269984998663
 30
0.0
 11
99.888774308289811
 21
93.273001500133645
 31
0.0
  0
LINE
  5
DB
  8
0
 10
114.35165051615709
 20
108.0854175844966
 30
0.0
 11
114.35165051615699
 21
93.692823373042145
 31
0.0
  0
TEXT
  5
233
  8
0
 62
     3
 10
0.0
 20
0.0
 30
0.0
 40
10.0
  1
BTK70
  7
STANDARD1
  0
ENDSEC
  0
EOF
