  0
SECTION
  2
HEADER
  9
$ACADVER
  1
AC1009
  9
$INSBASE
 10
0.0
 20
0.0
 30
0.0
  9
$EXTMIN
 10
0.0
 20
-2.960436562073669
 30
0.0
  9
$EXTMAX
 10
160.0
 20
180.0
 30
0.0
  9
$LIMMIN
 10
0.0
 20
0.0
  9
$LIMMAX
 10
375.0
 20
270.0
  9
$ORTHOMODE
 70
     1
  9
$REGENMODE
 70
     1
  9
$FILLMODE
 70
     1
  9
$QTEXTMODE
 70
     0
  9
$MIRRTEXT
 70
     0
  9
$DRAGMODE
 70
     2
  9
$LTSCALE
 40
10.0
  9
$OSMODE
 70
    37
  9
$ATTMODE
 70
     1
  9
$TEXTSIZE
 40
0.2
  9
$TRACEWID
 40
0.05
  9
$TEXTSTYLE
  7
STANDARD
  9
$CLAYER
  8
0
  9
$CELTYPE
  6
BYLAYER
  9
$CECOLOR
 62
   256
  9
$DIMSCALE
 40
1.0
  9
$DIMASZ
 40
3.0
  9
$DIMEXO
 40
2.0
  9
$DIMDLI
 40
0.38
  9
$DIMRND
 40
0.0
  9
$DIMDLE
 40
0.0
  9
$DIMEXE
 40
2.0
  9
$DIMTP
 40
0.0
  9
$DIMTM
 40
0.0
  9
$DIMTXT
 40
3.2000000000000002
  9
$DIMCEN
 40
0.0
  9
$DIMTSZ
 40
0.0
  9
$DIMTOL
 70
     0
  9
$DIMLIM
 70
     0
  9
$DIMTIH
 70
     0
  9
$DIMTOH
 70
     0
  9
$DIMSE1
 70
     0
  9
$DIMSE2
 70
     0
  9
$DIMTAD
 70
     1
  9
$DIMZIN
 70
     0
  9
$DIMBLK
  1

  9
$DIMASO
 70
     0
  9
$DIMSHO
 70
     0
  9
$DIMPOST
  1

  9
$DIMAPOST
  1

  9
$DIMALT
 70
     0
  9
$DIMALTD
 70
     2
  9
$DIMALTF
 40
25.399999999999999
  9
$DIMLFAC
 40
1.0
  9
$DIMTOFL
 70
     0
  9
$DIMTVP
 40
1.6000000000000001
  9
$DIMTIX
 70
     1
  9
$DIMSOXD
 70
     0
  9
$DIMSAH
 70
     0
  9
$DIMBLK1
  1

  9
$DIMBLK2
  1

  9
$DIMSTYLE
  2
STANDARD
  9
$DIMCLRD
 70
     4
  9
$DIMCLRE
 70
     4
  9
$DIMCLRT
 70
     4
  9
$DIMTFAC
 40
1.0
  9
$DIMGAP
 40
0.09
  9
$LUNITS
 70
     2
  9
$LUPREC
 70
     1
  9
$SKETCHINC
 40
0.1
  9
$FILLETRAD
 40
0.0
  9
$AUNITS
 70
     0
  9
$AUPREC
 70
     1
  9
$MENU
  1
E:\r13\win\SUPPORT\ACAD
  9
$ELEVATION
 40
0.0
  9
$PELEVATION
 40
0.0
  9
$THICKNESS
 40
0.0
  9
$LIMCHECK
 70
     0
  9
$BLIPMODE
 70
     0
  9
$CHAMFERA
 40
0.0
  9
$CHAMFERB
 40
0.0
  9
$SKPOLY
 70
     0
  9
$TDCREATE
 40
2449840.6508564819
  9
$TDUPDATE
 40
2457968.4252211112
  9
$TDINDWG
 40
0.2103173958
  9
$TDUSRTIMER
 40
0.2103173958
  9
$USRTIMER
 70
     1
  9
$ANGBASE
 50
0.0
  9
$ANGDIR
 70
     0
  9
$PDMODE
 70
     0
  9
$PDSIZE
 40
0.0
  9
$PLINEWID
 40
0.0
  9
$COORDS
 70
     1
  9
$SPLFRAME
 70
     0
  9
$SPLINETYPE
 70
     6
  9
$SPLINESEGS
 70
     8
  9
$ATTDIA
 70
     0
  9
$ATTREQ
 70
     1
  9
$HANDLING
 70
     1
  9
$HANDSEED
  5
1D19
  9
$SURFTAB1
 70
     6
  9
$SURFTAB2
 70
     6
  9
$SURFTYPE
 70
     6
  9
$SURFU
 70
     6
  9
$SURFV
 70
     6
  9
$UCSNAME
  2

  9
$UCSORG
 10
0.0
 20
0.0
 30
0.0
  9
$UCSXDIR
 10
1.0
 20
0.0
 30
0.0
  9
$UCSYDIR
 10
0.0
 20
1.0
 30
0.0
  9
$PUCSNAME
  2

  9
$PUCSORG
 10
0.0
 20
0.0
 30
0.0
  9
$PUCSXDIR
 10
1.0
 20
0.0
 30
0.0
  9
$PUCSYDIR
 10
0.0
 20
1.0
 30
0.0
  9
$USERI1
 70
     0
  9
$USERI2
 70
     1
  9
$USERI3
 70
     1
  9
$USERI4
 70
     0
  9
$USERI5
 70
     0
  9
$USERR1
 40
0.0
  9
$USERR2
 40
0.0
  9
$USERR3
 40
0.0
  9
$USERR4
 40
0.0
  9
$USERR5
 40
0.0
  9
$WORLDVIEW
 70
     1
  9
$SHADEDGE
 70
     3
  9
$SHADEDIF
 70
    70
  9
$TILEMODE
 70
     1
  9
$MAXACTVP
 70
    16
  9
$PLIMCHECK
 70
     0
  9
$PEXTMIN
 10
1.0000000000000000E+020
 20
1.0000000000000000E+020
 30
1.0000000000000000E+020
  9
$PEXTMAX
 10
-1.0000000000000000E+020
 20
-1.0000000000000000E+020
 30
-1.0000000000000000E+020
  9
$PLIMMIN
 10
0.0
 20
0.0
  9
$PLIMMAX
 10
12.0
 20
9.0
  9
$UNITMODE
 70
     0
  9
$VISRETAIN
 70
     0
  9
$PLINEGEN
 70
     0
  9
$PSLTSCALE
 70
     0
  0
ENDSEC
  0
SECTION
  2
TABLES
  0
TABLE
  2
VPORT
 70
     1
  0
VPORT
  2
*ACTIVE
 70
     0
 10
0.0
 20
0.0
 11
1.0
 21
1.0
 12
181.62393162393161
 22
100.0
 13
0.0
 23
0.0
 14
10.0
 24
10.0
 15
10.0
 25
10.0
 16
0.0
 26
0.0
 36
1.0
 17
0.0
 27
0.0
 37
0.0
 40
200.0
 41
1.816239316239316
 42
50.0
 43
0.0
 44
0.0
 50
0.0
 51
0.0
 71
     0
 72
   500
 73
     1
 74
     0
 75
     0
 76
     0
 77
     0
 78
     2
  0
ENDTAB
  0
TABLE
  2
LTYPE
 70
     3
  0
LTYPE
  2
CONTINUOUS
 70
     0
  3
Solid Line
 72
    65
 73
     0
 40
0.0
  0
LTYPE
  2
CENTER
 70
     0
  3
____ _ ____ _ ____ _ ____ _ ____ _ ____ _ ____
 72
    65
 73
     4
 40
2.0
 49
1.25
 49
-0.25
 49
0.25
 49
-0.25
  0
LTYPE
  2
PHANTOM2
 70
     0
  3
___ _ _ ___ _ _ ___ _ _ ___ _ _
 72
    65
 73
     6
 40
1.25
 49
0.625
 49
-0.125
 49
0.125
 49
-0.125
 49
0.125
 49
-0.125
  0
ENDTAB
  0
TABLE
  2
LAYER
 70
     2
  0
LAYER
  2
0
 70
     0
 62
     7
  6
CONTINUOUS
  0
LAYER
  2
1
 70
     0
 62
     1
  6
CENTER
  0
ENDTAB
  0
TABLE
  2
STYLE
 70
     2
  0
STYLE
  2
STANDARD
 70
     0
 40
0.0
 41
1.0
 50
0.0
 71
     0
 42
0.2
  3
TXT
  4
BIGFONT
  0
STYLE
  2
STANDARD1
 70
     0
 40
0.0
 41
1.0
 50
0.0
 71
     0
 42
3.0
  3
txt
  4

  0
ENDTAB
  0
TABLE
  2
VIEW
 70
     1
  0
VIEW
  2
ALL
 70
     0
 40
270.0
 10
220.99159663865549
 20
135.0
 41
0.0
 11
0.0
 21
0.0
 31
1.0
 12
0.0
 22
0.0
 32
0.0
 42
0.0
 43
0.0
 44
0.0
 50
0.0
 71
     0
  0
ENDTAB
  0
TABLE
  2
UCS
 70
     0
  0
ENDTAB
  0
TABLE
  2
APPID
 70
    13
  0
APPID
  2
ACAD
 70
     0
  0
APPID
  2
GENIUS_GENODEF_13
 70
     0
  0
APPID
  2
GENIUS_GENOENT_13
 70
     0
  0
APPID
  2
GENIUS_GENOBJ_13
 70
     0
  0
APPID
  2
GENIUS_GENOLIS_13
 70
     0
  0
APPID
  2
GENIUS_GENOREF_13
 70
     0
  0
APPID
  2
GENIUS_GENOBJ-N-FIL_13
 70
     0
  0
APPID
  2
ACAD_MLEADERVER
 70
     0
  0
APPID
  2
ACAD_DSTYLE_DIMJAG
 70
     0
  0
APPID
  2
ACAD_DSTYLE_DIMTALN
 70
     0
  0
APPID
  2
ACAD_NAV_VCDISPLAY
 70
     0
  0
APPID
  2
ACAD_EXEMPT_FROM_CAD_STANDARDS
 70
     0
  0
APPID
  2
ACADANNOTATIVE
 70
     0
  0
ENDTAB
  0
TABLE
  2
DIMSTYLE
 70
     1
  0
DIMSTYLE
  2
STANDARD
 70
     0
  3

  4

  5

  6

  7

 40
1.0
 41
0.18
 42
0.0625
 43
0.38
 44
0.18
 45
0.0
 46
0.0
 47
0.0
 48
0.0
140
0.18
141
0.09
142
0.0
143
25.399999999999999
144
1.0
145
0.0
146
1.0
147
0.09
 71
     0
 72
     0
 73
     1
 74
     1
 75
     0
 76
     0
 77
     0
 78
     0
170
     0
171
     2
172
     0
173
     0
174
     0
175
     0
176
     0
177
     0
178
     0
  0
ENDTAB
  0
ENDSEC
  0
SECTION
  2
BLOCKS
  0
BLOCK
  8
0
  2
$MODEL_SPACE
 70
     0
 10
0.0
 20
0.0
 30
0.0
  3
$MODEL_SPACE
  1

  0
ENDBLK
  5
DC
  8
0
  0
BLOCK
 67
     1
  8
0
  2
$PAPER_SPACE
 70
     0
 10
0.0
 20
0.0
 30
0.0
  3
$PAPER_SPACE
  1

  0
ENDBLK
  5
DA
 67
     1
  8
0
  0
ENDSEC
  0
SECTION
  2
ENTITIES
  0
TEXT
  5
452
  8
0
 62
     3
 10
0.0
 20
0.0
 30
0.0
 40
10.0
  1
BTL8040
  7
STANDARD1
  0
ARC
  5
1A31
  8
0
 10
51.999999999833108
 20
51.999999999972403
 30
0.0
 40
1.9999999998331379
 50
179.99999999920939
 51
225.0000000092206
  0
LINE
  5
1A32
  8
0
 10
50.0
 20
129.0
 30
0.0
 11
50.0
 21
52.0
 31
0.0
  0
ARC
  5
1A33
  8
0
 10
51.0
 20
129.0
 30
0.0
 40
1.0
 50
155.5301994743302
 51
180.0
  0
ARC
  5
1A34
  8
0
 10
50.999999999994252
 20
129.0000000000089
 30
0.0
 40
0.9999999999911324
 50
89.999999999671047
 51
155.5301994696855
  0
LINE
  5
1A35
  8
0
 10
57.0
 20
130.0
 30
0.0
 11
51.0
 21
130.0
 31
0.0
  0
ARC
  5
1A36
  8
0
 10
57.000000000005677
 20
129.0000000000089
 30
0.0
 40
0.9999999999911609
 50
24.469800520390631
 51
90.000000000328939
  0
ARC
  5
1A3B
  8
0
 10
88.999999999999957
 20
51.0
 30
0.0
 40
1.0000000000000071
 50
270.0
 51
294.4698005207029
  0
LINE
  5
1A3C
  8
0
 10
52.0
 20
50.0
 30
0.0
 11
88.999999999999957
 21
50.0
 31
0.0
  0
ARC
  5
1A3D
  8
0
 10
51.999999999998522
 20
51.999999999996469
 30
0.0
 40
1.999999999996473
 50
225.00000000635569
 51
270.00000000004229
  0
ARC
  5
1A43
  8
0
 10
57.0
 20
129.0
 30
0.0
 40
1.0000000000001461
 50
0.0
 51
24.469800520713459
  0
LINE
  5
1A44
  8
0
 10
58.0
 20
129.0
 30
0.0
 11
58.0
 21
58.0
 31
0.0
  0
LINE
  5
1A45
  8
0
 10
58.0
 20
58.0
 30
0.0
 11
88.999999999999957
 21
58.0
 31
0.0
  0
ARC
  5
1A46
  8
0
 10
88.999999999999957
 20
57.0
 30
0.0
 40
1.0000000000000071
 50
65.530199479297096
 51
89.999999999996746
  0
ARC
  5
1A48
  8
0
 10
89.000000000002586
 20
57.000000000001698
 30
0.0
 40
0.9999999999973666
 50
359.99999999990308
 51
65.530199479397211
  0
LINE
  5
1A49
  8
0
 10
89.999999999999986
 20
51.0
 30
0.0
 11
89.999999999999986
 21
57.0
 31
0.0
  0
ARC
  5
1A4A
  8
0
 10
89.000000000011696
 20
50.999999999992411
 30
0.0
 40
0.9999999999882334
 50
294.46980052026993
 51
0.0000000004347945
  0
ARC
  5
1A4B
  8
0
 10
159.0
 20
51.0
 30
0.0
 40
1.0
 50
270.0
 51
294.4698005207029
  0
LINE
  5
1A4C
  8
0
 10
140.99999999999989
 20
50.0
 30
0.0
 11
159.0
 21
50.0
 31
0.0
  0
ARC
  5
1A4D
  8
0
 10
140.99999999999989
 20
51.0
 30
0.0
 40
1.0
 50
245.53019947930059
 51
270.0
  0
ARC
  5
1A51
  8
0
 10
159.0
 20
57.0
 30
0.0
 40
1.0
 50
65.530199479300606
 51
90.0
  0
ARC
  5
1A55
  8
0
 10
140.99999999999989
 20
57.0
 30
0.0
 40
1.0
 50
90.0
 51
114.46980052069939
  0
LINE
  5
1A56
  8
0
 10
140.99999999999989
 20
58.0
 30
0.0
 11
159.0
 21
58.0
 31
0.0
  0
ARC
  5
1A57
  8
0
 10
159.00000000001171
 20
57.000000000007518
 30
0.0
 40
0.9999999999883026
 50
359.9999999995693
 51
65.530199479730115
  0
ARC
  5
1A59
  8
0
 10
159.00000000001171
 20
50.999999999992482
 30
0.0
 40
0.9999999999883026
 50
294.46980052026993
 51
0.0000000004307234
  0
ARC
  5
1A5C
  8
0
 10
140.9999999999882
 20
50.999999999992461
 30
0.0
 40
0.9999999999882901
 50
179.99999999956759
 51
245.5301994797301
  0
ARC
  5
1A5E
  8
0
 10
140.9999999999882
 20
57.000000000007553
 30
0.0
 40
0.9999999999882901
 50
114.4698005202699
 51
180.00000000043309
  0
ARC
  5
1A63
  8
0
 10
158.00000000016681
 20
128.0000000000276
 30
0.0
 40
1.999999999833149
 50
359.99999999921101
 51
45.000000009220877
  0
LINE
  5
1A64
  8
0
 10
159.99999999999989
 20
50.999999999992482
 30
0.0
 11
159.99999999999989
 21
128.0
 31
0.0
  0
ARC
  5
1A67
  8
0
 10
141.99999999999989
 20
128.0
 30
0.0
 40
2.000000000000028
 50
90.0
 51
134.99999999999099
  0
LINE
  5
1A68
  8
0
 10
141.99999999999989
 20
130.0
 30
0.0
 11
158.0
 21
130.0
 31
0.0
  0
ARC
  5
1A69
  8
0
 10
158.0
 20
128.00000000000011
 30
0.0
 40
1.999999999999915
 50
45.000000006396867
 51
90.0
  0
LINE
  5
1A6A
  8
0
 10
146.94999999999999
 20
120.0
 30
0.0
 11
146.94999999999999
 21
67.0
 31
0.0
  0
POLYLINE
  5
1A6B
  8
0
 10
146.94999999999999
 20
66.999999999999943
 30
0.0
 66
     1
 70
     8
  0
VERTEX
  8
0
  5
1C15
 10
146.950
 20
67.0000
 30
0.000000
  70
    32
  0
VERTEX
  8
0
  5
1C16
 10
146.951
 20
66.8941
 30
0.000000
  70
    32
  0
VERTEX
  8
0
  5
1C17
 10
146.954
 20
66.7884
 30
0.000000
  70
    32
  0
VERTEX
  8
0
  5
1C18
 10
146.958
 20
66.6827
 30
0.000000
  70
    32
  0
VERTEX
  8
0
  5
1C19
 10
146.965
 20
66.5772
 30
0.000000
  70
    32
  0
VERTEX
  8
0
  5
1C1A
 10
146.973
 20
66.4720
 30
0.000000
  70
    32
  0
VERTEX
  8
0
  5
1C1B
 10
146.983
 20
66.3671
 30
0.000000
  70
    32
  0
VERTEX
  8
0
  5
1C1C
 10
146.995
 20
66.2626
 30
0.000000
  70
    32
  0
VERTEX
  8
0
  5
1C1D
 10
147.009
 20
66.1585
 30
0.000000
  70
    32
  0
VERTEX
  8
0
  5
1C1E
 10
147.024
 20
66.0549
 30
0.000000
  70
    32
  0
VERTEX
  8
0
  5
1C1F
 10
147.041
 20
65.9519
 30
0.000000
  70
    32
  0
VERTEX
  8
0
  5
1C20
 10
147.060
 20
65.8496
 30
0.000000
  70
    32
  0
VERTEX
  8
0
  5
1C21
 10
147.081
 20
65.7479
 30
0.000000
  70
    32
  0
VERTEX
  8
0
  5
1C22
 10
147.104
 20
65.6470
 30
0.000000
  70
    32
  0
VERTEX
  8
0
  5
1C23
 10
147.128
 20
65.5469
 30
0.000000
  70
    32
  0
VERTEX
  8
0
  5
1C24
 10
147.154
 20
65.4476
 30
0.000000
  70
    32
  0
VERTEX
  8
0
  5
1C25
 10
147.182
 20
65.3494
 30
0.000000
  70
    32
  0
VERTEX
  8
0
  5
1C26
 10
147.212
 20
65.2521
 30
0.000000
  70
    32
  0
VERTEX
  8
0
  5
1C27
 10
147.243
 20
65.1558
 30
0.000000
  70
    32
  0
VERTEX
  8
0
  5
1C28
 10
147.276
 20
65.0607
 30
0.000000
  70
    32
  0
VERTEX
  8
0
  5
1C29
 10
147.310
 20
64.9667
 30
0.000000
  70
    32
  0
VERTEX
  8
0
  5
1C2A
 10
147.346
 20
64.8740
 30
0.000000
  70
    32
  0
VERTEX
  8
0
  5
1C2B
 10
147.384
 20
64.7825
 30
0.000000
  70
    32
  0
VERTEX
  8
0
  5
1C2C
 10
147.423
 20
64.6924
 30
0.000000
  70
    32
  0
VERTEX
  8
0
  5
1C2D
 10
147.464
 20
64.6036
 30
0.000000
  70
    32
  0
VERTEX
  8
0
  5
1C2E
 10
147.506
 20
64.5163
 30
0.000000
  70
    32
  0
VERTEX
  8
0
  5
1C2F
 10
147.550
 20
64.4305
 30
0.000000
  70
    32
  0
VERTEX
  8
0
  5
1C30
 10
147.596
 20
64.3463
 30
0.000000
  70
    32
  0
VERTEX
  8
0
  5
1C31
 10
147.642
 20
64.2636
 30
0.000000
  70
    32
  0
VERTEX
  8
0
  5
1C32
 10
147.691
 20
64.1826
 30
0.000000
  70
    32
  0
VERTEX
  8
0
  5
1C33
 10
147.740
 20
64.1033
 30
0.000000
  70
    32
  0
VERTEX
  8
0
  5
1C34
 10
147.791
 20
64.0258
 30
0.000000
  70
    32
  0
VERTEX
  8
0
  5
1C35
 10
147.843
 20
63.9500
 30
0.000000
  70
    32
  0
VERTEX
  8
0
  5
1C36
 10
147.897
 20
63.8761
 30
0.000000
  70
    32
  0
VERTEX
  8
0
  5
1C37
 10
147.952
 20
63.8040
 30
0.000000
  70
    32
  0
VERTEX
  8
0
  5
1C38
 10
148.008
 20
63.7339
 30
0.000000
  70
    32
  0
VERTEX
  8
0
  5
1C39
 10
148.065
 20
63.6657
 30
0.000000
  70
    32
  0
VERTEX
  8
0
  5
1C3A
 10
148.124
 20
63.5996
 30
0.000000
  70
    32
  0
VERTEX
  8
0
  5
1C3B
 10
148.183
 20
63.5355
 30
0.000000
  70
    32
  0
VERTEX
  8
0
  5
1C3C
 10
148.244
 20
63.4735
 30
0.000000
  70
    32
  0
VERTEX
  8
0
  5
1C3D
 10
148.306
 20
63.4136
 30
0.000000
  70
    32
  0
VERTEX
  8
0
  5
1C3E
 10
148.368
 20
63.3558
 30
0.000000
  70
    32
  0
VERTEX
  8
0
  5
1C3F
 10
148.432
 20
63.3003
 30
0.000000
  70
    32
  0
VERTEX
  8
0
  5
1C40
 10
148.497
 20
63.2470
 30
0.000000
  70
    32
  0
VERTEX
  8
0
  5
1C41
 10
148.562
 20
63.1960
 30
0.000000
  70
    32
  0
VERTEX
  8
0
  5
1C42
 10
148.629
 20
63.1472
 30
0.000000
  70
    32
  0
VERTEX
  8
0
  5
1C43
 10
148.696
 20
63.1008
 30
0.000000
  70
    32
  0
VERTEX
  8
0
  5
1C44
 10
148.764
 20
63.0567
 30
0.000000
  70
    32
  0
VERTEX
  8
0
  5
1C45
 10
148.833
 20
63.0150
 30
0.000000
  70
    32
  0
VERTEX
  8
0
  5
1C46
 10
148.902
 20
62.9757
 30
0.000000
  70
    32
  0
VERTEX
  8
0
  5
1C47
 10
148.972
 20
62.9388
 30
0.000000
  70
    32
  0
VERTEX
  8
0
  5
1C48
 10
149.043
 20
62.9044
 30
0.000000
  70
    32
  0
VERTEX
  8
0
  5
1C49
 10
149.115
 20
62.8724
 30
0.000000
  70
    32
  0
VERTEX
  8
0
  5
1C4A
 10
149.187
 20
62.8429
 30
0.000000
  70
    32
  0
VERTEX
  8
0
  5
1C4B
 10
149.259
 20
62.8159
 30
0.000000
  70
    32
  0
VERTEX
  8
0
  5
1C4C
 10
149.332
 20
62.7915
 30
0.000000
  70
    32
  0
VERTEX
  8
0
  5
1C4D
 10
149.405
 20
62.7695
 30
0.000000
  70
    32
  0
VERTEX
  8
0
  5
1C4E
 10
149.479
 20
62.7502
 30
0.000000
  70
    32
  0
VERTEX
  8
0
  5
1C4F
 10
149.552
 20
62.7333
 30
0.000000
  70
    32
  0
VERTEX
  8
0
  5
1C50
 10
149.627
 20
62.7191
 30
0.000000
  70
    32
  0
VERTEX
  8
0
  5
1C51
 10
149.701
 20
62.7074
 30
0.000000
  70
    32
  0
VERTEX
  8
0
  5
1C52
 10
149.776
 20
62.6983
 30
0.000000
  70
    32
  0
VERTEX
  8
0
  5
1C53
 10
149.850
 20
62.6918
 30
0.000000
  70
    32
  0
VERTEX
  8
0
  5
1C54
 10
149.925
 20
62.6879
 30
0.000000
  70
    32
  0
VERTEX
  8
0
  5
1C55
 10
150.000
 20
62.6866
 30
0.000000
  70
    32
  0
VERTEX
  8
0
  5
1C56
 10
150.075
 20
62.6879
 30
0.000000
  70
    32
  0
VERTEX
  8
0
  5
1C57
 10
150.150
 20
62.6918
 30
0.000000
  70
    32
  0
VERTEX
  8
0
  5
1C58
 10
150.224
 20
62.6983
 30
0.000000
  70
    32
  0
VERTEX
  8
0
  5
1C59
 10
150.299
 20
62.7074
 30
0.000000
  70
    32
  0
VERTEX
  8
0
  5
1C5A
 10
150.373
 20
62.7191
 30
0.000000
  70
    32
  0
VERTEX
  8
0
  5
1C5B
 10
150.448
 20
62.7333
 30
0.000000
  70
    32
  0
VERTEX
  8
0
  5
1C5C
 10
150.521
 20
62.7502
 30
0.000000
  70
    32
  0
VERTEX
  8
0
  5
1C5D
 10
150.595
 20
62.7695
 30
0.000000
  70
    32
  0
VERTEX
  8
0
  5
1C5E
 10
150.668
 20
62.7915
 30
0.000000
  70
    32
  0
VERTEX
  8
0
  5
1C5F
 10
150.741
 20
62.8159
 30
0.000000
  70
    32
  0
VERTEX
  8
0
  5
1C60
 10
150.813
 20
62.8429
 30
0.000000
  70
    32
  0
VERTEX
  8
0
  5
1C61
 10
150.885
 20
62.8724
 30
0.000000
  70
    32
  0
VERTEX
  8
0
  5
1C62
 10
150.957
 20
62.9044
 30
0.000000
  70
    32
  0
VERTEX
  8
0
  5
1C63
 10
151.028
 20
62.9388
 30
0.000000
  70
    32
  0
VERTEX
  8
0
  5
1C64
 10
151.098
 20
62.9757
 30
0.000000
  70
    32
  0
VERTEX
  8
0
  5
1C65
 10
151.167
 20
63.0150
 30
0.000000
  70
    32
  0
VERTEX
  8
0
  5
1C66
 10
151.236
 20
63.0567
 30
0.000000
  70
    32
  0
VERTEX
  8
0
  5
1C67
 10
151.304
 20
63.1008
 30
0.000000
  70
    32
  0
VERTEX
  8
0
  5
1C68
 10
151.371
 20
63.1472
 30
0.000000
  70
    32
  0
VERTEX
  8
0
  5
1C69
 10
151.438
 20
63.1960
 30
0.000000
  70
    32
  0
VERTEX
  8
0
  5
1C6A
 10
151.503
 20
63.2470
 30
0.000000
  70
    32
  0
VERTEX
  8
0
  5
1C6B
 10
151.568
 20
63.3003
 30
0.000000
  70
    32
  0
VERTEX
  8
0
  5
1C6C
 10
151.632
 20
63.3558
 30
0.000000
  70
    32
  0
VERTEX
  8
0
  5
1C6D
 10
151.694
 20
63.4136
 30
0.000000
  70
    32
  0
VERTEX
  8
0
  5
1C6E
 10
151.756
 20
63.4735
 30
0.000000
  70
    32
  0
VERTEX
  8
0
  5
1C6F
 10
151.817
 20
63.5355
 30
0.000000
  70
    32
  0
VERTEX
  8
0
  5
1C70
 10
151.876
 20
63.5996
 30
0.000000
  70
    32
  0
VERTEX
  8
0
  5
1C71
 10
151.935
 20
63.6657
 30
0.000000
  70
    32
  0
VERTEX
  8
0
  5
1C72
 10
151.992
 20
63.7339
 30
0.000000
  70
    32
  0
VERTEX
  8
0
  5
1C73
 10
152.048
 20
63.8040
 30
0.000000
  70
    32
  0
VERTEX
  8
0
  5
1C74
 10
152.103
 20
63.8761
 30
0.000000
  70
    32
  0
VERTEX
  8
0
  5
1C75
 10
152.157
 20
63.9500
 30
0.000000
  70
    32
  0
VERTEX
  8
0
  5
1C76
 10
152.209
 20
64.0258
 30
0.000000
  70
    32
  0
VERTEX
  8
0
  5
1C77
 10
152.260
 20
64.1033
 30
0.000000
  70
    32
  0
VERTEX
  8
0
  5
1C78
 10
152.309
 20
64.1826
 30
0.000000
  70
    32
  0
VERTEX
  8
0
  5
1C79
 10
152.358
 20
64.2636
 30
0.000000
  70
    32
  0
VERTEX
  8
0
  5
1C7A
 10
152.404
 20
64.3463
 30
0.000000
  70
    32
  0
VERTEX
  8
0
  5
1C7B
 10
152.450
 20
64.4305
 30
0.000000
  70
    32
  0
VERTEX
  8
0
  5
1C7C
 10
152.494
 20
64.5163
 30
0.000000
  70
    32
  0
VERTEX
  8
0
  5
1C7D
 10
152.536
 20
64.6036
 30
0.000000
  70
    32
  0
VERTEX
  8
0
  5
1C7E
 10
152.577
 20
64.6924
 30
0.000000
  70
    32
  0
VERTEX
  8
0
  5
1C7F
 10
152.616
 20
64.7825
 30
0.000000
  70
    32
  0
VERTEX
  8
0
  5
1C80
 10
152.654
 20
64.8740
 30
0.000000
  70
    32
  0
VERTEX
  8
0
  5
1C81
 10
152.690
 20
64.9667
 30
0.000000
  70
    32
  0
VERTEX
  8
0
  5
1C82
 10
152.724
 20
65.0607
 30
0.000000
  70
    32
  0
VERTEX
  8
0
  5
1C83
 10
152.757
 20
65.1558
 30
0.000000
  70
    32
  0
VERTEX
  8
0
  5
1C84
 10
152.788
 20
65.2521
 30
0.000000
  70
    32
  0
VERTEX
  8
0
  5
1C85
 10
152.818
 20
65.3494
 30
0.000000
  70
    32
  0
VERTEX
  8
0
  5
1C86
 10
152.846
 20
65.4476
 30
0.000000
  70
    32
  0
VERTEX
  8
0
  5
1C87
 10
152.872
 20
65.5469
 30
0.000000
  70
    32
  0
VERTEX
  8
0
  5
1C88
 10
152.896
 20
65.6470
 30
0.000000
  70
    32
  0
VERTEX
  8
0
  5
1C89
 10
152.919
 20
65.7479
 30
0.000000
  70
    32
  0
VERTEX
  8
0
  5
1C8A
 10
152.940
 20
65.8496
 30
0.000000
  70
    32
  0
VERTEX
  8
0
  5
1C8B
 10
152.959
 20
65.9519
 30
0.000000
  70
    32
  0
VERTEX
  8
0
  5
1C8C
 10
152.976
 20
66.0549
 30
0.000000
  70
    32
  0
VERTEX
  8
0
  5
1C8D
 10
152.991
 20
66.1585
 30
0.000000
  70
    32
  0
VERTEX
  8
0
  5
1C8E
 10
153.005
 20
66.2626
 30
0.000000
  70
    32
  0
VERTEX
  8
0
  5
1C8F
 10
153.017
 20
66.3671
 30
0.000000
  70
    32
  0
VERTEX
  8
0
  5
1C90
 10
153.027
 20
66.4720
 30
0.000000
  70
    32
  0
VERTEX
  8
0
  5
1C91
 10
153.035
 20
66.5772
 30
0.000000
  70
    32
  0
VERTEX
  8
0
  5
1C92
 10
153.042
 20
66.6827
 30
0.000000
  70
    32
  0
VERTEX
  8
0
  5
1C93
 10
153.046
 20
66.7884
 30
0.000000
  70
    32
  0
VERTEX
  8
0
  5
1C94
 10
153.049
 20
66.8941
 30
0.000000
  70
    32
  0
VERTEX
  8
0
  5
1C95
 10
153.050
 20
67.0000
 30
0.000000
  70
    32
  0
SEQEND
  8
0
  5
1C96
  0
LINE
  5
1A6C
  8
0
 10
153.05000000000001
 20
67.0
 30
0.0
 11
153.05000000000001
 21
120.0
 31
0.0
  0
ARC
  5
1A6D
  8
0
 10
150.0
 20
120.0
 30
0.0
 40
3.0500000000000109
 50
0.0
 51
180.0
  0
ARC
  5
1A71
  8
0
 10
141.99999999999889
 20
128.0000000000004
 30
0.0
 40
1.999999999999031
 50
134.9999999999774
 51
180.00000000001219
  0
LINE
  5
1A72
  8
0
 10
139.99999999999989
 20
128.0
 30
0.0
 11
140.00000000000011
 21
50.999999999992461
 31
0.0
  0
ARC
  5
1A74
  8
0
 10
57.0
 20
179.0
 30
0.0
 40
1.000000000000008
 50
0.0
 51
24.469800521128299
  0
LINE
  5
1A75
  8
0
 10
58.0
 20
179.0
 30
0.0
 11
58.0
 21
161.0
 31
0.0
  0
ARC
  5
1A76
  8
0
 10
57.0
 20
161.0
 30
0.0
 40
1.0
 50
335.53019947931227
 51
0.0
  0
ARC
  5
1A7D
  8
0
 10
50.999999999994373
 20
179.0000000000087
 30
0.0
 40
0.9999999999912983
 50
89.99999999967757
 51
155.5301994796321
  0
ARC
  5
1A7F
  8
0
 10
57.000000000022169
 20
179.0000000000847
 30
0.0
 40
0.9999999999153377
 50
24.469800506328991
 51
90.000000001273449
  0
ARC
  5
1A81
  8
0
 10
51.0
 20
161.0
 30
0.0
 40
1.0
 50
180.0
 51
204.46980051743901
  0
LINE
  5
1A82
  8
0
 10
50.0
 20
179.0
 30
0.0
 11
50.0
 21
161.0
 31
0.0
  0
ARC
  5
1A83
  8
0
 10
51.0
 20
179.0
 30
0.0
 40
1.0
 50
155.5301994793081
 51
180.0
  0
ARC
  5
1A84
  8
0
 10
56.999999999999943
 20
160.99999999999989
 30
0.0
 40
0.9999999999999745
 50
270.0
 51
335.53019947931608
  0
ARC
  5
1A86
  8
0
 10
50.999999999816168
 20
160.99999999960269
 30
0.0
 40
0.9999999996027781
 50
204.46980050108559
 51
270.0000000105295
  0
ARC
  5
1A8A
  8
0
 10
88.000000000000767
 20
178.0000000000004
 30
0.0
 40
1.9999999999991469
 50
359.99999999999022
 51
45.000000000009003
  0
LINE
  5
1A8B
  8
0
 10
89.999999999999986
 20
162.0
 30
0.0
 11
89.999999999999986
 21
178.0
 31
0.0
  0
ARC
  5
1A8C
  8
0
 10
88.00000000001009
 20
161.99999999999579
 30
0.0
 40
1.9999999999899101
 50
314.99999999988069
 51
0.0000000001196906
  0
POLYLINE
  5
1A8F
  8
0
 10
66.999999999999957
 20
173.04999999999998
 30
0.0
 66
     1
 70
     8
  0
VERTEX
  8
0
  5
1C97
 10
67.0000
 20
173.050
 30
0.000000
  70
    32
  0
VERTEX
  8
0
  5
1C98
 10
66.8941
 20
173.049
 30
0.000000
  70
    32
  0
VERTEX
  8
0
  5
1C99
 10
66.7884
 20
173.046
 30
0.000000
  70
    32
  0
VERTEX
  8
0
  5
1C9A
 10
66.6827
 20
173.042
 30
0.000000
  70
    32
  0
VERTEX
  8
0
  5
1C9B
 10
66.5772
 20
173.035
 30
0.000000
  70
    32
  0
VERTEX
  8
0
  5
1C9C
 10
66.4720
 20
173.027
 30
0.000000
  70
    32
  0
VERTEX
  8
0
  5
1C9D
 10
66.3671
 20
173.017
 30
0.000000
  70
    32
  0
VERTEX
  8
0
  5
1C9E
 10
66.2626
 20
173.005
 30
0.000000
  70
    32
  0
VERTEX
  8
0
  5
1C9F
 10
66.1585
 20
172.991
 30
0.000000
  70
    32
  0
VERTEX
  8
0
  5
1CA0
 10
66.0549
 20
172.976
 30
0.000000
  70
    32
  0
VERTEX
  8
0
  5
1CA1
 10
65.9519
 20
172.959
 30
0.000000
  70
    32
  0
VERTEX
  8
0
  5
1CA2
 10
65.8496
 20
172.940
 30
0.000000
  70
    32
  0
VERTEX
  8
0
  5
1CA3
 10
65.7479
 20
172.919
 30
0.000000
  70
    32
  0
VERTEX
  8
0
  5
1CA4
 10
65.6470
 20
172.896
 30
0.000000
  70
    32
  0
VERTEX
  8
0
  5
1CA5
 10
65.5469
 20
172.872
 30
0.000000
  70
    32
  0
VERTEX
  8
0
  5
1CA6
 10
65.4476
 20
172.846
 30
0.000000
  70
    32
  0
VERTEX
  8
0
  5
1CA7
 10
65.3494
 20
172.818
 30
0.000000
  70
    32
  0
VERTEX
  8
0
  5
1CA8
 10
65.2521
 20
172.788
 30
0.000000
  70
    32
  0
VERTEX
  8
0
  5
1CA9
 10
65.1558
 20
172.757
 30
0.000000
  70
    32
  0
VERTEX
  8
0
  5
1CAA
 10
65.0607
 20
172.724
 30
0.000000
  70
    32
  0
VERTEX
  8
0
  5
1CAB
 10
64.9667
 20
172.690
 30
0.000000
  70
    32
  0
VERTEX
  8
0
  5
1CAC
 10
64.8740
 20
172.654
 30
0.000000
  70
    32
  0
VERTEX
  8
0
  5
1CAD
 10
64.7825
 20
172.616
 30
0.000000
  70
    32
  0
VERTEX
  8
0
  5
1CAE
 10
64.6924
 20
172.577
 30
0.000000
  70
    32
  0
VERTEX
  8
0
  5
1CAF
 10
64.6036
 20
172.536
 30
0.000000
  70
    32
  0
VERTEX
  8
0
  5
1CB0
 10
64.5163
 20
172.494
 30
0.000000
  70
    32
  0
VERTEX
  8
0
  5
1CB1
 10
64.4305
 20
172.450
 30
0.000000
  70
    32
  0
VERTEX
  8
0
  5
1CB2
 10
64.3463
 20
172.404
 30
0.000000
  70
    32
  0
VERTEX
  8
0
  5
1CB3
 10
64.2636
 20
172.358
 30
0.000000
  70
    32
  0
VERTEX
  8
0
  5
1CB4
 10
64.1826
 20
172.309
 30
0.000000
  70
    32
  0
VERTEX
  8
0
  5
1CB5
 10
64.1033
 20
172.260
 30
0.000000
  70
    32
  0
VERTEX
  8
0
  5
1CB6
 10
64.0258
 20
172.209
 30
0.000000
  70
    32
  0
VERTEX
  8
0
  5
1CB7
 10
63.9500
 20
172.157
 30
0.000000
  70
    32
  0
VERTEX
  8
0
  5
1CB8
 10
63.8761
 20
172.103
 30
0.000000
  70
    32
  0
VERTEX
  8
0
  5
1CB9
 10
63.8040
 20
172.048
 30
0.000000
  70
    32
  0
VERTEX
  8
0
  5
1CBA
 10
63.7339
 20
171.992
 30
0.000000
  70
    32
  0
VERTEX
  8
0
  5
1CBB
 10
63.6657
 20
171.935
 30
0.000000
  70
    32
  0
VERTEX
  8
0
  5
1CBC
 10
63.5996
 20
171.876
 30
0.000000
  70
    32
  0
VERTEX
  8
0
  5
1CBD
 10
63.5355
 20
171.817
 30
0.000000
  70
    32
  0
VERTEX
  8
0
  5
1CBE
 10
63.4735
 20
171.756
 30
0.000000
  70
    32
  0
VERTEX
  8
0
  5
1CBF
 10
63.4136
 20
171.694
 30
0.000000
  70
    32
  0
VERTEX
  8
0
  5
1CC0
 10
63.3558
 20
171.632
 30
0.000000
  70
    32
  0
VERTEX
  8
0
  5
1CC1
 10
63.3003
 20
171.568
 30
0.000000
  70
    32
  0
VERTEX
  8
0
  5
1CC2
 10
63.2470
 20
171.503
 30
0.000000
  70
    32
  0
VERTEX
  8
0
  5
1CC3
 10
63.1960
 20
171.438
 30
0.000000
  70
    32
  0
VERTEX
  8
0
  5
1CC4
 10
63.1472
 20
171.371
 30
0.000000
  70
    32
  0
VERTEX
  8
0
  5
1CC5
 10
63.1008
 20
171.304
 30
0.000000
  70
    32
  0
VERTEX
  8
0
  5
1CC6
 10
63.0567
 20
171.236
 30
0.000000
  70
    32
  0
VERTEX
  8
0
  5
1CC7
 10
63.0150
 20
171.167
 30
0.000000
  70
    32
  0
VERTEX
  8
0
  5
1CC8
 10
62.9757
 20
171.098
 30
0.000000
  70
    32
  0
VERTEX
  8
0
  5
1CC9
 10
62.9388
 20
171.028
 30
0.000000
  70
    32
  0
VERTEX
  8
0
  5
1CCA
 10
62.9044
 20
170.957
 30
0.000000
  70
    32
  0
VERTEX
  8
0
  5
1CCB
 10
62.8724
 20
170.885
 30
0.000000
  70
    32
  0
VERTEX
  8
0
  5
1CCC
 10
62.8429
 20
170.813
 30
0.000000
  70
    32
  0
VERTEX
  8
0
  5
1CCD
 10
62.8159
 20
170.741
 30
0.000000
  70
    32
  0
VERTEX
  8
0
  5
1CCE
 10
62.7915
 20
170.668
 30
0.000000
  70
    32
  0
VERTEX
  8
0
  5
1CCF
 10
62.7695
 20
170.595
 30
0.000000
  70
    32
  0
VERTEX
  8
0
  5
1CD0
 10
62.7502
 20
170.521
 30
0.000000
  70
    32
  0
VERTEX
  8
0
  5
1CD1
 10
62.7333
 20
170.448
 30
0.000000
  70
    32
  0
VERTEX
  8
0
  5
1CD2
 10
62.7191
 20
170.373
 30
0.000000
  70
    32
  0
VERTEX
  8
0
  5
1CD3
 10
62.7074
 20
170.299
 30
0.000000
  70
    32
  0
VERTEX
  8
0
  5
1CD4
 10
62.6983
 20
170.224
 30
0.000000
  70
    32
  0
VERTEX
  8
0
  5
1CD5
 10
62.6918
 20
170.150
 30
0.000000
  70
    32
  0
VERTEX
  8
0
  5
1CD6
 10
62.6879
 20
170.075
 30
0.000000
  70
    32
  0
VERTEX
  8
0
  5
1CD7
 10
62.6866
 20
170.000
 30
0.000000
  70
    32
  0
VERTEX
  8
0
  5
1CD8
 10
62.6879
 20
169.925
 30
0.000000
  70
    32
  0
VERTEX
  8
0
  5
1CD9
 10
62.6918
 20
169.850
 30
0.000000
  70
    32
  0
VERTEX
  8
0
  5
1CDA
 10
62.6983
 20
169.776
 30
0.000000
  70
    32
  0
VERTEX
  8
0
  5
1CDB
 10
62.7074
 20
169.701
 30
0.000000
  70
    32
  0
VERTEX
  8
0
  5
1CDC
 10
62.7191
 20
169.627
 30
0.000000
  70
    32
  0
VERTEX
  8
0
  5
1CDD
 10
62.7333
 20
169.552
 30
0.000000
  70
    32
  0
VERTEX
  8
0
  5
1CDE
 10
62.7502
 20
169.479
 30
0.000000
  70
    32
  0
VERTEX
  8
0
  5
1CDF
 10
62.7695
 20
169.405
 30
0.000000
  70
    32
  0
VERTEX
  8
0
  5
1CE0
 10
62.7915
 20
169.332
 30
0.000000
  70
    32
  0
VERTEX
  8
0
  5
1CE1
 10
62.8159
 20
169.259
 30
0.000000
  70
    32
  0
VERTEX
  8
0
  5
1CE2
 10
62.8429
 20
169.187
 30
0.000000
  70
    32
  0
VERTEX
  8
0
  5
1CE3
 10
62.8724
 20
169.115
 30
0.000000
  70
    32
  0
VERTEX
  8
0
  5
1CE4
 10
62.9044
 20
169.043
 30
0.000000
  70
    32
  0
VERTEX
  8
0
  5
1CE5
 10
62.9388
 20
168.972
 30
0.000000
  70
    32
  0
VERTEX
  8
0
  5
1CE6
 10
62.9757
 20
168.902
 30
0.000000
  70
    32
  0
VERTEX
  8
0
  5
1CE7
 10
63.0150
 20
168.833
 30
0.000000
  70
    32
  0
VERTEX
  8
0
  5
1CE8
 10
63.0567
 20
168.764
 30
0.000000
  70
    32
  0
VERTEX
  8
0
  5
1CE9
 10
63.1008
 20
168.696
 30
0.000000
  70
    32
  0
VERTEX
  8
0
  5
1CEA
 10
63.1472
 20
168.629
 30
0.000000
  70
    32
  0
VERTEX
  8
0
  5
1CEB
 10
63.1960
 20
168.562
 30
0.000000
  70
    32
  0
VERTEX
  8
0
  5
1CEC
 10
63.2470
 20
168.497
 30
0.000000
  70
    32
  0
VERTEX
  8
0
  5
1CED
 10
63.3003
 20
168.432
 30
0.000000
  70
    32
  0
VERTEX
  8
0
  5
1CEE
 10
63.3558
 20
168.368
 30
0.000000
  70
    32
  0
VERTEX
  8
0
  5
1CEF
 10
63.4136
 20
168.306
 30
0.000000
  70
    32
  0
VERTEX
  8
0
  5
1CF0
 10
63.4735
 20
168.244
 30
0.000000
  70
    32
  0
VERTEX
  8
0
  5
1CF1
 10
63.5355
 20
168.183
 30
0.000000
  70
    32
  0
VERTEX
  8
0
  5
1CF2
 10
63.5996
 20
168.124
 30
0.000000
  70
    32
  0
VERTEX
  8
0
  5
1CF3
 10
63.6657
 20
168.065
 30
0.000000
  70
    32
  0
VERTEX
  8
0
  5
1CF4
 10
63.7339
 20
168.008
 30
0.000000
  70
    32
  0
VERTEX
  8
0
  5
1CF5
 10
63.8040
 20
167.952
 30
0.000000
  70
    32
  0
VERTEX
  8
0
  5
1CF6
 10
63.8761
 20
167.897
 30
0.000000
  70
    32
  0
VERTEX
  8
0
  5
1CF7
 10
63.9500
 20
167.843
 30
0.000000
  70
    32
  0
VERTEX
  8
0
  5
1CF8
 10
64.0258
 20
167.791
 30
0.000000
  70
    32
  0
VERTEX
  8
0
  5
1CF9
 10
64.1033
 20
167.740
 30
0.000000
  70
    32
  0
VERTEX
  8
0
  5
1CFA
 10
64.1826
 20
167.691
 30
0.000000
  70
    32
  0
VERTEX
  8
0
  5
1CFB
 10
64.2636
 20
167.642
 30
0.000000
  70
    32
  0
VERTEX
  8
0
  5
1CFC
 10
64.3463
 20
167.596
 30
0.000000
  70
    32
  0
VERTEX
  8
0
  5
1CFD
 10
64.4305
 20
167.550
 30
0.000000
  70
    32
  0
VERTEX
  8
0
  5
1CFE
 10
64.5163
 20
167.506
 30
0.000000
  70
    32
  0
VERTEX
  8
0
  5
1CFF
 10
64.6036
 20
167.464
 30
0.000000
  70
    32
  0
VERTEX
  8
0
  5
1D00
 10
64.6924
 20
167.423
 30
0.000000
  70
    32
  0
VERTEX
  8
0
  5
1D01
 10
64.7825
 20
167.384
 30
0.000000
  70
    32
  0
VERTEX
  8
0
  5
1D02
 10
64.8740
 20
167.346
 30
0.000000
  70
    32
  0
VERTEX
  8
0
  5
1D03
 10
64.9667
 20
167.310
 30
0.000000
  70
    32
  0
VERTEX
  8
0
  5
1D04
 10
65.0607
 20
167.276
 30
0.000000
  70
    32
  0
VERTEX
  8
0
  5
1D05
 10
65.1558
 20
167.243
 30
0.000000
  70
    32
  0
VERTEX
  8
0
  5
1D06
 10
65.2521
 20
167.212
 30
0.000000
  70
    32
  0
VERTEX
  8
0
  5
1D07
 10
65.3494
 20
167.182
 30
0.000000
  70
    32
  0
VERTEX
  8
0
  5
1D08
 10
65.4476
 20
167.154
 30
0.000000
  70
    32
  0
VERTEX
  8
0
  5
1D09
 10
65.5469
 20
167.128
 30
0.000000
  70
    32
  0
VERTEX
  8
0
  5
1D0A
 10
65.6470
 20
167.104
 30
0.000000
  70
    32
  0
VERTEX
  8
0
  5
1D0B
 10
65.7479
 20
167.081
 30
0.000000
  70
    32
  0
VERTEX
  8
0
  5
1D0C
 10
65.8496
 20
167.060
 30
0.000000
  70
    32
  0
VERTEX
  8
0
  5
1D0D
 10
65.9519
 20
167.041
 30
0.000000
  70
    32
  0
VERTEX
  8
0
  5
1D0E
 10
66.0549
 20
167.024
 30
0.000000
  70
    32
  0
VERTEX
  8
0
  5
1D0F
 10
66.1585
 20
167.009
 30
0.000000
  70
    32
  0
VERTEX
  8
0
  5
1D10
 10
66.2626
 20
166.995
 30
0.000000
  70
    32
  0
VERTEX
  8
0
  5
1D11
 10
66.3671
 20
166.983
 30
0.000000
  70
    32
  0
VERTEX
  8
0
  5
1D12
 10
66.4720
 20
166.973
 30
0.000000
  70
    32
  0
VERTEX
  8
0
  5
1D13
 10
66.5772
 20
166.965
 30
0.000000
  70
    32
  0
VERTEX
  8
0
  5
1D14
 10
66.6827
 20
166.958
 30
0.000000
  70
    32
  0
VERTEX
  8
0
  5
1D15
 10
66.7884
 20
166.954
 30
0.000000
  70
    32
  0
VERTEX
  8
0
  5
1D16
 10
66.8941
 20
166.951
 30
0.000000
  70
    32
  0
VERTEX
  8
0
  5
1D17
 10
67.0000
 20
166.950
 30
0.000000
  70
    32
  0
SEQEND
  8
0
  5
1D18
  0
ARC
  5
1A93
  8
0
 10
88.000000000000199
 20
178.0000000000006
 30
0.0
 40
1.9999999999994329
 50
44.999999999990862
 51
90.000000000006509
  0
LINE
  5
1A94
  8
0
 10
87.999999999999972
 20
180.0
 30
0.0
 11
50.999999999994373
 21
180.0
 31
0.0
  0
ARC
  5
1A96
  8
0
 10
88.000000000000085
 20
161.99999999999969
 30
0.0
 40
1.999999999999774
 50
269.99999999999682
 51
315.00000000000477
  0
LINE
  5
1A97
  8
0
 10
50.999999999816168
 20
160.0
 30
0.0
 11
87.999999999999972
 21
160.0
 31
0.0
  0
LINE
  5
1A98
  8
0
 10
67.0
 20
173.05000000000001
 30
0.0
 11
79.999999999999972
 21
173.05000000000001
 31
0.0
  0
LINE
  5
1A99
  8
0
 10
79.999999999999972
 20
166.94999999999999
 30
0.0
 11
67.0
 21
166.94999999999999
 31
0.0
  0
ARC
  5
1A9A
  8
0
 10
79.999999999999972
 20
170.0
 30
0.0
 40
3.0500000000000109
 50
270.0
 51
90.0
  0
LINE
  5
1A9B
  8
1
 10
150.0
 20
135.0
 30
0.0
 11
150.0
 21
44.999999999999993
 31
0.0
  0
LINE
  5
1A9C
  8
1
 10
45.0
 20
170.0
 30
0.0
 11
94.999999999999986
 21
170.0
 31
0.0
  0
LINE
  5
1A9D
  8
1
 10
47.0
 20
120.0
 30
0.0
 11
61.0
 21
120.0
 31
0.0
  0
LINE
  5
1A9E
  8
1
 10
47.0
 20
67.000000000000014
 30
0.0
 11
61.0
 21
67.000000000000014
 31
0.0
  0
LINE
  5
1A9F
  8
1
 10
67.0
 20
46.999999999999993
 30
0.0
 11
67.0
 21
60.999999999999993
 31
0.0
  0
LINE
  5
1AA0
  8
1
 10
79.999999999999972
 20
46.999999999999993
 30
0.0
 11
79.999999999999972
 21
60.999999999999993
 31
0.0
  0
LINE
  5
1AF6
  8
1
 10
79.999999999999972
 20
163.94999999999999
 30
0.0
 11
79.999999999999972
 21
176.05000000000001
 31
0.0
  0
LINE
  5
1AF7
  8
1
 10
67.0
 20
163.94999999999999
 30
0.0
 11
67.0
 21
176.05000000000001
 31
0.0
  0
LINE
  5
1AF8
  8
1
 10
143.9499999999999
 20
67.000000000000014
 30
0.0
 11
156.05000000000001
 21
67.000000000000014
 31
0.0
  0
LINE
  5
1AF9
  8
1
 10
143.9499999999999
 20
120.0
 30
0.0
 11
156.05000000000001
 21
120.0
 31
0.0
  0
ENDSEC
  0
EOF
