  0
SECTION
  2
HEADER
  9
$ACADVER
  1
AC1009
  9
$INSBASE
 10
0.0
 20
0.0
 30
0.0
  9
$EXTMIN
 10
0.0
 20
-2.960436562073669
 30
0.0
  9
$EXTMAX
 10
91.870367667319726
 20
44.596185938879778
 30
0.0
  9
$LIMMIN
 10
0.0
 20
0.0
  9
$LIMMAX
 10
187.5
 20
135.0
  9
$ORTHOMODE
 70
     1
  9
$REGENMODE
 70
     1
  9
$FILLMODE
 70
     1
  9
$QTEXTMODE
 70
     0
  9
$MIRRTEXT
 70
     0
  9
$DRAGMODE
 70
     2
  9
$LTSCALE
 40
5.0
  9
$OSMODE
 70
  3071
  9
$ATTMODE
 70
     1
  9
$TEXTSIZE
 40
0.2
  9
$TRACEWID
 40
0.05
  9
$TEXTSTYLE
  7
STANDARD
  9
$CLAYER
  8
0
  9
$CELTYPE
  6
BYLAYER
  9
$CECOLOR
 62
   256
  9
$DIMSCALE
 40
0.5
  9
$DIMASZ
 40
3.0
  9
$DIMEXO
 40
2.0
  9
$DIMDLI
 40
0.38
  9
$DIMRND
 40
0.0
  9
$DIMDLE
 40
0.0
  9
$DIMEXE
 40
2.0
  9
$DIMTP
 40
0.0
  9
$DIMTM
 40
0.0
  9
$DIMTXT
 40
3.0
  9
$DIMCEN
 40
0.0
  9
$DIMTSZ
 40
0.0
  9
$DIMTOL
 70
     0
  9
$DIMLIM
 70
     0
  9
$DIMTIH
 70
     0
  9
$DIMTOH
 70
     0
  9
$DIMSE1
 70
     0
  9
$DIMSE2
 70
     0
  9
$DIMTAD
 70
     1
  9
$DIMZIN
 70
     0
  9
$DIMBLK
  1

  9
$DIMASO
 70
     0
  9
$DIMSHO
 70
     0
  9
$DIMPOST
  1

  9
$DIMAPOST
  1

  9
$DIMALT
 70
     0
  9
$DIMALTD
 70
     2
  9
$DIMALTF
 40
25.399999999999999
  9
$DIMLFAC
 40
1.0
  9
$DIMTOFL
 70
     1
  9
$DIMTVP
 40
1.6000000000000001
  9
$DIMTIX
 70
     1
  9
$DIMSOXD
 70
     0
  9
$DIMSAH
 70
     0
  9
$DIMBLK1
  1

  9
$DIMBLK2
  1

  9
$DIMSTYLE
  2
STANDARD
  9
$DIMCLRD
 70
     0
  9
$DIMCLRE
 70
     0
  9
$DIMCLRT
 70
     0
  9
$DIMTFAC
 40
1.0
  9
$DIMGAP
 40
0.09
  9
$LUNITS
 70
     2
  9
$LUPREC
 70
     4
  9
$SKETCHINC
 40
0.1
  9
$FILLETRAD
 40
0.5
  9
$AUNITS
 70
     0
  9
$AUPREC
 70
     4
  9
$MENU
  1
E:\r13\win\SUPPORT\ACAD
  9
$ELEVATION
 40
0.0
  9
$PELEVATION
 40
0.0
  9
$THICKNESS
 40
0.0
  9
$LIMCHECK
 70
     0
  9
$BLIPMODE
 70
     0
  9
$CHAMFERA
 40
0.0
  9
$CHAMFERB
 40
0.0
  9
$SKPOLY
 70
     0
  9
$TDCREATE
 40
2449840.612928241
  9
$TDUPDATE
 40
2456598.4697474418
  9
$TDINDWG
 40
0.057961169
  9
$TDUSRTIMER
 40
0.057961169
  9
$USRTIMER
 70
     1
  9
$ANGBASE
 50
0.0
  9
$ANGDIR
 70
     0
  9
$PDMODE
 70
     0
  9
$PDSIZE
 40
0.0
  9
$PLINEWID
 40
0.0
  9
$COORDS
 70
     1
  9
$SPLFRAME
 70
     0
  9
$SPLINETYPE
 70
     6
  9
$SPLINESEGS
 70
     8
  9
$ATTDIA
 70
     0
  9
$ATTREQ
 70
     1
  9
$HANDLING
 70
     1
  9
$HANDSEED
  5
530
  9
$SURFTAB1
 70
     6
  9
$SURFTAB2
 70
     6
  9
$SURFTYPE
 70
     6
  9
$SURFU
 70
     6
  9
$SURFV
 70
     6
  9
$UCSNAME
  2

  9
$UCSORG
 10
0.0
 20
0.0
 30
0.0
  9
$UCSXDIR
 10
1.0
 20
0.0
 30
0.0
  9
$UCSYDIR
 10
0.0
 20
1.0
 30
0.0
  9
$PUCSNAME
  2

  9
$PUCSORG
 10
0.0
 20
0.0
 30
0.0
  9
$PUCSXDIR
 10
1.0
 20
0.0
 30
0.0
  9
$PUCSYDIR
 10
0.0
 20
1.0
 30
0.0
  9
$USERI1
 70
     3
  9
$USERI2
 70
     1
  9
$USERI3
 70
     0
  9
$USERI4
 70
     0
  9
$USERI5
 70
     0
  9
$USERR1
 40
0.5
  9
$USERR2
 40
3.0
  9
$USERR3
 40
3.0
  9
$USERR4
 40
3.0
  9
$USERR5
 40
10.0
  9
$WORLDVIEW
 70
     1
  9
$SHADEDGE
 70
     3
  9
$SHADEDIF
 70
    70
  9
$TILEMODE
 70
     1
  9
$MAXACTVP
 70
    16
  9
$PLIMCHECK
 70
     0
  9
$PEXTMIN
 10
1.0000000000000000E+020
 20
1.0000000000000000E+020
 30
1.0000000000000000E+020
  9
$PEXTMAX
 10
-1.0000000000000000E+020
 20
-1.0000000000000000E+020
 30
-1.0000000000000000E+020
  9
$PLIMMIN
 10
0.0
 20
0.0
  9
$PLIMMAX
 10
12.0
 20
9.0
  9
$UNITMODE
 70
     0
  9
$VISRETAIN
 70
     0
  9
$PLINEGEN
 70
     0
  9
$PSLTSCALE
 70
     0
  0
ENDSEC
  0
SECTION
  2
TABLES
  0
TABLE
  2
VPORT
 70
     1
  0
VPORT
  2
*ACTIVE
 70
     0
 10
0.0
 20
0.0
 11
1.0
 21
1.0
 12
97.570150770051072
 22
66.014785922033241
 13
0.0
 23
0.0
 14
5.0
 24
5.0
 15
10.0
 25
10.0
 16
0.0
 26
0.0
 36
1.0
 17
0.0
 27
0.0
 37
0.0
 40
139.20783109903601
 41
1.831871345029239
 42
50.0
 43
0.0
 44
0.0
 50
0.0
 51
0.0
 71
     0
 72
   100
 73
     1
 74
     0
 75
     0
 76
     0
 77
     0
 78
     0
  0
ENDTAB
  0
TABLE
  2
LTYPE
 70
     4
  0
LTYPE
  2
CONTINUOUS
 70
     0
  3
Solid Line
 72
    65
 73
     0
 40
0.0
  0
LTYPE
  2
CENTER
 70
     0
  3
____ _ ____ _ ____ _ ____ _ ____ _ ____ _ ____
 72
    65
 73
     4
 40
2.0
 49
1.25
 49
-0.25
 49
0.25
 49
-0.25
  0
LTYPE
  2
HIDDEN
 70
     0
  3
_ _ _ _ _ _ _ _ _ _ _ _ _ _ _ _ _ _ _ _ _ _ _
 72
    65
 73
     2
 40
0.375
 49
0.25
 49
-0.125
  0
LTYPE
  2
PHANTOM2
 70
     0
  3
___ _ _ ___ _ _ ___ _ _ ___ _ _
 72
    65
 73
     6
 40
1.25
 49
0.625
 49
-0.125
 49
0.125
 49
-0.125
 49
0.125
 49
-0.125
  0
ENDTAB
  0
TABLE
  2
LAYER
 70
     4
  0
LAYER
  2
0
 70
     0
 62
     7
  6
CONTINUOUS
  0
LAYER
  2
1
 70
     0
 62
     1
  6
CENTER
  0
LAYER
  2
3
 70
     0
 62
     3
  6
CONTINUOUS
  0
LAYER
  2
2
 70
     0
 62
     2
  6
HIDDEN
  0
ENDTAB
  0
TABLE
  2
STYLE
 70
     2
  0
STYLE
  2
STANDARD
 70
     0
 40
0.0
 41
1.0
 50
0.0
 71
     0
 42
0.2
  3
TXT
  4
BIGFONT
  0
STYLE
  2
STANDARD1
 70
     0
 40
0.0
 41
1.0
 50
0.0
 71
     0
 42
3.0
  3
txt
  4

  0
ENDTAB
  0
TABLE
  2
VIEW
 70
     1
  0
VIEW
  2
OLE1
 70
     0
 40
53.885402232327259
 10
69.540484788654268
 20
34.5552184958159
 41
105.042429668081
 11
0.0
 21
0.0
 31
1.0
 12
0.0
 22
0.0
 32
0.0
 42
50.0
 43
0.0
 44
0.0
 50
0.0
 71
     0
  0
ENDTAB
  0
TABLE
  2
UCS
 70
     0
  0
ENDTAB
  0
TABLE
  2
APPID
 70
     3
  0
APPID
  2
ACAD
 70
     0
  0
APPID
  2
ACAD_MLEADERVER
 70
     0
  0
APPID
  2
ACAD_NAV_VCDISPLAY
 70
     0
  0
ENDTAB
  0
TABLE
  2
DIMSTYLE
 70
     1
  0
DIMSTYLE
  2
STANDARD
 70
     0
  3

  4

  5

  6

  7

 40
1.0
 41
0.18
 42
0.0625
 43
0.38
 44
0.18
 45
0.0
 46
0.0
 47
0.0
 48
0.0
140
0.18
141
0.09
142
0.0
143
25.399999999999999
144
1.0
145
0.0
146
1.0
147
0.09
 71
     0
 72
     0
 73
     1
 74
     1
 75
     0
 76
     0
 77
     0
 78
     0
170
     0
171
     2
172
     0
173
     0
174
     0
175
     0
176
     0
177
     0
178
     0
  0
ENDTAB
  0
ENDSEC
  0
SECTION
  2
BLOCKS
  0
BLOCK
  8
0
  2
$MODEL_SPACE
 70
     0
 10
0.0
 20
0.0
 30
0.0
  3
$MODEL_SPACE
  1

  0
ENDBLK
  5
1A2
  8
0
  0
BLOCK
 67
     1
  8
0
  2
$PAPER_SPACE
 70
     0
 10
0.0
 20
0.0
 30
0.0
  3
$PAPER_SPACE
  1

  0
ENDBLK
  5
1A0
 67
     1
  8
0
  0
BLOCK
  8
0
  2
*X0
 70
     1
 10
0.0
 20
0.0
 30
0.0
  3
*X0
  1

  0
LINE
  5
4E1
  8
0
 62
     0
 10
62.150367667319728
 20
38.612348651763298
 30
0.0
 11
60.166530380203227
 21
40.596185938879792
 31
0.0
  0
LINE
  5
4E2
  8
0
 62
     0
 10
62.150367667319721
 20
35.960698222313738
 30
0.0
 11
58.590367667319747
 21
39.520698222313712
 31
0.0
  0
LINE
  5
4E3
  8
0
 62
     0
 10
62.150367667319728
 20
33.309047792864192
 30
0.0
 11
58.590367667319761
 21
36.869047792864158
 31
0.0
  0
LINE
  5
4E4
  8
0
 62
     0
 10
62.150367667319728
 20
30.657397363414638
 30
0.0
 11
58.590367667319761
 21
34.217397363414612
 31
0.0
  0
LINE
  5
4E5
  8
0
 62
     0
 10
62.150367667319721
 20
28.005746933965089
 30
0.0
 11
58.590367667319747
 21
31.565746933965048
 31
0.0
  0
LINE
  5
4E6
  8
0
 62
     0
 10
62.150367667319713
 20
25.354096504515532
 30
0.0
 11
58.590367667319747
 21
28.914096504515499
 31
0.0
  0
LINE
  5
4E7
  8
0
 62
     0
 10
62.150367667319721
 20
22.702446075065978
 30
0.0
 11
58.590367667319747
 21
26.262446075065949
 31
0.0
  0
LINE
  5
4E8
  8
0
 62
     0
 10
61.604977374056382
 20
20.596185938879781
 30
0.0
 11
58.590367667319747
 21
23.610795645616399
 31
0.0
  0
LINE
  5
4E9
  8
0
 62
     0
 10
58.953326944606808
 20
20.596185938879788
 30
0.0
 11
58.590367667319747
 21
20.959145216166839
 31
0.0
  0
ENDBLK
  5
4EB
  8
0
  0
BLOCK
  8
0
  2
*X1
 70
     1
 10
0.0
 20
0.0
 30
0.0
  3
*X1
  1

  0
LINE
  5
4ED
  8
0
 62
     0
 10
60.370942380623099
 20
20.596185938879799
 30
0.0
 11
62.150367667319699
 21
22.375611225576389
 31
0.0
  0
LINE
  5
4EE
  8
0
 62
     0
 10
58.59036766731974
 20
21.46726165502599
 30
0.0
 11
62.150367667319713
 21
25.02726165502596
 31
0.0
  0
LINE
  5
4EF
  8
0
 62
     0
 10
58.59036766731974
 20
24.118912084475539
 30
0.0
 11
62.150367667319699
 21
27.678912084475499
 31
0.0
  0
LINE
  5
4F0
  8
0
 62
     0
 10
58.59036766731974
 20
26.770562513925089
 30
0.0
 11
62.150367667319713
 21
30.330562513925059
 31
0.0
  0
LINE
  5
4F1
  8
0
 62
     0
 10
58.59036766731974
 20
29.422212943374639
 30
0.0
 11
62.150367667319699
 21
32.982212943374613
 31
0.0
  0
LINE
  5
4F2
  8
0
 62
     0
 10
58.59036766731974
 20
32.073863372824192
 30
0.0
 11
62.150367667319721
 21
35.633863372824173
 31
0.0
  0
LINE
  5
4F3
  8
0
 62
     0
 10
58.590367667319747
 20
34.725513802273753
 30
0.0
 11
62.150367667319699
 21
38.285513802273712
 31
0.0
  0
LINE
  5
4F4
  8
0
 62
     0
 10
58.590367667319747
 20
37.37716423172332
 30
0.0
 11
61.809389374476218
 21
40.596185938879778
 31
0.0
  0
LINE
  5
4F5
  8
0
 62
     0
 10
58.590367667319747
 20
40.028814661172859
 30
0.0
 11
59.157738945026679
 21
40.596185938879799
 31
0.0
  0
ENDBLK
  5
4F7
  8
0
  0
ENDSEC
  0
SECTION
  2
ENTITIES
  0
CIRCLE
  5
277
  8
0
 10
26.470531446847261
 20
30.596185938879788
 30
0.0
 40
9.2800000000000011
  0
LINE
  5
29D
  8
0
 10
58.59036766731974
 20
40.596185938879778
 30
0.0
 11
58.59036766731974
 21
20.596185938879788
 31
0.0
  0
LINE
  5
29E
  8
0
 10
57.870367667319719
 20
21.316185938879759
 30
0.0
 11
57.870367667319719
 21
39.876185938879793
 31
0.0
  0
LINE
  5
29F
  8
0
 10
62.150367667319713
 20
20.596185938879788
 30
0.0
 11
62.150367667319713
 21
40.596185938879778
 31
0.0
  0
LINE
  5
2A0
  8
0
 10
62.870367667319719
 20
39.876185938879793
 30
0.0
 11
62.870367667319719
 21
21.316185938879759
 31
0.0
  0
LINE
  5
2A1
  8
0
 10
85.670367667319596
 20
33.096185938879763
 30
0.0
 11
85.670367667319638
 21
28.096185938879842
 31
0.0
  0
LINE
  5
2A3
  8
0
 10
87.870367667319726
 20
32.096185938879792
 30
0.0
 11
87.870367667319726
 21
29.096185938879788
 31
0.0
  0
LINE
  5
2A4
  8
3
 10
86.103367667319418
 20
28.529185938879579
 30
0.0
 11
66.887967667319714
 21
28.529185938879611
 31
0.0
  0
LINE
  5
2A5
  8
3
 10
86.103367667319446
 20
32.663185938879991
 30
0.0
 11
66.887967667319714
 21
32.663185938879991
 31
0.0
  0
LINE
  5
2A6
  8
0
 10
66.887967667319714
 20
33.096185938879792
 30
0.0
 11
66.887967667319714
 21
28.09618593887981
 31
0.0
  0
LINE
  5
303
  8
0
 10
58.59036766731974
 20
40.596185938879778
 30
0.0
 11
62.150367667319728
 21
40.596185938879778
 31
0.0
  0
LINE
  5
304
  8
0
 10
57.870367667319719
 20
39.876185938879793
 30
0.0
 11
58.59036766731974
 21
40.596185938879778
 31
0.0
  0
LINE
  5
305
  8
0
 10
62.150367667319728
 20
40.596185938879778
 30
0.0
 11
62.870367667319719
 21
39.876185938879793
 31
0.0
  0
LINE
  5
306
  8
0
 10
57.870367667319719
 20
21.316185938879759
 30
0.0
 11
58.59036766731974
 21
20.596185938879788
 31
0.0
  0
LINE
  5
307
  8
0
 10
58.59036766731974
 20
20.596185938879788
 30
0.0
 11
62.150367667319713
 21
20.596185938879788
 31
0.0
  0
LINE
  5
308
  8
0
 10
62.150367667319713
 20
20.596185938879788
 30
0.0
 11
62.870367667319719
 21
21.316185938879759
 31
0.0
  0
LINE
  5
309
  8
0
 10
87.870367667319726
 20
29.096185938879788
 30
0.0
 11
86.670367667319709
 21
29.096185938879788
 31
0.0
  0
LINE
  5
30C
  8
0
 10
86.670367667319724
 20
32.096185938879792
 30
0.0
 11
87.870367667319698
 21
32.096185938879792
 31
0.0
  0
LINE
  5
30D
  8
0
 10
85.670367667319724
 20
33.096185938879763
 30
0.0
 11
62.870367667319691
 21
33.096185938879792
 31
0.0
  0
LINE
  5
30E
  8
0
 10
85.67036766731961
 20
28.09618593887981
 30
0.0
 11
62.870367667319719
 21
28.09618593887981
 31
0.0
  0
CIRCLE
  5
337
  8
0
 10
26.470531446847261
 20
30.596185938879788
 30
0.0
 40
10.0
  0
LINE
  5
351
  8
0
 10
86.670367667319724
 20
32.096185938879792
 30
0.0
 11
86.670367667319724
 21
29.096185938879788
 31
0.0
  0
LINE
  5
358
  8
0
 10
85.670367667319667
 20
33.096185938879842
 30
0.0
 11
86.670367667319724
 21
32.096185938879728
 31
0.0
  0
LINE
  5
359
  8
0
 10
85.670367667319638
 20
28.096185938879842
 30
0.0
 11
86.670367667319724
 21
29.096185938879898
 31
0.0
  0
CIRCLE
  5
370
  8
2
 10
26.470531446847261
 20
30.596185938879788
 30
0.0
 40
1.5001695746165611
  0
CIRCLE
  5
371
  8
2
 10
26.470531446847261
 20
30.596185938879788
 30
0.0
 40
2.070016663534112
  0
CIRCLE
  5
372
  8
2
 10
26.470531446847261
 20
30.596185938879788
 30
0.0
 40
2.5003227765157381
  0
LINE
  5
375
  8
1
 10
12.470531446847261
 20
30.596185938879788
 30
0.0
 11
40.470531446847261
 21
30.596185938879788
 31
0.0
  0
LINE
  5
376
  8
1
 10
26.470531446847261
 20
44.596185938879778
 30
0.0
 11
26.470531446847261
 21
16.596185938879781
 31
0.0
  0
LINE
  5
37A
  8
1
 10
53.870367667319712
 20
30.596185938879788
 30
0.0
 11
91.870367667319726
 21
30.596185938879788
 31
0.0
  0
INSERT
  5
3CA
  8
3
  6
CONTINUOUS
  2
*X0
 10
0.0
 20
0.0
 30
0.0
1001
ACAD
1000
HATCH
1002
{
1070
    19
1000
ANSI31
1040
15.0
1040
1.5707963267948959
1000
R14_HATCH_DATA
1000
3CA
1011
1.0
1021
0.0
1031
0.0
1021
0.0
1031
0.0
1011
0.0
1021
0.0
1031
0.0
1021
1.0
1031
0.0
1011
0.0
1021
0.0
1031
0.0
1021
0.0
1031
1.0
1040
0.0
1010
0.0
1020
0.0
1030
1.0
1000
ANSI31
1070
     0
1070
     0
1071
        1
1071
        7
1070
     0
1070
     1
1071
        4
1040
62.150367667319721
1040
40.596185938879778
1040
58.590367667319747
1040
40.596185938879792
1040
58.590367667319747
1040
20.596185938879781
1040
62.150367667319721
1040
20.596185938879781
1071
        0
1070
     0
1070
     1
1040
1.5707963267948959
1040
15.0
1070
     0
1070
     1
1040
2.3561944901923439
1040
0.0000000000000071
1040
0.0
1040
-1.325825214724776
1040
-1.325825214724776
1070
     0
1040
0.1014217910460012
1071
        1
1040
60.500212969998017
1040
34.868968764855261
1040
0.0
1002
}
  0
INSERT
  5
3CB
  8
3
  6
CONTINUOUS
  2
*X1
 10
0.0
 20
0.0
 30
0.0
1001
ACAD
1000
HATCH
1002
{
1070
    19
1000
ANSI31
1040
15.0
1040
0.0
1000
R14_HATCH_DATA
1000
3CB
1011
1.0
1021
0.0
1031
0.0
1021
0.0
1031
0.0
1011
0.0
1021
0.0
1031
0.0
1021
1.0
1031
0.0
1011
0.0
1021
0.0
1031
0.0
1021
0.0
1031
1.0
1040
0.0
1010
0.0
1020
0.0
1030
1.0
1000
ANSI31
1070
     0
1070
     0
1071
        1
1071
        7
1070
     0
1070
     1
1071
        4
1040
58.590367667319747
1040
20.596185938879788
1040
62.150367667319713
1040
20.596185938879788
1040
62.150367667319721
1040
40.596185938879778
1040
58.590367667319747
1040
40.596185938879792
1071
        0
1070
     0
1070
     1
1040
0.0
1040
15.0
1070
     0
1070
     1
1040
0.7853981633974483
1040
0.0000000000000071
1040
0.0
1040
-1.325825214724776
1040
1.325825214724776
1070
     0
1040
0.1014217910460012
1071
        1
1040
59.99274677309387
1040
34.260438076235353
1040
0.0
1002
}
  0
TEXT
  5
487
  8
0
 62
     3
 10
0.0
 20
0.0
 30
0.0
 40
10.0
  1
BTS-M5x25
  7
STANDARD1
  0
ENDSEC
  0
EOF
