  0
SECTION
  2
HEADER
  9
$ACADVER
  1
AC1009
  9
$INSBASE
 10
0.0
 20
0.0
 30
0.0
  9
$EXTMIN
 10
0.0
 20
-2.960436562073669
 30
0.0
  9
$EXTMAX
 10
126.5915737719176
 20
43.17182767398517
 30
0.0
  9
$LIMMIN
 10
0.0
 20
0.0
  9
$LIMMAX
 10
187.5
 20
135.0
  9
$ORTHOMODE
 70
     1
  9
$REGENMODE
 70
     1
  9
$FILLMODE
 70
     1
  9
$QTEXTMODE
 70
     0
  9
$MIRRTEXT
 70
     0
  9
$DRAGMODE
 70
     2
  9
$LTSCALE
 40
5.0
  9
$OSMODE
 70
  3071
  9
$ATTMODE
 70
     1
  9
$TEXTSIZE
 40
0.2
  9
$TRACEWID
 40
0.05
  9
$TEXTSTYLE
  7
STANDARD
  9
$CLAYER
  8
0
  9
$CELTYPE
  6
BYLAYER
  9
$CECOLOR
 62
   256
  9
$DIMSCALE
 40
0.5
  9
$DIMASZ
 40
3.0
  9
$DIMEXO
 40
2.0
  9
$DIMDLI
 40
0.38
  9
$DIMRND
 40
0.0
  9
$DIMDLE
 40
0.0
  9
$DIMEXE
 40
2.0
  9
$DIMTP
 40
0.0
  9
$DIMTM
 40
0.0
  9
$DIMTXT
 40
3.0
  9
$DIMCEN
 40
0.0
  9
$DIMTSZ
 40
0.0
  9
$DIMTOL
 70
     0
  9
$DIMLIM
 70
     0
  9
$DIMTIH
 70
     0
  9
$DIMTOH
 70
     0
  9
$DIMSE1
 70
     0
  9
$DIMSE2
 70
     0
  9
$DIMTAD
 70
     1
  9
$DIMZIN
 70
     0
  9
$DIMBLK
  1

  9
$DIMASO
 70
     0
  9
$DIMSHO
 70
     0
  9
$DIMPOST
  1

  9
$DIMAPOST
  1

  9
$DIMALT
 70
     0
  9
$DIMALTD
 70
     2
  9
$DIMALTF
 40
25.399999999999999
  9
$DIMLFAC
 40
1.0
  9
$DIMTOFL
 70
     1
  9
$DIMTVP
 40
1.6000000000000001
  9
$DIMTIX
 70
     1
  9
$DIMSOXD
 70
     0
  9
$DIMSAH
 70
     0
  9
$DIMBLK1
  1

  9
$DIMBLK2
  1

  9
$DIMSTYLE
  2
STANDARD
  9
$DIMCLRD
 70
     0
  9
$DIMCLRE
 70
     0
  9
$DIMCLRT
 70
     0
  9
$DIMTFAC
 40
1.0
  9
$DIMGAP
 40
0.09
  9
$LUNITS
 70
     2
  9
$LUPREC
 70
     4
  9
$SKETCHINC
 40
0.1
  9
$FILLETRAD
 40
0.5
  9
$AUNITS
 70
     0
  9
$AUPREC
 70
     4
  9
$MENU
  1
E:\r13\win\SUPPORT\ACAD
  9
$ELEVATION
 40
0.0
  9
$PELEVATION
 40
0.0
  9
$THICKNESS
 40
0.0
  9
$LIMCHECK
 70
     0
  9
$BLIPMODE
 70
     0
  9
$CHAMFERA
 40
0.0
  9
$CHAMFERB
 40
0.0
  9
$SKPOLY
 70
     0
  9
$TDCREATE
 40
2449840.612928241
  9
$TDUPDATE
 40
2456598.4698301279
  9
$TDINDWG
 40
0.0394963079
  9
$TDUSRTIMER
 40
0.0394963079
  9
$USRTIMER
 70
     1
  9
$ANGBASE
 50
0.0
  9
$ANGDIR
 70
     0
  9
$PDMODE
 70
     0
  9
$PDSIZE
 40
0.0
  9
$PLINEWID
 40
0.0
  9
$COORDS
 70
     1
  9
$SPLFRAME
 70
     0
  9
$SPLINETYPE
 70
     6
  9
$SPLINESEGS
 70
     8
  9
$ATTDIA
 70
     0
  9
$ATTREQ
 70
     1
  9
$HANDLING
 70
     1
  9
$HANDSEED
  5
53F
  9
$SURFTAB1
 70
     6
  9
$SURFTAB2
 70
     6
  9
$SURFTYPE
 70
     6
  9
$SURFU
 70
     6
  9
$SURFV
 70
     6
  9
$UCSNAME
  2

  9
$UCSORG
 10
0.0
 20
0.0
 30
0.0
  9
$UCSXDIR
 10
1.0
 20
0.0
 30
0.0
  9
$UCSYDIR
 10
0.0
 20
1.0
 30
0.0
  9
$PUCSNAME
  2

  9
$PUCSORG
 10
0.0
 20
0.0
 30
0.0
  9
$PUCSXDIR
 10
1.0
 20
0.0
 30
0.0
  9
$PUCSYDIR
 10
0.0
 20
1.0
 30
0.0
  9
$USERI1
 70
     3
  9
$USERI2
 70
     1
  9
$USERI3
 70
     0
  9
$USERI4
 70
     0
  9
$USERI5
 70
     0
  9
$USERR1
 40
0.5
  9
$USERR2
 40
3.0
  9
$USERR3
 40
3.0
  9
$USERR4
 40
3.0
  9
$USERR5
 40
10.0
  9
$WORLDVIEW
 70
     1
  9
$SHADEDGE
 70
     3
  9
$SHADEDIF
 70
    70
  9
$TILEMODE
 70
     1
  9
$MAXACTVP
 70
    16
  9
$PLIMCHECK
 70
     0
  9
$PEXTMIN
 10
1.0000000000000000E+020
 20
1.0000000000000000E+020
 30
1.0000000000000000E+020
  9
$PEXTMAX
 10
-1.0000000000000000E+020
 20
-1.0000000000000000E+020
 30
-1.0000000000000000E+020
  9
$PLIMMIN
 10
0.0
 20
0.0
  9
$PLIMMAX
 10
12.0
 20
9.0
  9
$UNITMODE
 70
     0
  9
$VISRETAIN
 70
     0
  9
$PLINEGEN
 70
     0
  9
$PSLTSCALE
 70
     0
  0
ENDSEC
  0
SECTION
  2
TABLES
  0
TABLE
  2
VPORT
 70
     1
  0
VPORT
  2
*ACTIVE
 70
     0
 10
0.0
 20
0.0
 11
1.0
 21
1.0
 12
97.570150770051072
 22
66.014785922033241
 13
0.0
 23
0.0
 14
5.0
 24
5.0
 15
10.0
 25
10.0
 16
0.0
 26
0.0
 36
1.0
 17
0.0
 27
0.0
 37
0.0
 40
139.20783109903601
 41
1.831871345029239
 42
50.0
 43
0.0
 44
0.0
 50
0.0
 51
0.0
 71
     0
 72
   100
 73
     1
 74
     0
 75
     0
 76
     0
 77
     0
 78
     0
  0
ENDTAB
  0
TABLE
  2
LTYPE
 70
     4
  0
LTYPE
  2
CONTINUOUS
 70
     0
  3
Solid Line
 72
    65
 73
     0
 40
0.0
  0
LTYPE
  2
CENTER
 70
     0
  3
____ _ ____ _ ____ _ ____ _ ____ _ ____ _ ____
 72
    65
 73
     4
 40
2.0
 49
1.25
 49
-0.25
 49
0.25
 49
-0.25
  0
LTYPE
  2
HIDDEN
 70
     0
  3
_ _ _ _ _ _ _ _ _ _ _ _ _ _ _ _ _ _ _ _ _ _ _
 72
    65
 73
     2
 40
0.375
 49
0.25
 49
-0.125
  0
LTYPE
  2
PHANTOM2
 70
     0
  3
___ _ _ ___ _ _ ___ _ _ ___ _ _
 72
    65
 73
     6
 40
1.25
 49
0.625
 49
-0.125
 49
0.125
 49
-0.125
 49
0.125
 49
-0.125
  0
ENDTAB
  0
TABLE
  2
LAYER
 70
     4
  0
LAYER
  2
0
 70
     0
 62
     7
  6
CONTINUOUS
  0
LAYER
  2
1
 70
     0
 62
     1
  6
CENTER
  0
LAYER
  2
3
 70
     0
 62
     3
  6
CONTINUOUS
  0
LAYER
  2
2
 70
     0
 62
     2
  6
HIDDEN
  0
ENDTAB
  0
TABLE
  2
STYLE
 70
     2
  0
STYLE
  2
STANDARD
 70
     0
 40
0.0
 41
1.0
 50
0.0
 71
     0
 42
0.2
  3
TXT
  4
BIGFONT
  0
STYLE
  2
STANDARD1
 70
     0
 40
0.0
 41
1.0
 50
0.0
 71
     0
 42
3.0
  3
txt
  4

  0
ENDTAB
  0
TABLE
  2
VIEW
 70
     0
  0
ENDTAB
  0
TABLE
  2
UCS
 70
     0
  0
ENDTAB
  0
TABLE
  2
APPID
 70
     4
  0
APPID
  2
ACAD
 70
     0
  0
APPID
  2
ACAD_MLEADERVER
 70
     0
  0
APPID
  2
ACAD_NAV_VCDISPLAY
 70
     0
  0
APPID
  2
CONTENTBLOCKICON
 70
     0
  0
ENDTAB
  0
TABLE
  2
DIMSTYLE
 70
     1
  0
DIMSTYLE
  2
STANDARD
 70
     0
  3

  4

  5

  6

  7

 40
1.0
 41
0.18
 42
0.0625
 43
0.38
 44
0.18
 45
0.0
 46
0.0
 47
0.0
 48
0.0
140
0.18
141
0.09
142
0.0
143
25.399999999999999
144
1.0
145
0.0
146
1.0
147
0.09
 71
     0
 72
     0
 73
     1
 74
     1
 75
     0
 76
     0
 77
     0
 78
     0
170
     0
171
     2
172
     0
173
     0
174
     0
175
     0
176
     0
177
     0
178
     0
  0
ENDTAB
  0
ENDSEC
  0
SECTION
  2
BLOCKS
  0
BLOCK
  8
0
  2
$MODEL_SPACE
 70
     0
 10
0.0
 20
0.0
 30
0.0
  3
$MODEL_SPACE
  1

  0
ENDBLK
  5
1A2
  8
0
  0
BLOCK
 67
     1
  8
0
  2
$PAPER_SPACE
 70
     0
 10
0.0
 20
0.0
 30
0.0
  3
$PAPER_SPACE
  1

  0
ENDBLK
  5
1A0
 67
     1
  8
0
  0
BLOCK
  8
0
  2
A
 70
     0
 10
0.0
 20
0.0
 30
0.0
  3
A
  1

  0
LINE
  5
382
  8
0
 62
     0
 10
133.0335193956553
 20
224.74182211805029
 30
0.0
 11
131.84239322619791
 21
225.4295192737053
 31
0.0
  0
LINE
  5
383
  8
0
 62
     0
 10
133.03351939565539
 20
213.19481627370541
 30
0.0
 11
124.5335193956554
 21
218.1022929737054
 31
0.0
  0
LINE
  5
384
  8
0
 62
     0
 10
133.03351939565539
 20
215.50421727370539
 30
0.0
 11
124.5335193956554
 21
220.41169397370541
 31
0.0
  0
LINE
  5
385
  8
0
 62
     0
 10
133.03351939565539
 20
217.8136182737054
 30
0.0
 11
124.5335193956554
 21
222.72109497370539
 31
0.0
  0
LINE
  5
386
  8
0
 62
     0
 10
133.03351939565539
 20
220.12301927370541
 30
0.0
 11
124.5335193956554
 21
225.0304959737054
 31
0.0
  0
LINE
  5
387
  8
0
 62
     0
 10
133.03351939565539
 20
222.43242027370539
 30
0.0
 11
127.84239271729351
 21
225.4295192737053
 31
0.0
  0
LINE
  5
388
  8
0
 62
     0
 10
133.03351939565539
 20
210.88541527370541
 30
0.0
 11
124.5335193956554
 21
215.79289197370539
 31
0.0
  0
LINE
  5
389
  8
0
 62
     0
 10
133.03351939565539
 20
208.5760142737054
 30
0.0
 11
124.5335193956554
 21
213.4834909737055
 31
0.0
  0
LINE
  5
38A
  8
0
 62
     0
 10
133.03351939565539
 20
206.26661327370539
 30
0.0
 11
124.5335193956554
 21
211.17408997370541
 31
0.0
  0
LINE
  5
38B
  8
0
 62
     0
 10
133.03351939565539
 20
203.95721227370541
 30
0.0
 11
124.5335193956554
 21
208.8646889737054
 31
0.0
  0
LINE
  5
38C
  8
0
 62
     0
 10
133.0335193956553
 20
201.6478110353041
 30
0.0
 11
124.5335193956554
 21
206.55528814058641
 31
0.0
  0
LINE
  5
38D
  8
0
 62
     0
 10
131.143662785343
 20
200.42951927370541
 30
0.0
 11
124.5335193956554
 21
204.24588707716461
 31
0.0
  0
LINE
  5
38E
  8
0
 62
     0
 10
127.14366278496421
 20
200.42951927370541
 30
0.0
 11
124.5335193956554
 21
201.93648615870691
 31
0.0
  0
ENDBLK
  5
381
  8
0
  0
BLOCK
  8
0
  2
B
 70
     0
 10
0.0
 20
0.0
 30
0.0
  3
B
  1

  0
LINE
  5
393
  8
0
 62
     0
 10
143.21627068258411
 20
213.48349157370541
 30
0.0
 11
151.716270682584
 21
218.3909682737054
 31
0.0
  0
LINE
  5
394
  8
0
 62
     0
 10
143.21627068258411
 20
215.79289257370539
 30
0.0
 11
151.716270682584
 21
220.70036927370541
 31
0.0
  0
LINE
  5
395
  8
0
 62
     0
 10
143.21627068258411
 20
218.1022935737054
 30
0.0
 11
151.716270682584
 21
223.00977027370541
 31
0.0
  0
LINE
  5
396
  8
0
 62
     0
 10
143.21627068258411
 20
220.41169391699279
 30
0.0
 11
151.716270682584
 21
225.31917221186629
 31
0.0
  0
LINE
  5
397
  8
0
 62
     0
 10
143.21627068258411
 20
222.7210953860733
 30
0.0
 11
147.9073975020184
 21
225.4295192737053
 31
0.0
  0
LINE
  5
398
  8
0
 62
     0
 10
143.21627068258411
 20
208.86468957370539
 30
0.0
 11
151.716270682584
 21
213.77216627370541
 31
0.0
  0
LINE
  5
399
  8
0
 62
     0
 10
143.21627068258411
 20
211.1740905737054
 30
0.0
 11
151.716270682584
 21
216.08156727370539
 31
0.0
  0
LINE
  5
39A
  8
0
 62
     0
 10
143.21627068258411
 20
206.5552885737055
 30
0.0
 11
151.716270682584
 21
211.4627652737054
 31
0.0
  0
LINE
  5
39B
  8
0
 62
     0
 10
143.21627068258411
 20
204.2458875737054
 30
0.0
 11
151.716270682584
 21
209.15336427370539
 31
0.0
  0
LINE
  5
39C
  8
0
 62
     0
 10
143.21627068258411
 20
201.93648657370539
 30
0.0
 11
151.716270682584
 21
206.84396327370541
 31
0.0
  0
LINE
  5
39D
  8
0
 62
     0
 10
144.60612737443861
 20
200.42951927370541
 30
0.0
 11
151.716270682584
 21
204.5345622737054
 31
0.0
  0
LINE
  5
39E
  8
0
 62
     0
 10
148.60612729289639
 20
200.42951927370541
 30
0.0
 11
151.716270682584
 21
202.2251612737054
 31
0.0
  0
ENDBLK
  5
392
  8
0
  0
ENDSEC
  0
SECTION
  2
ENTITIES
  0
CIRCLE
  5
28C
  8
0
 10
23.792380858531718
 20
26.671827673985209
 30
0.0
 40
11.749999999999989
  0
CIRCLE
  5
28D
  8
0
 10
23.792380858531718
 20
26.671827673985209
 30
0.0
 40
12.49999999999998
  0
LINE
  5
2B2
  8
0
 10
63.341573771917638
 20
39.171827673985149
 30
0.0
 11
63.341573771917638
 21
14.1718276739852
 31
0.0
  0
LINE
  5
2B3
  8
0
 10
62.591573771917609
 20
14.921827673985151
 30
0.0
 11
62.591573771917609
 21
38.421827673985149
 31
0.0
  0
LINE
  5
2B4
  8
0
 10
71.841573771917609
 20
14.1718276739852
 30
0.0
 11
71.841573771917609
 21
39.171827673985149
 31
0.0
  0
LINE
  5
2B5
  8
0
 10
72.591573771917609
 20
38.421827673985149
 30
0.0
 11
72.591573771917609
 21
14.921827673985151
 31
0.0
  0
LINE
  5
2B6
  8
0
 10
120.0915737719175
 20
29.671827673985259
 30
0.0
 11
120.0915737719176
 21
23.671827673985259
 31
0.0
  0
LINE
  5
2B8
  8
0
 10
122.5915737719176
 20
28.671827673985121
 30
0.0
 11
122.5915737719176
 21
24.671827673985149
 31
0.0
  0
LINE
  5
2BB
  8
0
 10
76.211573771917614
 20
29.624327673985189
 30
0.0
 11
76.211573771917614
 21
23.719327673985159
 31
0.0
  0
LINE
  5
313
  8
0
 10
62.591573771917609
 20
38.421827673985149
 30
0.0
 11
63.341573771917638
 21
39.171827673985149
 31
0.0
  0
LINE
  5
314
  8
0
 10
63.341573771917638
 20
39.171827673985149
 30
0.0
 11
71.841573771917609
 21
39.171827673985149
 31
0.0
  0
LINE
  5
315
  8
0
 10
71.841573771917609
 20
39.171827673985149
 30
0.0
 11
72.591573771917609
 21
38.421827673985149
 31
0.0
  0
LINE
  5
316
  8
0
 10
62.591573771917609
 20
14.921827673985151
 30
0.0
 11
63.341573771917638
 21
14.1718276739852
 31
0.0
  0
LINE
  5
317
  8
0
 10
63.341573771917638
 20
14.1718276739852
 30
0.0
 11
71.841573771917609
 21
14.1718276739852
 31
0.0
  0
LINE
  5
318
  8
0
 10
71.841573771917609
 20
14.1718276739852
 30
0.0
 11
72.591573771917609
 21
14.921827673985151
 31
0.0
  0
LINE
  5
319
  8
0
 10
120.0915737719175
 20
29.671827673985209
 30
0.0
 11
121.0915737719176
 21
28.671827673985089
 31
0.0
  0
LINE
  5
31C
  8
0
 10
121.0915737719176
 20
24.671827673985241
 30
0.0
 11
120.0915737719176
 21
23.671827673985231
 31
0.0
  0
LINE
  5
325
  8
0
 10
121.0915737719176
 20
28.671827673985121
 30
0.0
 11
121.0915737719176
 21
24.671827673985121
 31
0.0
  0
LINE
  5
332
  8
0
 10
72.591573771917609
 20
23.671827673985181
 30
0.0
 11
120.0915737719176
 21
23.671827673985181
 31
0.0
  0
LINE
  5
333
  8
3
 10
76.211573771917585
 20
24.213327673985098
 30
0.0
 11
120.6330737719174
 21
24.213327673985098
 31
0.0
  0
LINE
  5
334
  8
3
 10
76.211573771917614
 20
29.130327673985281
 30
0.0
 11
120.63307377191749
 21
29.130327673985221
 31
0.0
  0
LINE
  5
335
  8
0
 10
72.591573771917609
 20
29.671827673985209
 30
0.0
 11
120.0915737719175
 21
29.671827673985121
 31
0.0
  0
CIRCLE
  5
340
  8
2
 10
23.792380858531718
 20
26.671827673985209
 30
0.0
 40
1.9503671784392
  0
CIRCLE
  5
341
  8
2
 10
23.792380858531718
 20
26.671827673985209
 30
0.0
 40
2.4585303171203452
  0
CIRCLE
  5
342
  8
2
 10
23.792380858531718
 20
26.671827673985209
 30
0.0
 40
3.0001224868973861
  0
LINE
  5
343
  8
1
 10
7.2923808585317431
 20
26.671827673985209
 30
0.0
 11
40.292380858531679
 21
26.671827673985209
 31
0.0
  0
LINE
  5
344
  8
1
 10
23.792380858531718
 20
43.17182767398517
 30
0.0
 11
23.792380858531718
 21
10.171827673985231
 31
0.0
  0
LINE
  5
348
  8
1
 10
58.591573771917609
 20
26.671827673985209
 30
0.0
 11
126.5915737719176
 21
26.671827673985209
 31
0.0
  0
INSERT
  5
38F
  8
3
  2
A
 10
-61.191945623737752
 20
-186.2576915997202
 30
0.0
  0
INSERT
  5
39F
  8
3
  2
B
 10
-79.874696910666444
 20
-186.2576915997202
 30
0.0
  0
LINE
  5
3D1
  8
0
 10
121.0915737719176
 20
28.671827673985121
 30
0.0
 11
122.5915737719176
 21
28.671827673985121
 31
0.0
  0
LINE
  5
3D2
  8
0
 10
122.5915737719176
 20
24.671827673985149
 30
0.0
 11
121.0915737719176
 21
24.671827673985121
 31
0.0
  0
TEXT
  5
4AE
  8
0
 62
     3
 10
0.0
 20
0.0
 30
0.0
 40
10.0
  1
BTS-M6x50
  7
STANDARD1
  0
ENDSEC
  0
EOF
