  0
SECTION
  2
HEADER
  9
$ACADVER
  1
AC1009
  9
$INSBASE
 10
82.638099999999994
 20
103.82319099999999
 30
0.0
  9
$EXTMIN
 10
0.0
 20
-1.4802182810368341
 30
0.0
  9
$EXTMAX
 10
65.161746616501404
 20
70.841863445913788
 30
0.0
  9
$LIMMIN
 10
0.0
 20
0.0
  9
$LIMMAX
 10
187.5
 20
135.0
  9
$ORTHOMODE
 70
     1
  9
$REGENMODE
 70
     1
  9
$FILLMODE
 70
     1
  9
$QTEXTMODE
 70
     0
  9
$MIRRTEXT
 70
     0
  9
$DRAGMODE
 70
     2
  9
$LTSCALE
 40
5.0
  9
$OSMODE
 70
  3071
  9
$ATTMODE
 70
     1
  9
$TEXTSIZE
 40
0.06
  9
$TRACEWID
 40
0.05
  9
$TEXTSTYLE
  7
STANDARD
  9
$CLAYER
  8
0
  9
$CELTYPE
  6
BYLAYER
  9
$CECOLOR
 62
   256
  9
$DIMSCALE
 40
0.5
  9
$DIMASZ
 40
3.0
  9
$DIMEXO
 40
2.0
  9
$DIMDLI
 40
10.0
  9
$DIMRND
 40
0.0
  9
$DIMDLE
 40
0.0
  9
$DIMEXE
 40
2.0
  9
$DIMTP
 40
0.0
  9
$DIMTM
 40
0.0
  9
$DIMTXT
 40
3.0
  9
$DIMCEN
 40
0.0
  9
$DIMTSZ
 40
0.0
  9
$DIMTOL
 70
     0
  9
$DIMLIM
 70
     0
  9
$DIMTIH
 70
     0
  9
$DIMTOH
 70
     0
  9
$DIMSE1
 70
     0
  9
$DIMSE2
 70
     0
  9
$DIMTAD
 70
     1
  9
$DIMZIN
 70
     0
  9
$DIMBLK
  1

  9
$DIMASO
 70
     0
  9
$DIMSHO
 70
     0
  9
$DIMPOST
  1

  9
$DIMAPOST
  1

  9
$DIMALT
 70
     0
  9
$DIMALTD
 70
     2
  9
$DIMALTF
 40
25.399999999999999
  9
$DIMLFAC
 40
1.0
  9
$DIMTOFL
 70
     1
  9
$DIMTVP
 40
1.6000000000000001
  9
$DIMTIX
 70
     1
  9
$DIMSOXD
 70
     0
  9
$DIMSAH
 70
     0
  9
$DIMBLK1
  1

  9
$DIMBLK2
  1

  9
$DIMSTYLE
  2
STANDARD
  9
$DIMCLRD
 70
     0
  9
$DIMCLRE
 70
     0
  9
$DIMCLRT
 70
     0
  9
$DIMTFAC
 40
1.0
  9
$DIMGAP
 40
0.09
  9
$LUNITS
 70
     2
  9
$LUPREC
 70
     4
  9
$SKETCHINC
 40
0.1
  9
$FILLETRAD
 40
0.4
  9
$AUNITS
 70
     0
  9
$AUPREC
 70
     4
  9
$MENU
  1
E:\r13\win\SUPPORT\ACAD
  9
$ELEVATION
 40
0.0
  9
$PELEVATION
 40
0.0
  9
$THICKNESS
 40
0.0
  9
$LIMCHECK
 70
     0
  9
$BLIPMODE
 70
     0
  9
$CHAMFERA
 40
0.0
  9
$CHAMFERB
 40
0.0
  9
$SKPOLY
 70
     0
  9
$TDCREATE
 40
2449840.5902083339
  9
$TDUPDATE
 40
2456598.4699158799
  9
$TDINDWG
 40
0.0942559838
  9
$TDUSRTIMER
 40
0.0942559838
  9
$USRTIMER
 70
     1
  9
$ANGBASE
 50
0.0
  9
$ANGDIR
 70
     0
  9
$PDMODE
 70
     0
  9
$PDSIZE
 40
0.0
  9
$PLINEWID
 40
0.0
  9
$COORDS
 70
     1
  9
$SPLFRAME
 70
     0
  9
$SPLINETYPE
 70
     6
  9
$SPLINESEGS
 70
     8
  9
$ATTDIA
 70
     0
  9
$ATTREQ
 70
     1
  9
$HANDLING
 70
     1
  9
$HANDSEED
  5
66F
  9
$SURFTAB1
 70
     6
  9
$SURFTAB2
 70
     6
  9
$SURFTYPE
 70
     6
  9
$SURFU
 70
     6
  9
$SURFV
 70
     6
  9
$UCSNAME
  2

  9
$UCSORG
 10
0.0
 20
0.0
 30
0.0
  9
$UCSXDIR
 10
1.0
 20
0.0
 30
0.0
  9
$UCSYDIR
 10
0.0
 20
1.0
 30
0.0
  9
$PUCSNAME
  2

  9
$PUCSORG
 10
0.0
 20
0.0
 30
0.0
  9
$PUCSXDIR
 10
1.0
 20
0.0
 30
0.0
  9
$PUCSYDIR
 10
0.0
 20
1.0
 30
0.0
  9
$USERI1
 70
     3
  9
$USERI2
 70
     1
  9
$USERI3
 70
     0
  9
$USERI4
 70
     0
  9
$USERI5
 70
     0
  9
$USERR1
 40
0.5
  9
$USERR2
 40
3.0
  9
$USERR3
 40
3.0
  9
$USERR4
 40
3.0
  9
$USERR5
 40
10.0
  9
$WORLDVIEW
 70
     1
  9
$SHADEDGE
 70
     3
  9
$SHADEDIF
 70
    70
  9
$TILEMODE
 70
     1
  9
$MAXACTVP
 70
    16
  9
$PLIMCHECK
 70
     0
  9
$PEXTMIN
 10
1.0000000000000000E+020
 20
1.0000000000000000E+020
 30
1.0000000000000000E+020
  9
$PEXTMAX
 10
-1.0000000000000000E+020
 20
-1.0000000000000000E+020
 30
-1.0000000000000000E+020
  9
$PLIMMIN
 10
0.0
 20
0.0
  9
$PLIMMAX
 10
12.0
 20
9.0
  9
$UNITMODE
 70
     0
  9
$VISRETAIN
 70
     0
  9
$PLINEGEN
 70
     0
  9
$PSLTSCALE
 70
     0
  0
ENDSEC
  0
SECTION
  2
TABLES
  0
TABLE
  2
VPORT
 70
     1
  0
VPORT
  2
*ACTIVE
 70
     0
 10
0.0
 20
0.0
 11
1.0
 21
1.0
 12
97.52905416604365
 22
66.75636307133405
 13
0.0
 23
0.0
 14
5.0
 24
5.0
 15
10.0
 25
10.0
 16
0.0
 26
0.0
 36
1.0
 17
0.0
 27
0.0
 37
0.0
 40
137.71137496815999
 41
1.831871345029239
 42
50.0
 43
0.0
 44
0.0
 50
0.0
 51
0.0
 71
     0
 72
   100
 73
     1
 74
     0
 75
     0
 76
     0
 77
     0
 78
     2
  0
ENDTAB
  0
TABLE
  2
LTYPE
 70
     3
  0
LTYPE
  2
CONTINUOUS
 70
     0
  3
Solid Line
 72
    65
 73
     0
 40
0.0
  0
LTYPE
  2
CENTER
 70
     0
  3
____ _ ____ _ ____ _ ____ _ ____ _ ____ _ ____
 72
    65
 73
     4
 40
2.0
 49
1.25
 49
-0.25
 49
0.25
 49
-0.25
  0
LTYPE
  2
PHANTOM2
 70
     0
  3
___ _ _ ___ _ _ ___ _ _ ___ _ _
 72
    65
 73
     6
 40
1.25
 49
0.625
 49
-0.125
 49
0.125
 49
-0.125
 49
0.125
 49
-0.125
  0
ENDTAB
  0
TABLE
  2
LAYER
 70
     3
  0
LAYER
  2
0
 70
     0
 62
     7
  6
CONTINUOUS
  0
LAYER
  2
1
 70
     0
 62
     1
  6
CENTER
  0
LAYER
  2
3
 70
     0
 62
     3
  6
CONTINUOUS
  0
ENDTAB
  0
TABLE
  2
STYLE
 70
     2
  0
STYLE
  2
STANDARD
 70
     0
 40
0.0
 41
1.0
 50
0.0
 71
     0
 42
0.06
  3
TXT
  4
BIGFONT
  0
STYLE
  2
STANDARD1
 70
     0
 40
0.0
 41
1.0
 50
0.0
 71
     0
 42
3.0
  3
txt
  4

  0
ENDTAB
  0
TABLE
  2
VIEW
 70
     0
  0
ENDTAB
  0
TABLE
  2
UCS
 70
     0
  0
ENDTAB
  0
TABLE
  2
APPID
 70
     3
  0
APPID
  2
ACAD
 70
     0
  0
APPID
  2
ACAD_MLEADERVER
 70
     0
  0
APPID
  2
ACAD_NAV_VCDISPLAY
 70
     0
  0
ENDTAB
  0
TABLE
  2
DIMSTYLE
 70
     1
  0
DIMSTYLE
  2
STANDARD
 70
     0
  3

  4

  5

  6

  7

 40
1.0
 41
0.18
 42
0.0625
 43
0.38
 44
0.18
 45
0.0
 46
0.0
 47
0.0
 48
0.0
140
0.18
141
0.09
142
0.0
143
25.399999999999999
144
1.0
145
0.0
146
1.0
147
0.09
 71
     0
 72
     0
 73
     1
 74
     1
 75
     0
 76
     0
 77
     0
 78
     0
170
     0
171
     2
172
     0
173
     0
174
     0
175
     0
176
     0
177
     0
178
     0
  0
ENDTAB
  0
ENDSEC
  0
SECTION
  2
BLOCKS
  0
BLOCK
  8
0
  2
$MODEL_SPACE
 70
     0
 10
0.0
 20
0.0
 30
0.0
  3
$MODEL_SPACE
  1

  0
ENDBLK
  5
119
  8
0
  0
BLOCK
 67
     1
  8
0
  2
$PAPER_SPACE
 70
     0
 10
0.0
 20
0.0
 30
0.0
  3
$PAPER_SPACE
  1

  0
ENDBLK
  5
117
 67
     1
  8
0
  0
ENDSEC
  0
SECTION
  2
ENTITIES
  0
LINE
  5
A6
  8
3
 10
21.814947094668501
 20
23.059063458113719
 30
0.0
 11
22.17336595540721
 21
23.679863458113719
 31
0.0
  0
LINE
  5
A7
  8
3
 10
16.897947094668471
 20
23.059063458113719
 30
0.0
 11
16.539528233929762
 21
23.679863458113719
 31
0.0
  0
LINE
  5
A8
  8
0
 10
16.356447094668479
 20
23.059063458113719
 30
0.0
 11
22.356447094668479
 21
23.059063458113719
 31
0.0
  0
LINE
  5
A9
  8
0
 10
16.356447094668479
 20
13.44186345811344
 30
0.0
 11
22.356447094668479
 21
13.44186345811344
 31
0.0
  0
LINE
  5
AA
  8
0
 10
21.356447094668479
 20
12.44186345811344
 30
0.0
 11
22.356447094668479
 21
13.44186345811344
 31
0.0
  0
LINE
  5
AB
  8
0
 10
16.356447094668479
 20
13.44186345811344
 30
0.0
 11
17.356447094668479
 21
12.44186345811344
 31
0.0
  0
LINE
  5
AC
  8
0
 10
22.35644709466845
 20
23.679863458113289
 30
0.0
 11
22.356447094668479
 21
13.44186345811344
 31
0.0
  0
LINE
  5
AD
  8
3
 10
21.814947094668501
 20
23.059063458113719
 30
0.0
 11
21.814947094668501
 21
12.900363458113439
 31
0.0
  0
LINE
  5
AE
  8
3
 10
16.897947094668471
 20
23.059063458113719
 30
0.0
 11
16.897947094668471
 21
12.900363458113439
 31
0.0
  0
LINE
  5
AF
  8
0
 10
16.35644709466845
 20
23.679863458113289
 30
0.0
 11
16.356447094668479
 21
13.44186345811344
 31
0.0
  0
LINE
  5
B0
  8
0
 10
17.356447094668479
 20
12.44186345811344
 30
0.0
 11
21.356447094668479
 21
12.44186345811344
 31
0.0
  0
LINE
  5
382
  8
0
 10
63.161746616501368
 20
32.955653201071051
 30
0.0
 11
57.161746616501262
 21
32.955653201071051
 31
0.0
  0
LINE
  5
383
  8
0
 10
57.087351738922109
 20
33.135258323492401
 30
0.0
 11
63.236141494079789
 21
33.135258323492401
 31
0.0
  0
LINE
  5
3B1
  8
0
 10
55.16174661650097
 20
32.441863458113779
 30
0.0
 11
65.161746616501006
 21
32.441863458113779
 31
0.0
  0
LINE
  5
3B5
  8
0
 10
55.16174661650097
 20
24.44186345811373
 30
0.0
 11
65.161746616500949
 21
24.44186345811373
 31
0.0
  0
LINE
  5
3B6
  8
0
 10
55.16174661650097
 20
24.44186345811373
 30
0.0
 11
55.161746616501013
 21
32.441863458113787
 31
0.0
  0
LINE
  5
3B8
  8
0
 10
65.161746616501006
 20
32.441863458113787
 30
0.0
 11
65.161746616500963
 21
24.44186345811373
 31
0.0
  0
ARC
  5
3BA
  8
0
 10
57.604124994642412
 20
16.565469214670738
 30
0.0
 40
15.876498808759299
 50
80.729551159905554
 51
89.792052200613568
  0
ARC
  5
3BB
  8
0
 10
57.719005777115342
 20
16.569841286654679
 30
0.0
 40
15.872125453850369
 50
90.206696662476745
 51
99.271699977006094
  0
ARC
  5
3BD
  8
0
 10
57.719368238359827
 20
40.318257701556227
 30
0.0
 40
15.876498808758781
 50
260.72955115990561
 51
269.79205220061351
  0
ARC
  5
3BE
  8
0
 10
57.604487455886151
 20
40.313885629575758
 30
0.0
 40
15.872125453853331
 50
270.20669666247682
 51
279.2716999770044
  0
ARC
  5
3C1
  8
0
 10
62.604124994642028
 20
16.565469214670738
 30
0.0
 40
15.876498808759299
 50
80.729551159905554
 51
89.792052200613568
  0
ARC
  5
3C2
  8
0
 10
62.719005777115711
 20
16.56984128665394
 30
0.0
 40
15.87212545385098
 50
90.206696662476745
 51
99.271699977006094
  0
LINE
  5
3C3
  8
0
 10
60.161746616501318
 20
24.649122879750522
 30
0.0
 11
60.161746616501318
 21
32.234604036476817
 31
0.0
  0
ARC
  5
3C4
  8
0
 10
62.719368238359493
 20
40.318257701556227
 30
0.0
 40
15.876498808758781
 50
260.72955115990561
 51
269.79205220061351
  0
ARC
  5
3C5
  8
0
 10
62.604487455886549
 20
40.313885629575758
 30
0.0
 40
15.872125453853331
 50
270.20669666247682
 51
279.2716999770044
  0
LINE
  5
3C6
  8
0
 10
56.54274661650112
 20
34.441863445913789
 30
0.0
 11
63.780746616500778
 21
34.441863445913789
 31
0.0
  0
LINE
  5
3C8
  8
0
 10
56.16174661650075
 20
34.06086344591376
 30
0.0
 11
64.161746616501134
 21
34.06086344591376
 31
0.0
  0
LINE
  5
425
  8
0
 10
63.161746616501368
 20
32.441863458113779
 30
0.0
 11
63.161746616501368
 21
32.955653201071051
 31
0.0
  0
LINE
  5
426
  8
0
 10
57.161746616501262
 20
32.955653201071051
 30
0.0
 11
57.161746616501262
 21
32.441863458113779
 31
0.0
  0
ARC
  5
427
  8
0
 10
63.415746616501131
 20
32.955653201071037
 30
0.0
 40
0.2539999999999973
 50
135.00000000000051
 51
180.0
  0
ARC
  5
428
  8
0
 10
56.907746616500731
 20
32.955653201071051
 30
0.0
 40
0.2539999999999959
 50
0.0
 51
45.000000000001407
  0
ARC
  5
429
  8
0
 10
56.542746616501091
 20
34.060863445913782
 30
0.0
 40
0.3810000000000185
 50
89.999999999999986
 51
179.9999999999971
  0
ARC
  5
42A
  8
0
 10
63.780746616500778
 20
34.060863445913782
 30
0.0
 40
0.3810000000000185
 50
0.0
 51
89.999999999999986
  0
LINE
  5
42B
  8
0
 10
63.236141494079789
 20
33.135258323492401
 30
0.0
 11
64.161746616501134
 21
34.06086344591376
 31
0.0
  0
LINE
  5
42C
  8
0
 10
56.16174661650075
 20
34.06086344591376
 30
0.0
 11
57.087351738922109
 21
33.135258323492401
 31
0.0
  0
LINE
  5
42F
  8
0
 10
22.356447094668511
 20
32.955653201070682
 30
0.0
 11
16.3564470946684
 21
32.955653201070682
 31
0.0
  0
LINE
  5
430
  8
0
 10
16.282052217089781
 20
33.135258323492032
 30
0.0
 11
22.430841972247091
 21
33.135258323492032
 31
0.0
  0
LINE
  5
431
  8
0
 10
14.35644709466845
 20
32.441863458113801
 30
0.0
 11
24.356447094668511
 21
32.441863458113801
 31
0.0
  0
LINE
  5
433
  8
0
 10
14.35644709466845
 20
24.441863458113371
 30
0.0
 11
24.356447094668461
 21
24.441863458113371
 31
0.0
  0
LINE
  5
466
  8
0
 10
25.12994978656468
 20
24.649122879750539
 30
0.0
 11
25.12994978656468
 21
32.23460403647664
 31
0.0
  0
ARC
  5
467
  8
0
 10
23.64749332164337
 20
27.04016371326896
 30
0.0
 40
5.4018411159303561
 50
74.071629062301355
 51
89.585477631716117
  0
ARC
  5
468
  8
0
 10
23.725409072948882
 20
27.04187571639898
 30
0.0
 40
5.4001273841209869
 50
90.412045548230481
 51
105.9308477577532
  0
ARC
  5
469
  8
0
 10
23.647739154232369
 20
29.841851199828142
 30
0.0
 40
5.4001273841211699
 50
270.41204554823088
 51
285.93084775775333
  0
ARC
  5
46B
  8
0
 10
23.725654905538221
 20
29.843563202958869
 30
0.0
 40
5.4018411159310791
 50
254.07162906230261
 51
269.58547763171481
  0
LINE
  5
46D
  8
0
 10
22.243198440616538
 20
24.649122879750539
 30
0.0
 11
22.243198440616538
 21
32.23460403647664
 31
0.0
  0
ARC
  5
46E
  8
0
 10
19.291364610149909
 20
11.32812196536935
 30
0.0
 40
21.113841799924099
 50
81.963401286910823
 51
89.823388011351895
  0
ARC
  5
46F
  8
0
 10
19.471773000800621
 20
10.628321378148771
 30
0.0
 40
21.813846935811249
 50
90.302913946865004
 51
97.910296754873556
  0
ARC
  5
470
  8
0
 10
19.47189757771525
 20
46.257140670660412
 30
0.0
 40
21.815582703065701
 50
262.0900063329866
 51
269.69678296527661
  0
ARC
  5
471
  8
0
 10
19.29177400297095
 20
45.549902844442578
 30
0.0
 40
21.108138462299461
 50
270.17554845049432
 51
278.03766225124411
  0
LINE
  5
472
  8
0
 10
16.469695748720341
 20
24.649122879750539
 30
0.0
 11
16.469695748720341
 21
32.23460403647664
 31
0.0
  0
ARC
  5
473
  8
0
 10
14.987239283798861
 20
27.04016371326896
 30
0.0
 40
5.4018411159302877
 50
74.071629062301355
 51
89.585477631715705
  0
ARC
  5
474
  8
0
 10
15.06515503510434
 20
27.04187571639898
 30
0.0
 40
5.4001273841209203
 50
90.412045548230481
 51
105.9308477577536
  0
LINE
  5
475
  8
0
 10
13.58294440277205
 20
24.649122879750539
 30
0.0
 11
13.58294440277205
 21
32.23460403647664
 31
0.0
  0
ARC
  5
476
  8
0
 10
15.065400867693709
 20
29.843563202958869
 30
0.0
 40
5.4018411159308748
 50
254.07162906230209
 51
269.58547763171521
  0
ARC
  5
477
  8
0
 10
14.987485116387489
 20
29.841851199829591
 30
0.0
 40
5.400127384122797
 50
270.41204554823332
 51
285.93084775775128
  0
LINE
  5
478
  8
0
 10
15.73744709466842
 20
34.441863445913782
 30
0.0
 11
22.975447094668478
 21
34.441863445913789
 31
0.0
  0
LINE
  5
47A
  8
0
 10
15.35644709466842
 20
34.060863445913412
 30
0.0
 11
23.356447094668479
 21
34.060863445913412
 31
0.0
  0
LINE
  5
491
  8
0
 10
14.35644709466845
 20
32.441863458113801
 30
0.0
 11
13.58294440277205
 21
32.23460403647664
 31
0.0
  0
LINE
  5
492
  8
0
 10
25.12994978656468
 20
32.23460403647664
 30
0.0
 11
24.356447094668461
 21
32.441863458113801
 31
0.0
  0
LINE
  5
493
  8
0
 10
13.58294440277205
 20
24.649122879750539
 30
0.0
 11
14.35644709466845
 21
24.441863458113371
 31
0.0
  0
LINE
  5
494
  8
0
 10
24.356447094668461
 20
24.441863458113371
 30
0.0
 11
25.12994978656468
 21
24.649122879750539
 31
0.0
  0
ARC
  5
4D9
  8
0
 10
23.118447094668571
 20
23.679863458113289
 30
0.0
 40
0.7620000000000146
 50
89.999999999999574
 51
180.0
  0
ARC
  5
4DA
  8
0
 10
15.59444709466834
 20
23.679863458113289
 30
0.0
 40
0.7620000000000146
 50
0.0
 51
89.999999999999574
  0
LINE
  5
4DB
  8
0
 10
22.356447094668511
 20
32.441863458113801
 30
0.0
 11
22.356447094668511
 21
32.955653201070682
 31
0.0
  0
LINE
  5
4DC
  8
0
 10
16.3564470946684
 20
32.955653201070682
 30
0.0
 11
16.3564470946684
 21
32.441863458113801
 31
0.0
  0
ARC
  5
4DD
  8
0
 10
22.610447094668469
 20
32.955653201070653
 30
0.0
 40
0.2540000000000278
 50
134.99999999999301
 51
180.0
  0
ARC
  5
4DE
  8
0
 10
16.102447094668431
 20
32.955653201070653
 30
0.0
 40
0.2540000000000357
 50
0.0
 51
45.000000000005173
  0
ARC
  5
4DF
  8
0
 10
15.73744709466842
 20
34.060863445913391
 30
0.0
 40
0.3810000000000073
 50
89.999999999999986
 51
180.0
  0
ARC
  5
4E0
  8
0
 10
22.975447094668478
 20
34.060863445913391
 30
0.0
 40
0.3810000000000185
 50
0.0
 51
89.999999999999986
  0
LINE
  5
4E1
  8
0
 10
22.430841972247091
 20
33.135258323492032
 30
0.0
 11
23.356447094668479
 21
34.060863445913412
 31
0.0
  0
LINE
  5
4E2
  8
0
 10
15.35644709466842
 20
34.060863445913412
 30
0.0
 11
16.282052217089781
 21
33.135258323492032
 31
0.0
  0
LINE
  5
4E3
  8
0
 10
16.469695748720369
 20
67.841863445913802
 30
0.0
 11
22.24319844061657
 21
67.841863445913788
 31
0.0
  0
LINE
  5
4E6
  8
0
 10
22.24319844061614
 20
67.841863445913788
 30
0.0
 11
25.12994978656468
 21
62.841863445914129
 31
0.0
  0
LINE
  5
4E8
  8
0
 10
22.243198440616599
 20
57.841863445913788
 30
0.0
 11
16.469695748720341
 21
57.841863445913788
 31
0.0
  0
LINE
  5
4EA
  8
0
 10
16.469695748720572
 20
57.841863445913788
 30
0.0
 11
13.58294440277205
 21
62.841863445914129
 31
0.0
  0
LINE
  5
4EC
  8
0
 10
13.5829444027724
 20
62.841863445913603
 30
0.0
 11
16.469695748720341
 21
67.841863445913788
 31
0.0
  0
LINE
  5
4ED
  8
0
 10
25.12994978656468
 20
62.8418634459141
 30
0.0
 11
22.24319844061657
 21
57.841863445913788
 31
0.0
  0
CIRCLE
  5
4F5
  8
0
 10
19.356447094668479
 20
62.8418634459141
 30
0.0
 40
4.00000000000004
  0
LINE
  5
4FA
  8
1
 10
19.356447094668479
 20
9.4418634581130902
 30
0.0
 11
19.356447094668479
 21
37.441863445913789
 31
0.0
  0
LINE
  5
4FB
  8
1
 10
28.129949786564708
 20
62.8418634459141
 30
0.0
 11
10.58294440277203
 21
62.8418634459141
 31
0.0
  0
LINE
  5
4FC
  8
1
 10
60.161746616501318
 20
9.4418634581130902
 30
0.0
 11
60.161746616501318
 21
37.441863445913789
 31
0.0
  0
LINE
  5
505
  8
1
 10
19.356447094668479
 20
54.841863445913781
 30
0.0
 11
19.356447094668479
 21
70.841863445913788
 31
0.0
  0
CIRCLE
  5
512
  8
0
 10
19.356447094668368
 20
62.8418634459141
 30
0.0
 40
5.0000000000000684
  0
LINE
  5
525
  8
0
 10
22.356447094668571
 20
23.679863458113719
 30
0.0
 11
16.35644709466834
 21
23.679863458113289
 31
0.0
  0
LINE
  5
526
  8
0
 10
63.161746616572458
 20
23.679863458113719
 30
0.0
 11
57.161746616572231
 21
23.679863458113289
 31
0.0
  0
ARC
  5
527
  8
0
 10
56.39974661657223
 20
23.679863458113289
 30
0.0
 40
0.7620000000000146
 50
0.0
 51
89.999999999999574
  0
ARC
  5
528
  8
0
 10
63.923746616572458
 20
23.679863458113289
 30
0.0
 40
0.7620000000000146
 50
89.999999999999574
 51
180.0
  0
LINE
  5
529
  8
0
 10
58.161746616572373
 20
12.44186345811344
 30
0.0
 11
62.161746616572373
 21
12.44186345811344
 31
0.0
  0
LINE
  5
52A
  8
0
 10
57.161746616572337
 20
23.679863458113289
 30
0.0
 11
57.161746616572373
 21
13.44186345811344
 31
0.0
  0
LINE
  5
52B
  8
3
 10
57.703246616572358
 20
23.059063458113719
 30
0.0
 11
57.703246616572358
 21
12.900363458113439
 31
0.0
  0
LINE
  5
52C
  8
3
 10
62.620246616572388
 20
23.059063458113719
 30
0.0
 11
62.620246616572388
 21
12.900363458113439
 31
0.0
  0
LINE
  5
52D
  8
0
 10
63.161746616572337
 20
23.679863458113289
 30
0.0
 11
63.161746616572373
 21
13.44186345811344
 31
0.0
  0
LINE
  5
52E
  8
0
 10
57.161746616572373
 20
13.44186345811344
 30
0.0
 11
58.161746616572373
 21
12.44186345811344
 31
0.0
  0
LINE
  5
52F
  8
0
 10
62.161746616572373
 20
12.44186345811344
 30
0.0
 11
63.161746616572373
 21
13.44186345811344
 31
0.0
  0
LINE
  5
530
  8
0
 10
57.161746616572373
 20
13.44186345811344
 30
0.0
 11
63.161746616572373
 21
13.44186345811344
 31
0.0
  0
LINE
  5
531
  8
0
 10
57.161746616572373
 20
23.059063458113719
 30
0.0
 11
63.161746616572373
 21
23.059063458113719
 31
0.0
  0
LINE
  5
532
  8
3
 10
57.703246616572358
 20
23.059063458113719
 30
0.0
 11
57.344827755833649
 21
23.679863458113719
 31
0.0
  0
LINE
  5
533
  8
3
 10
62.620246616572388
 20
23.059063458113719
 30
0.0
 11
62.978665477311097
 21
23.679863458113719
 31
0.0
  0
TEXT
  5
5E0
  8
0
 62
     3
 10
0.0
 20
0.0
 30
0.0
 40
5.0
  1
BUH-06012-DS
  7
STANDARD1
  0
ENDSEC
  0
EOF
