  0
SECTION
  2
HEADER
  9
$ACADVER
  1
AC1009
  9
$INSBASE
 10
82.638099999999994
 20
103.82319099999999
 30
0.0
  9
$EXTMIN
 10
0.0
 20
-1.4802182810368341
 30
0.0
  9
$EXTMAX
 10
60.110040634296134
 20
82.200159187859185
 30
0.0
  9
$LIMMIN
 10
0.0
 20
0.0
  9
$LIMMAX
 10
187.5
 20
135.0
  9
$ORTHOMODE
 70
     1
  9
$REGENMODE
 70
     1
  9
$FILLMODE
 70
     1
  9
$QTEXTMODE
 70
     0
  9
$MIRRTEXT
 70
     0
  9
$DRAGMODE
 70
     2
  9
$LTSCALE
 40
5.0
  9
$OSMODE
 70
  3071
  9
$ATTMODE
 70
     1
  9
$TEXTSIZE
 40
0.06
  9
$TRACEWID
 40
0.05
  9
$TEXTSTYLE
  7
STANDARD
  9
$CLAYER
  8
0
  9
$CELTYPE
  6
BYLAYER
  9
$CECOLOR
 62
   256
  9
$DIMSCALE
 40
0.5
  9
$DIMASZ
 40
3.0
  9
$DIMEXO
 40
2.0
  9
$DIMDLI
 40
10.0
  9
$DIMRND
 40
0.0
  9
$DIMDLE
 40
0.0
  9
$DIMEXE
 40
2.0
  9
$DIMTP
 40
0.0
  9
$DIMTM
 40
0.0
  9
$DIMTXT
 40
3.0
  9
$DIMCEN
 40
0.0
  9
$DIMTSZ
 40
0.0
  9
$DIMTOL
 70
     0
  9
$DIMLIM
 70
     0
  9
$DIMTIH
 70
     0
  9
$DIMTOH
 70
     0
  9
$DIMSE1
 70
     0
  9
$DIMSE2
 70
     0
  9
$DIMTAD
 70
     1
  9
$DIMZIN
 70
     0
  9
$DIMBLK
  1

  9
$DIMASO
 70
     0
  9
$DIMSHO
 70
     0
  9
$DIMPOST
  1

  9
$DIMAPOST
  1

  9
$DIMALT
 70
     0
  9
$DIMALTD
 70
     2
  9
$DIMALTF
 40
25.399999999999999
  9
$DIMLFAC
 40
1.0
  9
$DIMTOFL
 70
     1
  9
$DIMTVP
 40
1.6000000000000001
  9
$DIMTIX
 70
     1
  9
$DIMSOXD
 70
     0
  9
$DIMSAH
 70
     0
  9
$DIMBLK1
  1

  9
$DIMBLK2
  1

  9
$DIMSTYLE
  2
STANDARD
  9
$DIMCLRD
 70
     0
  9
$DIMCLRE
 70
     0
  9
$DIMCLRT
 70
     0
  9
$DIMTFAC
 40
1.0
  9
$DIMGAP
 40
0.09
  9
$LUNITS
 70
     2
  9
$LUPREC
 70
     4
  9
$SKETCHINC
 40
0.1
  9
$FILLETRAD
 40
0.4
  9
$AUNITS
 70
     0
  9
$AUPREC
 70
     4
  9
$MENU
  1
E:\r13\win\SUPPORT\ACAD
  9
$ELEVATION
 40
0.0
  9
$PELEVATION
 40
0.0
  9
$THICKNESS
 40
0.0
  9
$LIMCHECK
 70
     0
  9
$BLIPMODE
 70
     0
  9
$CHAMFERA
 40
0.0
  9
$CHAMFERB
 40
0.0
  9
$SKPOLY
 70
     0
  9
$TDCREATE
 40
2449840.5902083339
  9
$TDUPDATE
 40
2456598.470040278
  9
$TDINDWG
 40
0.0958317014
  9
$TDUSRTIMER
 40
0.0958317014
  9
$USRTIMER
 70
     1
  9
$ANGBASE
 50
0.0
  9
$ANGDIR
 70
     0
  9
$PDMODE
 70
     0
  9
$PDSIZE
 40
0.0
  9
$PLINEWID
 40
0.0
  9
$COORDS
 70
     1
  9
$SPLFRAME
 70
     0
  9
$SPLINETYPE
 70
     6
  9
$SPLINESEGS
 70
     8
  9
$ATTDIA
 70
     0
  9
$ATTREQ
 70
     1
  9
$HANDLING
 70
     1
  9
$HANDSEED
  5
67F
  9
$SURFTAB1
 70
     6
  9
$SURFTAB2
 70
     6
  9
$SURFTYPE
 70
     6
  9
$SURFU
 70
     6
  9
$SURFV
 70
     6
  9
$UCSNAME
  2

  9
$UCSORG
 10
0.0
 20
0.0
 30
0.0
  9
$UCSXDIR
 10
1.0
 20
0.0
 30
0.0
  9
$UCSYDIR
 10
0.0
 20
1.0
 30
0.0
  9
$PUCSNAME
  2

  9
$PUCSORG
 10
0.0
 20
0.0
 30
0.0
  9
$PUCSXDIR
 10
1.0
 20
0.0
 30
0.0
  9
$PUCSYDIR
 10
0.0
 20
1.0
 30
0.0
  9
$USERI1
 70
     3
  9
$USERI2
 70
     1
  9
$USERI3
 70
     0
  9
$USERI4
 70
     0
  9
$USERI5
 70
     0
  9
$USERR1
 40
0.5
  9
$USERR2
 40
3.0
  9
$USERR3
 40
3.0
  9
$USERR4
 40
3.0
  9
$USERR5
 40
10.0
  9
$WORLDVIEW
 70
     1
  9
$SHADEDGE
 70
     3
  9
$SHADEDIF
 70
    70
  9
$TILEMODE
 70
     1
  9
$MAXACTVP
 70
    16
  9
$PLIMCHECK
 70
     0
  9
$PEXTMIN
 10
1.0000000000000000E+020
 20
1.0000000000000000E+020
 30
1.0000000000000000E+020
  9
$PEXTMAX
 10
-1.0000000000000000E+020
 20
-1.0000000000000000E+020
 30
-1.0000000000000000E+020
  9
$PLIMMIN
 10
0.0
 20
0.0
  9
$PLIMMAX
 10
12.0
 20
9.0
  9
$UNITMODE
 70
     0
  9
$VISRETAIN
 70
     0
  9
$PLINEGEN
 70
     0
  9
$PSLTSCALE
 70
     0
  0
ENDSEC
  0
SECTION
  2
TABLES
  0
TABLE
  2
VPORT
 70
     1
  0
VPORT
  2
*ACTIVE
 70
     0
 10
0.0
 20
0.0
 11
1.0
 21
1.0
 12
97.52905416604365
 22
66.75636307133405
 13
0.0
 23
0.0
 14
5.0
 24
5.0
 15
10.0
 25
10.0
 16
0.0
 26
0.0
 36
1.0
 17
0.0
 27
0.0
 37
0.0
 40
137.71137496815999
 41
1.831871345029239
 42
50.0
 43
0.0
 44
0.0
 50
0.0
 51
0.0
 71
     0
 72
   100
 73
     1
 74
     0
 75
     0
 76
     0
 77
     0
 78
     2
  0
ENDTAB
  0
TABLE
  2
LTYPE
 70
     3
  0
LTYPE
  2
CONTINUOUS
 70
     0
  3
Solid Line
 72
    65
 73
     0
 40
0.0
  0
LTYPE
  2
CENTER
 70
     0
  3
____ _ ____ _ ____ _ ____ _ ____ _ ____ _ ____
 72
    65
 73
     4
 40
2.0
 49
1.25
 49
-0.25
 49
0.25
 49
-0.25
  0
LTYPE
  2
PHANTOM2
 70
     0
  3
___ _ _ ___ _ _ ___ _ _ ___ _ _
 72
    65
 73
     6
 40
1.25
 49
0.625
 49
-0.125
 49
0.125
 49
-0.125
 49
0.125
 49
-0.125
  0
ENDTAB
  0
TABLE
  2
LAYER
 70
     3
  0
LAYER
  2
0
 70
     0
 62
     7
  6
CONTINUOUS
  0
LAYER
  2
1
 70
     0
 62
     1
  6
CENTER
  0
LAYER
  2
3
 70
     0
 62
     3
  6
CONTINUOUS
  0
ENDTAB
  0
TABLE
  2
STYLE
 70
     2
  0
STYLE
  2
STANDARD
 70
     0
 40
0.0
 41
1.0
 50
0.0
 71
     0
 42
0.06
  3
TXT
  4
BIGFONT
  0
STYLE
  2
STANDARD1
 70
     0
 40
0.0
 41
1.0
 50
0.0
 71
     0
 42
3.0
  3
txt
  4

  0
ENDTAB
  0
TABLE
  2
VIEW
 70
     0
  0
ENDTAB
  0
TABLE
  2
UCS
 70
     0
  0
ENDTAB
  0
TABLE
  2
APPID
 70
     3
  0
APPID
  2
ACAD
 70
     0
  0
APPID
  2
ACAD_MLEADERVER
 70
     0
  0
APPID
  2
ACAD_NAV_VCDISPLAY
 70
     0
  0
ENDTAB
  0
TABLE
  2
DIMSTYLE
 70
     1
  0
DIMSTYLE
  2
STANDARD
 70
     0
  3

  4

  5

  6

  7

 40
1.0
 41
0.18
 42
0.0625
 43
0.38
 44
0.18
 45
0.0
 46
0.0
 47
0.0
 48
0.0
140
0.18
141
0.09
142
0.0
143
25.399999999999999
144
1.0
145
0.0
146
1.0
147
0.09
 71
     0
 72
     0
 73
     1
 74
     1
 75
     0
 76
     0
 77
     0
 78
     0
170
     0
171
     2
172
     0
173
     0
174
     0
175
     0
176
     0
177
     0
178
     0
  0
ENDTAB
  0
ENDSEC
  0
SECTION
  2
BLOCKS
  0
BLOCK
  8
0
  2
$MODEL_SPACE
 70
     0
 10
0.0
 20
0.0
 30
0.0
  3
$MODEL_SPACE
  1

  0
ENDBLK
  5
119
  8
0
  0
BLOCK
 67
     1
  8
0
  2
$PAPER_SPACE
 70
     0
 10
0.0
 20
0.0
 30
0.0
  3
$PAPER_SPACE
  1

  0
ENDBLK
  5
117
 67
     1
  8
0
  0
ENDSEC
  0
SECTION
  2
ENTITIES
  0
LINE
  5
A6
  8
3
 10
16.76324111246322
 20
34.417359200059117
 30
0.0
 11
17.121659973201929
 21
35.038159200059113
 31
0.0
  0
LINE
  5
A7
  8
3
 10
11.84624111246319
 20
34.417359200059117
 30
0.0
 11
11.487822251724481
 21
35.038159200059113
 31
0.0
  0
LINE
  5
A8
  8
0
 10
11.3047411124632
 20
34.417359200059117
 30
0.0
 11
17.304741112463201
 21
34.417359200059117
 31
0.0
  0
LINE
  5
A9
  8
0
 10
11.3047411124632
 20
11.800159200058831
 30
0.0
 11
17.304741112463201
 21
11.800159200058831
 31
0.0
  0
LINE
  5
AA
  8
0
 10
16.304741112463201
 20
10.800159200058831
 30
0.0
 11
17.304741112463201
 21
11.800159200058831
 31
0.0
  0
LINE
  5
AB
  8
0
 10
11.3047411124632
 20
11.800159200058831
 30
0.0
 11
12.3047411124632
 21
10.800159200058831
 31
0.0
  0
LINE
  5
AC
  8
0
 10
17.30474111246318
 20
35.038159200058693
 30
0.0
 11
17.304741112463201
 21
11.800159200058831
 31
0.0
  0
LINE
  5
AD
  8
3
 10
16.76324111246322
 20
34.417359200059117
 30
0.0
 11
16.76324111246322
 21
11.25865920005884
 31
0.0
  0
LINE
  5
AE
  8
3
 10
11.84624111246319
 20
34.417359200059117
 30
0.0
 11
11.84624111246319
 21
11.25865920005884
 31
0.0
  0
LINE
  5
AF
  8
0
 10
11.304741112463169
 20
35.038159200058693
 30
0.0
 11
11.3047411124632
 21
11.800159200058831
 31
0.0
  0
LINE
  5
B0
  8
0
 10
12.3047411124632
 20
10.800159200058831
 30
0.0
 11
16.304741112463201
 21
10.800159200058831
 31
0.0
  0
LINE
  5
382
  8
0
 10
58.110040634296098
 20
44.313948943016449
 30
0.0
 11
52.110040634295977
 21
44.313948943016449
 31
0.0
  0
LINE
  5
383
  8
0
 10
52.035645756716832
 20
44.493554065437792
 30
0.0
 11
58.184435511874511
 21
44.493554065437792
 31
0.0
  0
LINE
  5
3B1
  8
0
 10
50.1100406342957
 20
43.80015920005917
 30
0.0
 11
60.110040634295729
 21
43.80015920005917
 31
0.0
  0
LINE
  5
3B5
  8
0
 10
50.1100406342957
 20
35.80015920005912
 30
0.0
 11
60.110040634295672
 21
35.80015920005912
 31
0.0
  0
LINE
  5
3B6
  8
0
 10
50.1100406342957
 20
35.80015920005912
 30
0.0
 11
50.110040634295729
 21
43.800159200059177
 31
0.0
  0
LINE
  5
3B8
  8
0
 10
60.110040634295729
 20
43.800159200059177
 30
0.0
 11
60.1100406342957
 21
35.80015920005912
 31
0.0
  0
ARC
  5
3BA
  8
0
 10
52.552419012437127
 20
27.923764956616139
 30
0.0
 40
15.876498808759299
 50
80.729551159905554
 51
89.792052200613568
  0
ARC
  5
3BB
  8
0
 10
52.667299794910072
 20
27.92813702860008
 30
0.0
 40
15.872125453850369
 50
90.206696662476745
 51
99.271699977006094
  0
ARC
  5
3BD
  8
0
 10
52.66766225615455
 20
51.676553443501632
 30
0.0
 40
15.876498808758781
 50
260.72955115990561
 51
269.79205220061351
  0
ARC
  5
3BE
  8
0
 10
52.552781473680881
 20
51.672181371521162
 30
0.0
 40
15.872125453853331
 50
270.20669666247682
 51
279.2716999770044
  0
ARC
  5
3C1
  8
0
 10
57.552419012436751
 20
27.923764956616139
 30
0.0
 40
15.876498808759299
 50
80.729551159905554
 51
89.792052200613568
  0
ARC
  5
3C2
  8
0
 10
57.667299794910427
 20
27.928137028599341
 30
0.0
 40
15.87212545385098
 50
90.206696662476745
 51
99.271699977006094
  0
LINE
  5
3C3
  8
0
 10
55.110040634296041
 20
36.007418621695912
 30
0.0
 11
55.110040634296041
 21
43.592899778422208
 31
0.0
  0
ARC
  5
3C4
  8
0
 10
57.667662256154209
 20
51.676553443501632
 30
0.0
 40
15.876498808758781
 50
260.72955115990561
 51
269.79205220061351
  0
ARC
  5
3C5
  8
0
 10
57.552781473681279
 20
51.672181371521162
 30
0.0
 40
15.872125453853331
 50
270.20669666247682
 51
279.2716999770044
  0
LINE
  5
3C6
  8
0
 10
51.491040634295842
 20
45.80015918785918
 30
0.0
 11
58.729040634295501
 21
45.80015918785918
 31
0.0
  0
LINE
  5
3C8
  8
0
 10
51.110040634295473
 20
45.419159187859158
 30
0.0
 11
59.110040634295871
 21
45.419159187859158
 31
0.0
  0
LINE
  5
425
  8
0
 10
58.110040634296098
 20
43.80015920005917
 30
0.0
 11
58.110040634296098
 21
44.313948943016449
 31
0.0
  0
LINE
  5
426
  8
0
 10
52.110040634295977
 20
44.313948943016449
 30
0.0
 11
52.110040634295977
 21
43.80015920005917
 31
0.0
  0
ARC
  5
427
  8
0
 10
58.364040634295861
 20
44.313948943016428
 30
0.0
 40
0.2539999999999973
 50
135.00000000000051
 51
180.0
  0
ARC
  5
428
  8
0
 10
51.856040634295447
 20
44.313948943016442
 30
0.0
 40
0.2539999999999959
 50
0.0
 51
45.000000000001407
  0
ARC
  5
429
  8
0
 10
51.491040634295807
 20
45.419159187859172
 30
0.0
 40
0.3810000000000185
 50
89.999999999999986
 51
179.9999999999971
  0
ARC
  5
42A
  8
0
 10
58.729040634295501
 20
45.419159187859172
 30
0.0
 40
0.3810000000000185
 50
0.0
 51
89.999999999999986
  0
LINE
  5
42B
  8
0
 10
58.184435511874511
 20
44.493554065437792
 30
0.0
 11
59.110040634295871
 21
45.419159187859158
 31
0.0
  0
LINE
  5
42C
  8
0
 10
51.110040634295473
 20
45.419159187859158
 30
0.0
 11
52.035645756716832
 21
44.493554065437792
 31
0.0
  0
LINE
  5
42F
  8
0
 10
17.30474111246323
 20
44.313948943016072
 30
0.0
 11
11.30474111246312
 21
44.313948943016072
 31
0.0
  0
LINE
  5
430
  8
0
 10
11.2303462348845
 20
44.493554065437422
 30
0.0
 11
17.379135990041821
 21
44.493554065437422
 31
0.0
  0
LINE
  5
431
  8
0
 10
9.3047411124631765
 20
43.800159200059191
 30
0.0
 11
19.30474111246323
 21
43.800159200059191
 31
0.0
  0
LINE
  5
433
  8
0
 10
9.3047411124631765
 20
35.800159200058772
 30
0.0
 11
19.30474111246318
 21
35.800159200058772
 31
0.0
  0
LINE
  5
466
  8
0
 10
20.078243804359399
 20
36.00741862169594
 30
0.0
 11
20.078243804359399
 21
43.592899778422037
 31
0.0
  0
ARC
  5
467
  8
0
 10
18.59578733943809
 20
38.398459455214351
 30
0.0
 40
5.4018411159303561
 50
74.071629062301355
 51
89.585477631716117
  0
ARC
  5
468
  8
0
 10
18.673703090743601
 20
38.400171458344367
 30
0.0
 40
5.4001273841209869
 50
90.412045548230481
 51
105.9308477577532
  0
ARC
  5
469
  8
0
 10
18.596033172027091
 20
41.200146941773539
 30
0.0
 40
5.4001273841211699
 50
270.41204554823088
 51
285.93084775775333
  0
ARC
  5
46B
  8
0
 10
18.67394892333294
 20
41.201858944904266
 30
0.0
 40
5.4018411159310791
 50
254.07162906230261
 51
269.58547763171481
  0
LINE
  5
46D
  8
0
 10
17.191492458411261
 20
36.00741862169594
 30
0.0
 11
17.191492458411261
 21
43.592899778422037
 31
0.0
  0
ARC
  5
46E
  8
0
 10
14.23965862794463
 20
22.686417707314749
 30
0.0
 40
21.113841799924099
 50
81.963401286910823
 51
89.823388011351895
  0
ARC
  5
46F
  8
0
 10
14.420067018595351
 20
21.98661712009417
 30
0.0
 40
21.813846935811249
 50
90.302913946865004
 51
97.910296754873556
  0
ARC
  5
470
  8
0
 10
14.420191595509969
 20
57.615436412605817
 30
0.0
 40
21.815582703065701
 50
262.0900063329866
 51
269.69678296527661
  0
ARC
  5
471
  8
0
 10
14.240068020765669
 20
56.908198586387982
 30
0.0
 40
21.108138462299461
 50
270.17554845049432
 51
278.03766225124411
  0
LINE
  5
472
  8
0
 10
11.41798976651506
 20
36.00741862169594
 30
0.0
 11
11.41798976651506
 21
43.592899778422037
 31
0.0
  0
ARC
  5
473
  8
0
 10
9.9355333015935798
 20
38.398459455214351
 30
0.0
 40
5.4018411159302877
 50
74.071629062301355
 51
89.585477631715705
  0
ARC
  5
474
  8
0
 10
10.013449052899061
 20
38.400171458344367
 30
0.0
 40
5.4001273841209203
 50
90.412045548230481
 51
105.9308477577536
  0
LINE
  5
475
  8
0
 10
8.5312384205667797
 20
36.00741862169594
 30
0.0
 11
8.5312384205667797
 21
43.592899778422037
 31
0.0
  0
ARC
  5
476
  8
0
 10
10.01369488548843
 20
41.201858944904266
 30
0.0
 40
5.4018411159308748
 50
254.07162906230209
 51
269.58547763171521
  0
ARC
  5
477
  8
0
 10
9.9357791341822121
 20
41.200146941774982
 30
0.0
 40
5.400127384122797
 50
270.41204554823332
 51
285.93084775775128
  0
LINE
  5
478
  8
0
 10
10.68574111246315
 20
45.800159187859173
 30
0.0
 11
17.923741112463201
 21
45.80015918785918
 31
0.0
  0
LINE
  5
47A
  8
0
 10
10.30474111246315
 20
45.41915918785881
 30
0.0
 11
18.304741112463201
 21
45.41915918785881
 31
0.0
  0
LINE
  5
491
  8
0
 10
9.3047411124631765
 20
43.800159200059191
 30
0.0
 11
8.5312384205667797
 21
43.592899778422037
 31
0.0
  0
LINE
  5
492
  8
0
 10
20.078243804359399
 20
43.592899778422037
 30
0.0
 11
19.30474111246318
 21
43.800159200059191
 31
0.0
  0
LINE
  5
493
  8
0
 10
8.5312384205667797
 20
36.00741862169594
 30
0.0
 11
9.3047411124631765
 21
35.800159200058772
 31
0.0
  0
LINE
  5
494
  8
0
 10
19.30474111246318
 20
35.800159200058772
 30
0.0
 11
20.078243804359399
 21
36.00741862169594
 31
0.0
  0
ARC
  5
4D9
  8
0
 10
18.066741112463291
 20
35.038159200058693
 30
0.0
 40
0.7620000000000146
 50
89.999999999999574
 51
180.0
  0
ARC
  5
4DA
  8
0
 10
10.542741112463061
 20
35.038159200058693
 30
0.0
 40
0.7620000000000146
 50
0.0
 51
89.999999999999574
  0
LINE
  5
4DB
  8
0
 10
17.30474111246323
 20
43.800159200059191
 30
0.0
 11
17.30474111246323
 21
44.313948943016072
 31
0.0
  0
LINE
  5
4DC
  8
0
 10
11.30474111246312
 20
44.313948943016072
 30
0.0
 11
11.30474111246312
 21
43.800159200059191
 31
0.0
  0
ARC
  5
4DD
  8
0
 10
17.558741112463188
 20
44.313948943016037
 30
0.0
 40
0.2540000000000278
 50
134.99999999999301
 51
180.0
  0
ARC
  5
4DE
  8
0
 10
11.050741112463159
 20
44.313948943016037
 30
0.0
 40
0.2540000000000357
 50
0.0
 51
45.000000000005173
  0
ARC
  5
4DF
  8
0
 10
10.68574111246315
 20
45.419159187858767
 30
0.0
 40
0.3810000000000073
 50
89.999999999999986
 51
180.0
  0
ARC
  5
4E0
  8
0
 10
17.923741112463201
 20
45.419159187858767
 30
0.0
 40
0.3810000000000185
 50
0.0
 51
89.999999999999986
  0
LINE
  5
4E1
  8
0
 10
17.379135990041821
 20
44.493554065437422
 30
0.0
 11
18.304741112463201
 21
45.41915918785881
 31
0.0
  0
LINE
  5
4E2
  8
0
 10
10.30474111246315
 20
45.41915918785881
 30
0.0
 11
11.2303462348845
 21
44.493554065437422
 31
0.0
  0
LINE
  5
4E3
  8
0
 10
11.41798976651509
 20
79.2001591878592
 30
0.0
 11
17.19149245841129
 21
79.200159187859185
 31
0.0
  0
LINE
  5
4E6
  8
0
 10
17.19149245841086
 20
79.200159187859185
 30
0.0
 11
20.078243804359399
 21
74.200159187859526
 31
0.0
  0
LINE
  5
4E8
  8
0
 10
17.191492458411322
 20
69.200159187859185
 30
0.0
 11
11.41798976651506
 21
69.200159187859185
 31
0.0
  0
LINE
  5
4EA
  8
0
 10
11.417989766515291
 20
69.200159187859185
 30
0.0
 11
8.5312384205667797
 21
74.200159187859526
 31
0.0
  0
LINE
  5
4EC
  8
0
 10
8.5312384205671208
 20
74.200159187859001
 30
0.0
 11
11.41798976651506
 21
79.200159187859185
 31
0.0
  0
LINE
  5
4ED
  8
0
 10
20.078243804359399
 20
74.200159187859484
 30
0.0
 11
17.19149245841129
 21
69.200159187859185
 31
0.0
  0
CIRCLE
  5
4F5
  8
0
 10
14.3047411124632
 20
74.200159187859484
 30
0.0
 40
4.00000000000004
  0
LINE
  5
4FA
  8
1
 10
14.3047411124632
 20
7.800159200058487
 30
0.0
 11
14.3047411124632
 21
48.80015918785918
 31
0.0
  0
LINE
  5
4FB
  8
1
 10
23.078243804359431
 20
74.200159187859484
 30
0.0
 11
5.5312384205667513
 21
74.200159187859484
 31
0.0
  0
LINE
  5
4FC
  8
1
 10
55.110040634296041
 20
7.800159200058487
 30
0.0
 11
55.110040634296041
 21
48.80015918785918
 31
0.0
  0
LINE
  5
505
  8
1
 10
14.3047411124632
 20
66.200159187859185
 30
0.0
 11
14.3047411124632
 21
82.200159187859185
 31
0.0
  0
CIRCLE
  5
512
  8
0
 10
14.304741112463089
 20
74.200159187859484
 30
0.0
 40
5.0000000000000684
  0
LINE
  5
525
  8
0
 10
17.30474111246329
 20
35.038159200059113
 30
0.0
 11
11.304741112463059
 21
35.038159200058693
 31
0.0
  0
LINE
  5
526
  8
0
 10
58.110040634367181
 20
35.038159200059113
 30
0.0
 11
52.110040634366953
 21
35.038159200058693
 31
0.0
  0
ARC
  5
527
  8
0
 10
51.348040634366953
 20
35.038159200058693
 30
0.0
 40
0.7620000000000146
 50
0.0
 51
89.999999999999574
  0
ARC
  5
528
  8
0
 10
58.872040634367181
 20
35.038159200058693
 30
0.0
 40
0.7620000000000146
 50
89.999999999999574
 51
180.0
  0
LINE
  5
529
  8
0
 10
53.110040634367088
 20
10.800159200058831
 30
0.0
 11
57.110040634367103
 21
10.800159200058831
 31
0.0
  0
LINE
  5
52A
  8
0
 10
52.110040634367067
 20
35.038159200058693
 30
0.0
 11
52.110040634367103
 21
11.800159200058831
 31
0.0
  0
LINE
  5
52B
  8
3
 10
52.65154063436708
 20
34.417359200059117
 30
0.0
 11
52.65154063436708
 21
11.25865920005884
 31
0.0
  0
LINE
  5
52C
  8
3
 10
57.56854063436711
 20
34.417359200059117
 30
0.0
 11
57.56854063436711
 21
11.25865920005884
 31
0.0
  0
LINE
  5
52D
  8
0
 10
58.110040634367067
 20
35.038159200058693
 30
0.0
 11
58.110040634367088
 21
11.800159200058831
 31
0.0
  0
LINE
  5
52E
  8
0
 10
52.110040634367103
 20
11.800159200058831
 30
0.0
 11
53.110040634367088
 21
10.800159200058831
 31
0.0
  0
LINE
  5
52F
  8
0
 10
57.110040634367103
 20
10.800159200058831
 30
0.0
 11
58.110040634367088
 21
11.800159200058831
 31
0.0
  0
LINE
  5
530
  8
0
 10
52.110040634367103
 20
11.800159200058831
 30
0.0
 11
58.110040634367088
 21
11.800159200058831
 31
0.0
  0
LINE
  5
531
  8
0
 10
52.110040634367103
 20
34.417359200059117
 30
0.0
 11
58.110040634367088
 21
34.417359200059117
 31
0.0
  0
LINE
  5
532
  8
3
 10
52.65154063436708
 20
34.417359200059117
 30
0.0
 11
52.293121773628371
 21
35.038159200059113
 31
0.0
  0
LINE
  5
533
  8
3
 10
57.56854063436711
 20
34.417359200059117
 30
0.0
 11
57.92695949510582
 21
35.038159200059113
 31
0.0
  0
TEXT
  5
5F0
  8
0
 62
     3
 10
0.0
 20
0.0
 30
0.0
 40
5.0
  1
BUH-06025-DS
  7
STANDARD1
  0
ENDSEC
  0
EOF
