  0
SECTION
  2
HEADER
  9
$ACADVER
  1
AC1009
  9
$INSBASE
 10
82.638099999999994
 20
103.82319099999999
 30
0.0
  9
$EXTMIN
 10
0.0
 20
-1.4802182810368341
 30
0.0
  9
$EXTMAX
 10
74.259729376658498
 20
76.769606121790247
 30
0.0
  9
$LIMMIN
 10
0.0
 20
0.0
  9
$LIMMAX
 10
187.5
 20
135.0
  9
$ORTHOMODE
 70
     1
  9
$REGENMODE
 70
     1
  9
$FILLMODE
 70
     1
  9
$QTEXTMODE
 70
     0
  9
$MIRRTEXT
 70
     0
  9
$DRAGMODE
 70
     2
  9
$LTSCALE
 40
5.0
  9
$OSMODE
 70
  3071
  9
$ATTMODE
 70
     1
  9
$TEXTSIZE
 40
0.06
  9
$TRACEWID
 40
0.05
  9
$TEXTSTYLE
  7
STANDARD
  9
$CLAYER
  8
0
  9
$CELTYPE
  6
BYLAYER
  9
$CECOLOR
 62
   256
  9
$DIMSCALE
 40
0.5
  9
$DIMASZ
 40
3.0
  9
$DIMEXO
 40
2.0
  9
$DIMDLI
 40
10.0
  9
$DIMRND
 40
0.0
  9
$DIMDLE
 40
0.0
  9
$DIMEXE
 40
2.0
  9
$DIMTP
 40
0.0
  9
$DIMTM
 40
0.0
  9
$DIMTXT
 40
3.0
  9
$DIMCEN
 40
0.0
  9
$DIMTSZ
 40
0.0
  9
$DIMTOL
 70
     0
  9
$DIMLIM
 70
     0
  9
$DIMTIH
 70
     0
  9
$DIMTOH
 70
     0
  9
$DIMSE1
 70
     0
  9
$DIMSE2
 70
     0
  9
$DIMTAD
 70
     1
  9
$DIMZIN
 70
     0
  9
$DIMBLK
  1

  9
$DIMASO
 70
     0
  9
$DIMSHO
 70
     0
  9
$DIMPOST
  1

  9
$DIMAPOST
  1

  9
$DIMALT
 70
     0
  9
$DIMALTD
 70
     2
  9
$DIMALTF
 40
25.399999999999999
  9
$DIMLFAC
 40
1.0
  9
$DIMTOFL
 70
     1
  9
$DIMTVP
 40
1.6000000000000001
  9
$DIMTIX
 70
     1
  9
$DIMSOXD
 70
     0
  9
$DIMSAH
 70
     0
  9
$DIMBLK1
  1

  9
$DIMBLK2
  1

  9
$DIMSTYLE
  2
STANDARD
  9
$DIMCLRD
 70
     0
  9
$DIMCLRE
 70
     0
  9
$DIMCLRT
 70
     0
  9
$DIMTFAC
 40
1.0
  9
$DIMGAP
 40
0.09
  9
$LUNITS
 70
     2
  9
$LUPREC
 70
     4
  9
$SKETCHINC
 40
0.1
  9
$FILLETRAD
 40
0.4
  9
$AUNITS
 70
     0
  9
$AUPREC
 70
     4
  9
$MENU
  1
E:\r13\win\SUPPORT\ACAD
  9
$ELEVATION
 40
0.0
  9
$PELEVATION
 40
0.0
  9
$THICKNESS
 40
0.0
  9
$LIMCHECK
 70
     0
  9
$BLIPMODE
 70
     0
  9
$CHAMFERA
 40
0.0
  9
$CHAMFERB
 40
0.0
  9
$SKPOLY
 70
     0
  9
$TDCREATE
 40
2449840.5903472221
  9
$TDUPDATE
 40
2456598.4702784028
  9
$TDINDWG
 40
0.0758158796
  9
$TDUSRTIMER
 40
0.0758158796
  9
$USRTIMER
 70
     1
  9
$ANGBASE
 50
0.0
  9
$ANGDIR
 70
     0
  9
$PDMODE
 70
     0
  9
$PDSIZE
 40
0.0
  9
$PLINEWID
 40
0.0
  9
$COORDS
 70
     1
  9
$SPLFRAME
 70
     0
  9
$SPLINETYPE
 70
     6
  9
$SPLINESEGS
 70
     8
  9
$ATTDIA
 70
     0
  9
$ATTREQ
 70
     1
  9
$HANDLING
 70
     1
  9
$HANDSEED
  5
5A4
  9
$SURFTAB1
 70
     6
  9
$SURFTAB2
 70
     6
  9
$SURFTYPE
 70
     6
  9
$SURFU
 70
     6
  9
$SURFV
 70
     6
  9
$UCSNAME
  2

  9
$UCSORG
 10
0.0
 20
0.0
 30
0.0
  9
$UCSXDIR
 10
1.0
 20
0.0
 30
0.0
  9
$UCSYDIR
 10
0.0
 20
1.0
 30
0.0
  9
$PUCSNAME
  2

  9
$PUCSORG
 10
0.0
 20
0.0
 30
0.0
  9
$PUCSXDIR
 10
1.0
 20
0.0
 30
0.0
  9
$PUCSYDIR
 10
0.0
 20
1.0
 30
0.0
  9
$USERI1
 70
     3
  9
$USERI2
 70
     1
  9
$USERI3
 70
     0
  9
$USERI4
 70
     0
  9
$USERI5
 70
     0
  9
$USERR1
 40
0.5
  9
$USERR2
 40
3.0
  9
$USERR3
 40
3.0
  9
$USERR4
 40
3.0
  9
$USERR5
 40
10.0
  9
$WORLDVIEW
 70
     1
  9
$SHADEDGE
 70
     3
  9
$SHADEDIF
 70
    70
  9
$TILEMODE
 70
     1
  9
$MAXACTVP
 70
    16
  9
$PLIMCHECK
 70
     0
  9
$PEXTMIN
 10
1.0000000000000000E+020
 20
1.0000000000000000E+020
 30
1.0000000000000000E+020
  9
$PEXTMAX
 10
-1.0000000000000000E+020
 20
-1.0000000000000000E+020
 30
-1.0000000000000000E+020
  9
$PLIMMIN
 10
0.0
 20
0.0
  9
$PLIMMAX
 10
12.0
 20
9.0
  9
$UNITMODE
 70
     0
  9
$VISRETAIN
 70
     0
  9
$PLINEGEN
 70
     0
  9
$PSLTSCALE
 70
     0
  0
ENDSEC
  0
SECTION
  2
TABLES
  0
TABLE
  2
VPORT
 70
     1
  0
VPORT
  2
*ACTIVE
 70
     0
 10
0.0
 20
0.0
 11
1.0
 21
1.0
 12
97.52905416604365
 22
66.75636307133405
 13
0.0
 23
0.0
 14
5.0
 24
5.0
 15
10.0
 25
10.0
 16
0.0
 26
0.0
 36
1.0
 17
0.0
 27
0.0
 37
0.0
 40
137.71137496815999
 41
1.831871345029239
 42
50.0
 43
0.0
 44
0.0
 50
0.0
 51
0.0
 71
     0
 72
   100
 73
     1
 74
     0
 75
     0
 76
     0
 77
     0
 78
     2
  0
ENDTAB
  0
TABLE
  2
LTYPE
 70
     3
  0
LTYPE
  2
CONTINUOUS
 70
     0
  3
Solid Line
 72
    65
 73
     0
 40
0.0
  0
LTYPE
  2
CENTER
 70
     0
  3
____ _ ____ _ ____ _ ____ _ ____ _ ____ _ ____
 72
    65
 73
     4
 40
2.0
 49
1.25
 49
-0.25
 49
0.25
 49
-0.25
  0
LTYPE
  2
PHANTOM2
 70
     0
  3
___ _ _ ___ _ _ ___ _ _ ___ _ _
 72
    65
 73
     6
 40
1.25
 49
0.625
 49
-0.125
 49
0.125
 49
-0.125
 49
0.125
 49
-0.125
  0
ENDTAB
  0
TABLE
  2
LAYER
 70
     3
  0
LAYER
  2
0
 70
     0
 62
     7
  6
CONTINUOUS
  0
LAYER
  2
1
 70
     0
 62
     1
  6
CENTER
  0
LAYER
  2
3
 70
     0
 62
     3
  6
CONTINUOUS
  0
ENDTAB
  0
TABLE
  2
STYLE
 70
     2
  0
STYLE
  2
STANDARD
 70
     0
 40
0.0
 41
1.0
 50
0.0
 71
     0
 42
0.06
  3
TXT
  4
BIGFONT
  0
STYLE
  2
STANDARD1
 70
     0
 40
0.0
 41
1.0
 50
0.0
 71
     0
 42
3.0
  3
txt
  4

  0
ENDTAB
  0
TABLE
  2
VIEW
 70
     0
  0
ENDTAB
  0
TABLE
  2
UCS
 70
     0
  0
ENDTAB
  0
TABLE
  2
APPID
 70
     3
  0
APPID
  2
ACAD
 70
     0
  0
APPID
  2
ACAD_MLEADERVER
 70
     0
  0
APPID
  2
ACAD_NAV_VCDISPLAY
 70
     0
  0
ENDTAB
  0
TABLE
  2
DIMSTYLE
 70
     1
  0
DIMSTYLE
  2
STANDARD
 70
     0
  3

  4

  5

  6

  7

 40
1.0
 41
0.18
 42
0.0625
 43
0.38
 44
0.18
 45
0.0
 46
0.0
 47
0.0
 48
0.0
140
0.18
141
0.09
142
0.0
143
25.399999999999999
144
1.0
145
0.0
146
1.0
147
0.09
 71
     0
 72
     0
 73
     1
 74
     1
 75
     0
 76
     0
 77
     0
 78
     0
170
     0
171
     2
172
     0
173
     0
174
     0
175
     0
176
     0
177
     0
178
     0
  0
ENDTAB
  0
ENDSEC
  0
SECTION
  2
BLOCKS
  0
BLOCK
  8
0
  2
$MODEL_SPACE
 70
     0
 10
0.0
 20
0.0
 30
0.0
  3
$MODEL_SPACE
  1

  0
ENDBLK
  5
10C
  8
0
  0
BLOCK
 67
     1
  8
0
  2
$PAPER_SPACE
 70
     0
 10
0.0
 20
0.0
 30
0.0
  3
$PAPER_SPACE
  1

  0
ENDBLK
  5
10A
 67
     1
  8
0
  0
ENDSEC
  0
SECTION
  2
ENTITIES
  0
LINE
  5
6C
  8
3
 10
21.743980462404298
 20
20.668318518089219
 30
0.0
 11
22.420480462404299
 21
21.840050518089221
 31
0.0
  0
LINE
  5
6D
  8
3
 10
15.0969804624043
 20
20.668318518089219
 30
0.0
 11
14.420480462404299
 21
21.840050518089221
 31
0.0
  0
LINE
  5
6E
  8
0
 10
14.420480462404299
 20
11.86831851808985
 30
0.0
 11
22.420480462404299
 21
11.86831851808985
 31
0.0
  0
LINE
  5
6F
  8
0
 10
21.220480462404311
 20
10.668318518089841
 30
0.0
 11
22.420480462404299
 21
11.86831851808985
 31
0.0
  0
LINE
  5
70
  8
0
 10
15.62048046240429
 20
10.668318518089841
 30
0.0
 11
14.420480462404299
 21
11.86831851808985
 31
0.0
  0
LINE
  5
71
  8
0
 10
14.420480462404299
 20
20.668318518089219
 30
0.0
 11
22.420480462404299
 21
20.668318518089219
 31
0.0
  0
LINE
  5
72
  8
0
 10
14.420480462404299
 20
11.86831851808985
 30
0.0
 11
14.420480462404299
 21
21.906318518089389
 31
0.0
  0
LINE
  5
73
  8
3
 10
15.0969804624043
 20
11.191818518089841
 30
0.0
 11
15.0969804624043
 21
20.668318518089219
 31
0.0
  0
LINE
  5
74
  8
3
 10
21.743980462404298
 20
11.191818518089841
 30
0.0
 11
21.743980462404298
 21
20.668318518089219
 31
0.0
  0
LINE
  5
75
  8
0
 10
22.420480462404299
 20
11.86831851808985
 30
0.0
 11
22.420480462404299
 21
21.906318518089389
 31
0.0
  0
LINE
  5
76
  8
0
 10
15.62048046240429
 20
10.668318518089841
 30
0.0
 11
21.220480462404311
 21
10.668318518089841
 31
0.0
  0
LINE
  5
30C
  8
0
 10
71.759729376658413
 20
34.928108267645747
 30
0.0
 11
63.75972937665847
 21
34.928108267645747
 31
0.0
  0
LINE
  5
30D
  8
0
 10
63.685334499080057
 20
35.107713390067097
 30
0.0
 11
71.834124254236826
 21
35.107713390067097
 31
0.0
  0
LINE
  5
331
  8
0
 10
61.25972937665847
 20
34.168318518088753
 30
0.0
 11
74.259729376658441
 21
34.168318518088739
 31
0.0
  0
LINE
  5
334
  8
0
 10
74.259729376658498
 20
34.168318518088753
 30
0.0
 11
74.259729376658441
 21
22.668318518089031
 31
0.0
  0
LINE
  5
335
  8
0
 10
61.25972937665847
 20
22.668318518089031
 30
0.0
 11
74.259729376658441
 21
22.668318518089031
 31
0.0
  0
LINE
  5
336
  8
0
 10
61.25972937665847
 20
22.668318518089031
 30
0.0
 11
61.259729376658491
 21
34.168318518088761
 31
0.0
  0
ARC
  5
339
  8
0
 10
70.934821268241251
 20
13.529006001607449
 30
0.0
 40
20.639448451392472
 50
80.729551159908809
 51
89.792052200611906
  0
ARC
  5
33A
  8
0
 10
71.084166285457513
 20
13.534689695185641
 30
0.0
 40
20.633763090011652
 50
90.206696662478393
 51
99.271699977004289
  0
ARC
  5
33B
  8
0
 10
70.935292467859654
 20
43.301947340985677
 30
0.0
 40
20.633763090004951
 50
270.20669666247682
 51
279.2716999770044
  0
ARC
  5
33D
  8
0
 10
71.084637485074495
 20
43.307631034563158
 30
0.0
 40
20.639448451385299
 50
260.72955115990561
 51
269.79205220061351
  0
LINE
  5
33E
  8
0
 10
67.759729376658072
 20
22.93775576621719
 30
0.0
 11
67.759729376658072
 21
33.89888126996059
 31
0.0
  0
ARC
  5
33F
  8
0
 10
64.434821268241635
 20
13.52900600160779
 30
0.0
 40
20.63944845139202
 50
80.729551159908809
 51
89.792052200613568
  0
ARC
  5
340
  8
0
 10
64.584166285457854
 20
13.5346896951853
 30
0.0
 40
20.633763090011801
 50
90.206696662478393
 51
99.271699977004289
  0
ARC
  5
342
  8
0
 10
64.584637485074836
 20
43.307631034563528
 30
0.0
 40
20.639448451385459
 50
260.72955115990561
 51
269.79205220061351
  0
ARC
  5
343
  8
0
 10
64.435292467859313
 20
43.301947340985343
 30
0.0
 40
20.63376309000477
 50
270.20669666247682
 51
279.2716999770044
  0
LINE
  5
344
  8
0
 10
62.894729376659029
 20
37.168318512488391
 30
0.0
 11
72.624729376657882
 21
37.168318512488391
 31
0.0
  0
LINE
  5
346
  8
0
 10
62.259729376658917
 20
36.533318512488663
 30
0.0
 11
73.259729376657987
 21
36.533318512488663
 31
0.0
  0
ARC
  5
389
  8
0
 10
72.521729376658385
 20
21.906318518089439
 30
0.0
 40
0.7619999999999682
 50
89.999999999999986
 51
180.0
  0
ARC
  5
38A
  8
0
 10
62.997729376658469
 20
21.906318518089439
 30
0.0
 40
0.7619999999999455
 50
0.0
 51
89.999999999999986
  0
LINE
  5
38B
  8
0
 10
71.759729376658413
 20
34.168318518088753
 30
0.0
 11
71.759729376658413
 21
34.928108267645747
 31
0.0
  0
LINE
  5
38C
  8
0
 10
63.75972937665847
 20
34.928108267645747
 30
0.0
 11
63.75972937665847
 21
34.168318518088753
 31
0.0
  0
ARC
  5
38D
  8
0
 10
72.013729376658148
 20
34.92810826764579
 30
0.0
 40
0.2539999999999818
 50
135.00000000000051
 51
180.0
  0
ARC
  5
38E
  8
0
 10
63.505729376658678
 20
34.92810826764579
 30
0.0
 40
0.2540000000000044
 50
0.0
 51
45.000000000001158
  0
ARC
  5
38F
  8
0
 10
62.894729376658972
 20
36.53331851248867
 30
0.0
 40
0.6349999999999545
 50
89.999999999999986
 51
180.0
  0
ARC
  5
390
  8
0
 10
72.624729376657882
 20
36.53331851248867
 30
0.0
 40
0.6349999999999545
 50
0.0
 51
89.999999999999986
  0
LINE
  5
391
  8
0
 10
71.834124254236826
 20
35.107713390067097
 30
0.0
 11
73.259729376657987
 21
36.533318512488663
 31
0.0
  0
LINE
  5
392
  8
0
 10
62.259729376658917
 20
36.533318512488663
 30
0.0
 11
63.685334499080057
 21
35.107713390067097
 31
0.0
  0
LINE
  5
394
  8
0
 10
22.420480462404331
 20
21.906318518089389
 30
0.0
 11
14.420480462404701
 21
21.906318518089389
 31
0.0
  0
LINE
  5
395
  8
0
 10
22.420480462404299
 20
34.928108267645769
 30
0.0
 11
14.420480462404701
 21
34.928108267645769
 31
0.0
  0
LINE
  5
396
  8
0
 10
14.346085584825939
 20
35.10771339006709
 30
0.0
 11
22.49487533998305
 21
35.10771339006709
 31
0.0
  0
LINE
  5
398
  8
0
 10
11.92048046240469
 20
34.168318518089052
 30
0.0
 11
24.920480462404239
 21
34.168318518089052
 31
0.0
  0
LINE
  5
39A
  8
0
 10
11.92048046240469
 20
22.668318518089389
 30
0.0
 11
24.920480462404331
 21
22.668318518089389
 31
0.0
  0
ARC
  5
3C0
  8
0
 10
12.74051030827442
 20
27.146108849792121
 30
0.0
 40
7.0223934507080337
 50
74.07162906229901
 51
89.585477631714895
  0
ARC
  5
3C1
  8
0
 10
12.84180078497169
 20
27.148334453861231
 30
0.0
 40
7.02016559935646
 50
90.412045548231333
 51
105.9308477577556
  0
LINE
  5
3C2
  8
0
 10
10.91492696293974
 20
22.937755766217549
 30
0.0
 11
10.91492696293974
 21
33.898881269960953
 31
0.0
  0
ARC
  5
3C3
  8
0
 10
12.84212036733774
 20
29.69052818638843
 30
0.0
 40
7.0223934507101999
 50
254.07162906230289
 51
269.58547763171572
  0
ARC
  5
3C5
  8
0
 10
12.740829890639731
 20
29.68830258231932
 30
0.0
 40
7.020165599358358
 50
270.41204554823207
 51
285.93084775775128
  0
ARC
  5
3C7
  8
0
 10
18.33587323253025
 20
6.7204545775258131
 30
0.0
 40
27.44799433989699
 50
81.963401286910013
 51
89.823388011351895
  0
ARC
  5
3C8
  8
0
 10
18.568822594753211
 20
5.8327419029997278
 30
0.0
 40
28.335964912065251
 50
90.299951561819341
 51
97.913259139921024
  0
LINE
  5
3C9
  8
0
 10
14.66770371267202
 20
22.937755766217549
 30
0.0
 11
14.66770371267202
 21
33.898881269960953
 31
0.0
  0
ARC
  5
3CA
  8
0
 10
18.568980704904671
 20
51.006097323507689
 30
0.0
 40
28.338167900322048
 50
262.08703722267228
 51
269.6997520755923
  0
ARC
  5
3CB
  8
0
 10
18.336405443197549
 20
50.108769720321128
 30
0.0
 40
27.44058000099329
 50
270.17554845049432
 51
278.03766225124298
  0
LINE
  5
3CC
  8
0
 10
25.926033961869251
 20
22.937755766217549
 30
0.0
 11
25.926033961869251
 21
33.898881269960953
 31
0.0
  0
ARC
  5
3CD
  8
0
 10
23.998840557471649
 20
27.1461088497921
 30
0.0
 40
7.0223934507081953
 50
74.07162906229901
 51
89.585477631715705
  0
ARC
  5
3CE
  8
0
 10
24.1001310341689
 20
27.14833445386121
 30
0.0
 40
7.0201655993563703
 50
90.412045548231333
 51
105.9308477577556
  0
LINE
  5
3CF
  8
0
 10
22.173257212136971
 20
22.937755766217549
 30
0.0
 11
22.173257212136971
 21
33.898881269960953
 31
0.0
  0
ARC
  5
3D0
  8
0
 10
24.10045061653458
 20
29.690528186386938
 30
0.0
 40
7.0223934507087131
 50
254.0716290623013
 51
269.58547763171651
  0
ARC
  5
3D1
  8
0
 10
23.99916013983696
 20
29.68830258231857
 30
0.0
 40
7.0201655993582444
 50
270.41204554823128
 51
285.93084775775128
  0
LINE
  5
3D2
  8
0
 10
13.55548046240486
 20
37.168318512488383
 30
0.0
 11
23.285480462404141
 21
37.168318512488383
 31
0.0
  0
LINE
  5
3D4
  8
0
 10
12.92048046240475
 20
36.533318512488961
 30
0.0
 11
23.920480462404239
 21
36.533318512488961
 31
0.0
  0
LINE
  5
3E5
  8
0
 10
25.926033961869251
 20
33.898881269960953
 30
0.0
 11
24.920480462404299
 21
34.168318518089052
 31
0.0
  0
LINE
  5
3E6
  8
0
 10
11.92048046240469
 20
34.168318518089052
 30
0.0
 11
10.91492696293974
 21
33.898881269960953
 31
0.0
  0
LINE
  5
3E7
  8
0
 10
24.920480462404299
 20
22.668318518089389
 30
0.0
 11
25.926033961869251
 21
22.937755766217549
 31
0.0
  0
LINE
  5
3E8
  8
0
 10
10.91492696293974
 20
22.937755766217549
 30
0.0
 11
11.92048046240469
 21
22.668318518089389
 31
0.0
  0
ARC
  5
41B
  8
0
 10
23.1824804624043
 20
21.90631851808935
 30
0.0
 40
0.7619999999999682
 50
89.999999999999986
 51
180.0
  0
ARC
  5
41C
  8
0
 10
13.65848046240472
 20
21.90631851808936
 30
0.0
 40
0.7619999999999682
 50
0.0
 51
89.999999999999986
  0
LINE
  5
41D
  8
0
 10
22.420480462404299
 20
34.168318518089052
 30
0.0
 11
22.420480462404299
 21
34.928108267645769
 31
0.0
  0
LINE
  5
41E
  8
0
 10
14.420480462404701
 20
34.928108267645769
 30
0.0
 11
14.420480462404701
 21
34.168318518089052
 31
0.0
  0
ARC
  5
41F
  8
0
 10
22.674480462404428
 20
34.928108267645733
 30
0.0
 40
0.2539999999999964
 50
134.9999999999971
 51
180.0
  0
ARC
  5
420
  8
0
 10
14.166480462404589
 20
34.92810826764574
 30
0.0
 40
0.2540000000000123
 50
0.0
 51
44.999999999999993
  0
ARC
  5
421
  8
0
 10
13.55548046240486
 20
36.533318512488933
 30
0.0
 40
0.6349999999999773
 50
89.999999999999986
 51
180.0
  0
ARC
  5
422
  8
0
 10
23.285480462404141
 20
36.533318512488918
 30
0.0
 40
0.6349999999999659
 50
0.0
 51
89.999999999999986
  0
LINE
  5
423
  8
0
 10
22.49487533998305
 20
35.10771339006709
 30
0.0
 11
23.920480462404239
 21
36.533318512488961
 31
0.0
  0
LINE
  5
424
  8
0
 10
12.92048046240475
 20
36.533318512488961
 30
0.0
 11
14.346085584825939
 21
35.10771339006709
 31
0.0
  0
LINE
  5
426
  8
0
 10
22.173257212136971
 20
60.769606121790282
 30
0.0
 11
14.667703712672051
 21
60.769606121790282
 31
0.0
  0
LINE
  5
428
  8
0
 10
22.17325721213734
 20
73.769606121790233
 30
0.0
 11
25.926033961869251
 21
67.269606121789877
 31
0.0
  0
LINE
  5
429
  8
0
 10
14.66770371267245
 20
73.769606121790247
 30
0.0
 11
22.173257212136971
 21
73.769606121790247
 31
0.0
  0
LINE
  5
430
  8
0
 10
10.914926962939321
 20
67.269606121790645
 30
0.0
 11
14.667703712672051
 21
73.769606121789508
 31
0.0
  0
LINE
  5
431
  8
0
 10
25.926033961869219
 20
67.269606121789877
 30
0.0
 11
22.173257212136971
 21
60.769606121790282
 31
0.0
  0
LINE
  5
436
  8
0
 10
14.66770371267199
 20
60.769606121790268
 30
0.0
 11
10.91492696293977
 21
67.269606121789906
 31
0.0
  0
CIRCLE
  5
437
  8
0
 10
18.420480462404299
 20
67.269606121789877
 30
0.0
 40
5.4999999999997158
  0
LINE
  5
443
  8
1
 10
18.420480462404299
 20
57.769606121790282
 30
0.0
 11
18.420480462404299
 21
76.769606121790247
 31
0.0
  0
LINE
  5
444
  8
1
 10
28.926033961869251
 20
67.269606121789877
 30
0.0
 11
7.9149269629397452
 21
67.269606121789877
 31
0.0
  0
LINE
  5
445
  8
1
 10
67.759729376658072
 20
40.168318512488383
 30
0.0
 11
67.759729376658072
 21
7.6683185180898468
 31
0.0
  0
LINE
  5
44E
  8
1
 10
18.420480462404299
 20
40.168318512488383
 30
0.0
 11
18.420480462404299
 21
7.6683185180898468
 31
0.0
  0
CIRCLE
  5
44F
  8
0
 10
18.420480462404491
 20
67.269606121789877
 30
0.0
 40
6.4999999999995666
  0
LINE
  5
464
  8
0
 10
71.7597293766581
 20
21.906318518089389
 30
0.0
 11
63.75972937665847
 21
21.906318518089389
 31
0.0
  0
LINE
  5
465
  8
0
 10
64.959729376658061
 20
10.668318518089841
 30
0.0
 11
70.559729376658083
 21
10.668318518089841
 31
0.0
  0
LINE
  5
466
  8
0
 10
71.759729376658072
 20
11.86831851808985
 30
0.0
 11
71.759729376658072
 21
21.906318518089389
 31
0.0
  0
LINE
  5
467
  8
3
 10
71.083229376658068
 20
11.191818518089841
 30
0.0
 11
71.083229376658068
 21
20.668318518089219
 31
0.0
  0
LINE
  5
468
  8
3
 10
64.436229376658076
 20
11.191818518089841
 30
0.0
 11
64.436229376658076
 21
20.668318518089219
 31
0.0
  0
LINE
  5
469
  8
0
 10
63.759729376658072
 20
11.86831851808985
 30
0.0
 11
63.759729376658072
 21
21.906318518089389
 31
0.0
  0
LINE
  5
46A
  8
0
 10
63.759729376658072
 20
20.668318518089219
 30
0.0
 11
71.759729376658072
 21
20.668318518089219
 31
0.0
  0
LINE
  5
46B
  8
0
 10
64.959729376658061
 20
10.668318518089841
 30
0.0
 11
63.759729376658072
 21
11.86831851808985
 31
0.0
  0
LINE
  5
46C
  8
0
 10
70.559729376658083
 20
10.668318518089841
 30
0.0
 11
71.759729376658072
 21
11.86831851808985
 31
0.0
  0
LINE
  5
46D
  8
0
 10
63.759729376658072
 20
11.86831851808985
 30
0.0
 11
71.759729376658072
 21
11.86831851808985
 31
0.0
  0
LINE
  5
46E
  8
3
 10
64.436229376658076
 20
20.668318518089219
 30
0.0
 11
63.759729376658072
 21
21.840050518089221
 31
0.0
  0
LINE
  5
46F
  8
3
 10
71.083229376658068
 20
20.668318518089219
 30
0.0
 11
71.759729376658072
 21
21.840050518089221
 31
0.0
  0
TEXT
  5
515
  8
0
 62
     3
 10
0.0
 20
0.0
 30
0.0
 40
5.0
  1
BUH-08012-DS
  7
STANDARD1
  0
ENDSEC
  0
EOF
