  0
SECTION
  2
HEADER
  9
$ACADVER
  1
AC1009
  9
$INSBASE
 10
0.0
 20
0.0
 30
0.0
  9
$EXTMIN
 10
0.0
 20
-1.4802182810368341
 30
0.0
  9
$EXTMAX
 10
75.061220281618773
 20
98.921728571368064
 30
0.0
  9
$LIMMIN
 10
0.0
 20
0.0
  9
$LIMMAX
 10
187.5
 20
135.0
  9
$ORTHOMODE
 70
     1
  9
$REGENMODE
 70
     1
  9
$FILLMODE
 70
     1
  9
$QTEXTMODE
 70
     0
  9
$MIRRTEXT
 70
     0
  9
$DRAGMODE
 70
     2
  9
$LTSCALE
 40
5.0
  9
$OSMODE
 70
  3071
  9
$ATTMODE
 70
     1
  9
$TEXTSIZE
 40
0.06
  9
$TRACEWID
 40
0.05
  9
$TEXTSTYLE
  7
STANDARD
  9
$CLAYER
  8
0
  9
$CELTYPE
  6
BYLAYER
  9
$CECOLOR
 62
   256
  9
$DIMSCALE
 40
0.5
  9
$DIMASZ
 40
3.0
  9
$DIMEXO
 40
2.0
  9
$DIMDLI
 40
10.0
  9
$DIMRND
 40
0.0
  9
$DIMDLE
 40
0.0
  9
$DIMEXE
 40
2.0
  9
$DIMTP
 40
0.0
  9
$DIMTM
 40
0.0
  9
$DIMTXT
 40
3.0
  9
$DIMCEN
 40
0.0
  9
$DIMTSZ
 40
0.0
  9
$DIMTOL
 70
     0
  9
$DIMLIM
 70
     0
  9
$DIMTIH
 70
     0
  9
$DIMTOH
 70
     0
  9
$DIMSE1
 70
     0
  9
$DIMSE2
 70
     0
  9
$DIMTAD
 70
     1
  9
$DIMZIN
 70
     0
  9
$DIMBLK
  1

  9
$DIMASO
 70
     0
  9
$DIMSHO
 70
     0
  9
$DIMPOST
  1

  9
$DIMAPOST
  1

  9
$DIMALT
 70
     0
  9
$DIMALTD
 70
     2
  9
$DIMALTF
 40
25.399999999999999
  9
$DIMLFAC
 40
1.0
  9
$DIMTOFL
 70
     1
  9
$DIMTVP
 40
1.6000000000000001
  9
$DIMTIX
 70
     1
  9
$DIMSOXD
 70
     0
  9
$DIMSAH
 70
     0
  9
$DIMBLK1
  1

  9
$DIMBLK2
  1

  9
$DIMSTYLE
  2
STANDARD
  9
$DIMCLRD
 70
     0
  9
$DIMCLRE
 70
     0
  9
$DIMCLRT
 70
     0
  9
$DIMTFAC
 40
1.0
  9
$DIMGAP
 40
0.09
  9
$LUNITS
 70
     2
  9
$LUPREC
 70
     4
  9
$SKETCHINC
 40
0.1
  9
$FILLETRAD
 40
0.4
  9
$AUNITS
 70
     0
  9
$AUPREC
 70
     4
  9
$MENU
  1
E:\r13\win\SUPPORT\ACAD
  9
$ELEVATION
 40
0.0
  9
$PELEVATION
 40
0.0
  9
$THICKNESS
 40
0.0
  9
$LIMCHECK
 70
     0
  9
$BLIPMODE
 70
     0
  9
$CHAMFERA
 40
0.0
  9
$CHAMFERB
 40
0.0
  9
$SKPOLY
 70
     0
  9
$TDCREATE
 40
2449840.5905208332
  9
$TDUPDATE
 40
2456598.4707779512
  9
$TDINDWG
 40
0.0684156019
  9
$TDUSRTIMER
 40
0.0684156019
  9
$USRTIMER
 70
     1
  9
$ANGBASE
 50
0.0
  9
$ANGDIR
 70
     0
  9
$PDMODE
 70
     0
  9
$PDSIZE
 40
0.0
  9
$PLINEWID
 40
0.0
  9
$COORDS
 70
     1
  9
$SPLFRAME
 70
     0
  9
$SPLINETYPE
 70
     6
  9
$SPLINESEGS
 70
     8
  9
$ATTDIA
 70
     0
  9
$ATTREQ
 70
     1
  9
$HANDLING
 70
     1
  9
$HANDSEED
  5
5C1
  9
$SURFTAB1
 70
     6
  9
$SURFTAB2
 70
     6
  9
$SURFTYPE
 70
     6
  9
$SURFU
 70
     6
  9
$SURFV
 70
     6
  9
$UCSNAME
  2

  9
$UCSORG
 10
0.0
 20
0.0
 30
0.0
  9
$UCSXDIR
 10
1.0
 20
0.0
 30
0.0
  9
$UCSYDIR
 10
0.0
 20
1.0
 30
0.0
  9
$PUCSNAME
  2

  9
$PUCSORG
 10
0.0
 20
0.0
 30
0.0
  9
$PUCSXDIR
 10
1.0
 20
0.0
 30
0.0
  9
$PUCSYDIR
 10
0.0
 20
1.0
 30
0.0
  9
$USERI1
 70
     3
  9
$USERI2
 70
     1
  9
$USERI3
 70
     0
  9
$USERI4
 70
     0
  9
$USERI5
 70
     0
  9
$USERR1
 40
0.5
  9
$USERR2
 40
3.0
  9
$USERR3
 40
3.0
  9
$USERR4
 40
3.0
  9
$USERR5
 40
10.0
  9
$WORLDVIEW
 70
     1
  9
$SHADEDGE
 70
     3
  9
$SHADEDIF
 70
    70
  9
$TILEMODE
 70
     1
  9
$MAXACTVP
 70
    16
  9
$PLIMCHECK
 70
     0
  9
$PEXTMIN
 10
1.0000000000000000E+020
 20
1.0000000000000000E+020
 30
1.0000000000000000E+020
  9
$PEXTMAX
 10
-1.0000000000000000E+020
 20
-1.0000000000000000E+020
 30
-1.0000000000000000E+020
  9
$PLIMMIN
 10
0.0
 20
0.0
  9
$PLIMMAX
 10
12.0
 20
9.0
  9
$UNITMODE
 70
     0
  9
$VISRETAIN
 70
     0
  9
$PLINEGEN
 70
     0
  9
$PSLTSCALE
 70
     0
  0
ENDSEC
  0
SECTION
  2
TABLES
  0
TABLE
  2
VPORT
 70
     1
  0
VPORT
  2
*ACTIVE
 70
     0
 10
0.0
 20
0.0
 11
1.0
 21
1.0
 12
97.52905416604365
 22
66.75636307133405
 13
0.0
 23
0.0
 14
5.0
 24
5.0
 15
10.0
 25
10.0
 16
0.0
 26
0.0
 36
1.0
 17
0.0
 27
0.0
 37
0.0
 40
137.71137496815999
 41
1.831871345029239
 42
50.0
 43
0.0
 44
0.0
 50
0.0
 51
0.0
 71
     0
 72
   100
 73
     1
 74
     0
 75
     0
 76
     0
 77
     0
 78
     2
  0
ENDTAB
  0
TABLE
  2
LTYPE
 70
     3
  0
LTYPE
  2
CONTINUOUS
 70
     0
  3
Solid Line
 72
    65
 73
     0
 40
0.0
  0
LTYPE
  2
CENTER
 70
     0
  3
____ _ ____ _ ____ _ ____ _ ____ _ ____ _ ____
 72
    65
 73
     4
 40
2.0
 49
1.25
 49
-0.25
 49
0.25
 49
-0.25
  0
LTYPE
  2
PHANTOM2
 70
     0
  3
___ _ _ ___ _ _ ___ _ _ ___ _ _
 72
    65
 73
     6
 40
1.25
 49
0.625
 49
-0.125
 49
0.125
 49
-0.125
 49
0.125
 49
-0.125
  0
ENDTAB
  0
TABLE
  2
LAYER
 70
     3
  0
LAYER
  2
0
 70
     0
 62
     7
  6
CONTINUOUS
  0
LAYER
  2
1
 70
     0
 62
     1
  6
CENTER
  0
LAYER
  2
3
 70
     0
 62
     3
  6
CONTINUOUS
  0
ENDTAB
  0
TABLE
  2
STYLE
 70
     2
  0
STYLE
  2
STANDARD
 70
     0
 40
0.0
 41
1.0
 50
0.0
 71
     0
 42
0.06
  3
TXT
  4
BIGFONT
  0
STYLE
  2
STANDARD1
 70
     0
 40
0.0
 41
1.0
 50
0.0
 71
     0
 42
3.0
  3
txt
  4

  0
ENDTAB
  0
TABLE
  2
VIEW
 70
     0
  0
ENDTAB
  0
TABLE
  2
UCS
 70
     0
  0
ENDTAB
  0
TABLE
  2
APPID
 70
     3
  0
APPID
  2
ACAD
 70
     0
  0
APPID
  2
ACAD_MLEADERVER
 70
     0
  0
APPID
  2
ACAD_NAV_VCDISPLAY
 70
     0
  0
ENDTAB
  0
TABLE
  2
DIMSTYLE
 70
     1
  0
DIMSTYLE
  2
STANDARD
 70
     0
  3

  4

  5

  6

  7

 40
1.0
 41
0.18
 42
0.0625
 43
0.38
 44
0.18
 45
0.0
 46
0.0
 47
0.0
 48
0.0
140
0.18
141
0.09
142
0.0
143
25.399999999999999
144
1.0
145
0.0
146
1.0
147
0.09
 71
     0
 72
     0
 73
     1
 74
     1
 75
     0
 76
     0
 77
     0
 78
     0
170
     0
171
     2
172
     0
173
     0
174
     0
175
     0
176
     0
177
     0
178
     0
  0
ENDTAB
  0
ENDSEC
  0
SECTION
  2
BLOCKS
  0
BLOCK
  8
0
  2
$MODEL_SPACE
 70
     0
 10
0.0
 20
0.0
 30
0.0
  3
$MODEL_SPACE
  1

  0
ENDBLK
  5
FC
  8
0
  0
BLOCK
 67
     1
  8
0
  2
$PAPER_SPACE
 70
     0
 10
0.0
 20
0.0
 30
0.0
  3
$PAPER_SPACE
  1

  0
ENDBLK
  5
FA
 67
     1
  8
0
  0
ENDSEC
  0
SECTION
  2
ENTITIES
  0
LINE
  5
2F9
  8
0
 10
61.100220281618959
 20
52.59160796298513
 30
0.0
 11
72.022220281618544
 21
52.59160796298513
 31
0.0
  0
LINE
  5
2FB
  8
0
 10
72.022220281618587
 20
53.672473011926598
 30
0.0
 11
61.100220281618959
 21
53.672473011926598
 31
0.0
  0
LINE
  5
2FE
  8
0
 10
60.973220281618353
 20
53.892443464487968
 30
0.0
 11
72.149220281618483
 21
53.892443464487968
 31
0.0
  0
LINE
  5
320
  8
0
 10
58.061220281618773
 20
52.342662050183748
 30
0.0
 11
75.061220281618745
 21
52.342662050183733
 31
0.0
  0
LINE
  5
325
  8
0
 10
58.061220281618773
 20
39.342662050183272
 30
0.0
 11
58.061220281618738
 21
52.342662050183748
 31
0.0
  0
LINE
  5
326
  8
0
 10
75.061220281618773
 20
39.342662050183272
 30
0.0
 11
58.061220281618773
 21
39.342662050183243
 31
0.0
  0
LINE
  5
327
  8
0
 10
75.061220281618773
 20
52.342662050183733
 30
0.0
 11
75.061220281618773
 21
39.342662050183272
 31
0.0
  0
ARC
  5
32A
  8
0
 10
62.189057158139804
 20
25.060810341257412
 30
0.0
 40
27.28212521957532
 50
80.778161627943959
 51
89.743441732578177
  0
ARC
  5
32B
  8
0
 10
62.456078864099787
 20
24.787053678914209
 30
0.0
 40
27.55598912613522
 50
90.301198537714455
 51
99.177198101766351
  0
ARC
  5
32D
  8
0
 10
62.433383405098077
 20
66.624513759115061
 30
0.0
 40
27.28212521958055
 50
260.7781616279438
 51
269.74344173257663
  0
ARC
  5
32E
  8
0
 10
62.166361699136637
 20
66.898270421457156
 30
0.0
 40
27.555989126139892
 50
270.30119853771612
 51
279.17719810176459
  0
ARC
  5
330
  8
0
 10
70.689057158140173
 20
25.060810341257412
 30
0.0
 40
27.282125219575079
 50
80.778161627943959
 51
89.743441732578177
  0
ARC
  5
331
  8
0
 10
70.956076889697698
 20
24.787077494502331
 30
0.0
 40
27.555965300497299
 50
90.301194692807343
 51
99.177201946674657
  0
LINE
  5
332
  8
0
 10
66.561220281618432
 20
39.695003066966223
 30
0.0
 11
66.561220281618432
 21
51.990321033400818
 31
0.0
  0
ARC
  5
333
  8
0
 10
70.933383405097743
 20
66.624513759115771
 30
0.0
 40
27.282125219581321
 50
260.7781616279438
 51
269.74344173257492
  0
ARC
  5
334
  8
0
 10
70.666361699137013
 20
66.898270421453176
 30
0.0
 40
27.555989126135831
 50
270.30119853771441
 51
279.17719810176629
  0
LINE
  5
335
  8
0
 10
60.196220281618622
 20
55.342662044583612
 30
0.0
 11
72.926220281618924
 21
55.342662044583612
 31
0.0
  0
LINE
  5
337
  8
0
 10
59.561220281618461
 20
54.70766204458382
 30
0.0
 11
73.561220281619086
 21
54.70766204458382
 31
0.0
  0
LINE
  5
37C
  8
0
 10
72.022220281618587
 20
52.59160796298513
 30
0.0
 11
72.022220281618587
 21
53.672473011926598
 31
0.0
  0
LINE
  5
37D
  8
0
 10
61.100220281618959
 20
53.672473011926598
 30
0.0
 11
61.100220281618959
 21
52.59160796298513
 31
0.0
  0
ARC
  5
37E
  8
0
 10
60.846220281618429
 20
52.591607962985123
 30
0.0
 40
0.254000000000021
 50
327.79699696652682
 51
0.0
  0
ARC
  5
37F
  8
0
 10
72.276220281619061
 20
52.591607962985123
 30
0.0
 40
0.254000000000021
 50
180.0
 51
212.20300303347321
  0
ARC
  5
380
  8
0
 10
72.276220281619061
 20
53.672473011926591
 30
0.0
 40
0.254000000000021
 50
119.99999999999829
 51
180.0
  0
ARC
  5
381
  8
0
 10
60.846220281618429
 20
53.672473011926591
 30
0.0
 40
0.254000000000021
 50
0.0
 51
60.000000000002061
  0
LINE
  5
382
  8
0
 10
72.13121308592315
 20
52.342662050183748
 30
0.0
 11
72.061294311822763
 21
52.456246123800639
 31
0.0
  0
LINE
  5
383
  8
0
 10
61.061146251414073
 20
52.456246123800639
 30
0.0
 11
60.991227477314389
 21
52.342662050183748
 31
0.0
  0
ARC
  5
384
  8
0
 10
60.196220281618587
 20
54.707662044583437
 30
0.0
 40
0.6350000000000186
 50
89.999999999999986
 51
179.99999999999841
  0
ARC
  5
385
  8
0
 10
72.926220281618924
 20
54.70766204458382
 30
0.0
 40
0.6350000000000186
 50
0.0
 51
89.999999999999986
  0
LINE
  5
386
  8
0
 10
72.149220281618483
 20
53.892443464487968
 30
0.0
 11
73.561220281619086
 21
54.70766204458382
 31
0.0
  0
LINE
  5
387
  8
0
 10
59.561220281618461
 20
54.70766204458382
 30
0.0
 11
60.973220281618353
 21
53.892443464487968
 31
0.0
  0
LINE
  5
388
  8
0
 10
24.967310062102939
 20
38.580662050183243
 30
0.0
 11
14.967310062102911
 21
38.580662050183243
 31
0.0
  0
LINE
  5
389
  8
0
 10
14.50631006210272
 20
52.591607962984803
 30
0.0
 11
25.42831006210281
 21
52.591607962984803
 31
0.0
  0
LINE
  5
38B
  8
0
 10
25.428310062103101
 20
53.672473011926598
 30
0.0
 11
14.50631006210272
 21
53.672473011926598
 31
0.0
  0
LINE
  5
38E
  8
0
 10
14.37931006210286
 20
53.89244346448762
 30
0.0
 11
25.55531006210299
 21
53.89244346448762
 31
0.0
  0
LINE
  5
38F
  8
0
 10
28.467310062102879
 20
52.342662050183421
 30
0.0
 11
11.467310062102911
 21
52.342662050183399
 31
0.0
  0
LINE
  5
391
  8
0
 10
28.467310062102911
 20
39.342662050183293
 30
0.0
 11
11.467310062102911
 21
39.342662050183293
 31
0.0
  0
ARC
  5
3B9
  8
0
 10
12.52323926645999
 20
43.045439226146037
 30
0.0
 40
9.2975920091283371
 50
74.167700923075103
 51
89.489405770941246
  0
ARC
  5
3BA
  8
0
 10
12.704340426722981
 20
42.938251720550589
 30
0.0
 40
9.4049234969211764
 50
90.598537621733541
 51
105.74435568425081
  0
LINE
  5
3BB
  8
0
 10
10.152355485879211
 20
39.69500306696586
 30
0.0
 11
10.152355485879211
 21
51.990321033400818
 31
0.0
  0
ARC
  5
3BC
  8
0
 10
12.688948993409889
 20
48.639884874220662
 30
0.0
 40
9.2975920091279995
 50
254.1677009230759
 51
269.48940577094208
  0
ARC
  5
3BD
  8
0
 10
12.50784783314654
 20
48.747072379819002
 30
0.0
 40
9.4049234969240239
 50
270.5985376217352
 51
285.74435568424809
  0
ARC
  5
3BF
  8
0
 10
19.803094282112848
 20
15.703090276078431
 30
0.0
 40
36.639939773588068
 50
82.043582914218149
 51
89.743206384043546
  0
ARC
  5
3C0
  8
0
 10
20.159679171450531
 20
15.310964983175181
 30
0.0
 40
37.032196714978909
 50
90.297632563623822
 51
97.915578138115819
  0
LINE
  5
3C1
  8
0
 10
15.059832773991049
 20
39.69500306696586
 30
0.0
 11
15.059832773991049
 21
51.990321033400818
 31
0.0
  0
ARC
  5
3C2
  8
0
 10
20.15988204609215
 20
76.377184796426917
 30
0.0
 40
37.035023410429261
 50
262.08471301044023
 51
269.7020762878239
  0
ARC
  5
3C3
  8
0
 10
19.803783525199432
 20
75.972633906502253
 30
0.0
 40
36.630336868817103
 50
270.25578283808449
 51
277.95742786365338
  0
LINE
  5
3C4
  8
0
 10
29.782264638326609
 20
39.69500306696586
 30
0.0
 11
29.782264638326609
 21
51.990321033400818
 31
0.0
  0
ARC
  5
3C5
  8
0
 10
27.245671130795898
 20
43.045439226146037
 30
0.0
 40
9.2975920091283815
 50
74.167700923075898
 51
89.489405770941246
  0
ARC
  5
3C6
  8
0
 10
27.426772291058882
 20
42.938251720550589
 30
0.0
 40
9.4049234969211302
 50
90.598537621733541
 51
105.74435568425081
  0
LINE
  5
3C7
  8
0
 10
24.874787350214781
 20
39.69500306696586
 30
0.0
 11
24.874787350214781
 21
51.990321033400818
 31
0.0
  0
ARC
  5
3C8
  8
0
 10
27.411380857745431
 20
48.639884874220641
 30
0.0
 40
9.2975920091283584
 50
254.1677009230759
 51
269.48940577094208
  0
ARC
  5
3C9
  8
0
 10
27.230279697482111
 20
48.747072379818981
 30
0.0
 40
9.4049234969240487
 50
270.5985376217352
 51
285.74435568424838
  0
LINE
  5
3CA
  8
0
 10
13.602310062102729
 20
55.342662044583612
 30
0.0
 11
26.332310062103058
 21
55.342662044583612
 31
0.0
  0
LINE
  5
3CC
  8
0
 10
12.9673100621026
 20
54.707662044583493
 30
0.0
 11
26.96731006210285
 21
54.707662044583493
 31
0.0
  0
LINE
  5
3DD
  8
0
 10
11.467310062102911
 20
52.342662050183399
 30
0.0
 11
10.152355485879211
 21
51.990321033400818
 31
0.0
  0
LINE
  5
3DE
  8
0
 10
29.782264638326609
 20
51.990321033400818
 30
0.0
 11
28.467310062102911
 21
52.342662050183399
 31
0.0
  0
LINE
  5
3DF
  8
0
 10
10.152355485879211
 20
39.69500306696586
 30
0.0
 11
11.467310062102911
 21
39.342662050183293
 31
0.0
  0
LINE
  5
3E0
  8
0
 10
28.467310062102911
 20
39.342662050183293
 30
0.0
 11
29.782264638326609
 21
39.69500306696586
 31
0.0
  0
ARC
  5
413
  8
0
 10
14.20531006210285
 20
38.580662050183228
 30
0.0
 40
0.7620000000000178
 50
0.0
 51
89.999999999999986
  0
ARC
  5
414
  8
0
 10
25.729310062102972
 20
38.580662050183228
 30
0.0
 40
0.7620000000000178
 50
89.999999999999986
 51
180.0
  0
LINE
  5
415
  8
0
 10
25.428310062103101
 20
52.591607962984803
 30
0.0
 11
25.428310062103101
 21
53.672473011926598
 31
0.0
  0
LINE
  5
416
  8
0
 10
14.50631006210272
 20
53.672473011926598
 30
0.0
 11
14.50631006210272
 21
52.591607962984803
 31
0.0
  0
ARC
  5
417
  8
0
 10
14.252310062102589
 20
52.591607962984803
 30
0.0
 40
0.2539999999999984
 50
327.796996966525
 51
0.0
  0
ARC
  5
418
  8
0
 10
25.682310062102829
 20
52.591607962984781
 30
0.0
 40
0.2540000000000097
 50
180.0
 51
212.20300303347321
  0
ARC
  5
419
  8
0
 10
25.682310062102829
 20
53.672473011926591
 30
0.0
 40
0.2540000000000131
 50
119.99999999999901
 51
180.0
  0
ARC
  5
41A
  8
0
 10
14.252310062102589
 20
53.672473011926598
 30
0.0
 40
0.2540000000000075
 50
0.0
 51
60.000000000003887
  0
LINE
  5
41B
  8
0
 10
25.537302866406922
 20
52.342662050183399
 30
0.0
 11
25.46738409230727
 21
52.456246123800298
 31
0.0
  0
LINE
  5
41C
  8
0
 10
14.467236031898549
 20
52.456246123800298
 30
0.0
 11
14.39731725779853
 21
52.342662050183399
 31
0.0
  0
ARC
  5
41D
  8
0
 10
13.602310062102729
 20
54.707662044583493
 30
0.0
 40
0.6350000000000075
 50
89.999999999999986
 51
180.0
  0
ARC
  5
41E
  8
0
 10
26.332310062103058
 20
54.707662044583472
 30
0.0
 40
0.6350000000000075
 50
0.0
 51
89.999999999999986
  0
LINE
  5
41F
  8
0
 10
25.55531006210299
 20
53.89244346448762
 30
0.0
 11
26.96731006210285
 21
54.707662044583493
 31
0.0
  0
LINE
  5
420
  8
0
 10
12.9673100621026
 20
54.707662044583493
 30
0.0
 11
14.37931006210286
 21
53.89244346448762
 31
0.0
  0
LINE
  5
421
  8
0
 10
29.782264638326438
 20
87.421728571368064
 30
0.0
 11
24.874787350214781
 21
78.92172857136805
 31
0.0
  0
LINE
  5
429
  8
0
 10
24.874787350214859
 20
95.921728571368035
 30
0.0
 11
29.782264638326641
 21
87.421728571367694
 31
0.0
  0
LINE
  5
42C
  8
0
 10
24.874787350214781
 20
78.92172857136805
 30
0.0
 11
15.059832773991049
 21
78.92172857136805
 31
0.0
  0
LINE
  5
42E
  8
0
 10
10.152355485879241
 20
87.421728571367694
 30
0.0
 11
15.05983277399028
 21
95.921728571368035
 31
0.0
  0
LINE
  5
42F
  8
0
 10
15.059832773990671
 20
78.92172857136805
 30
0.0
 11
10.152355485879241
 21
87.421728571367694
 31
0.0
  0
LINE
  5
431
  8
0
 10
15.05983277399107
 20
95.92172857136805
 30
0.0
 11
24.874787350214799
 21
95.921728571368035
 31
0.0
  0
CIRCLE
  5
433
  8
0
 10
19.967310062102939
 20
87.421728571367694
 30
0.0
 40
7.0000000000001128
  0
CIRCLE
  5
443
  8
0
 10
19.967310062102939
 20
87.421728571367694
 30
0.0
 40
8.5000000000000977
  0
LINE
  5
449
  8
0
 10
14.967310062103021
 20
36.34266205018244
 30
0.0
 11
24.967310062103021
 21
36.34266205018244
 31
0.0
  0
LINE
  5
44A
  8
0
 10
14.967310062103021
 20
10.84266205018244
 30
0.0
 11
24.967310062103021
 21
10.84266205018244
 31
0.0
  0
LINE
  5
44B
  8
0
 10
23.467310062103031
 20
9.3426620501824402
 30
0.0
 11
24.967310062103021
 21
10.84266205018244
 31
0.0
  0
LINE
  5
44C
  8
0
 10
14.967310062103021
 20
10.84266205018244
 30
0.0
 11
16.467310062103021
 21
9.3426620501824402
 31
0.0
  0
LINE
  5
44D
  8
0
 10
24.967310062103021
 20
38.580662050183243
 30
0.0
 11
24.967310062103021
 21
10.84266205018244
 31
0.0
  0
LINE
  5
44E
  8
3
 10
24.155310062103009
 20
36.342662050182462
 30
0.0
 11
24.155310062103009
 21
10.030662050182441
 31
0.0
  0
LINE
  5
44F
  8
3
 10
15.779310062103031
 20
36.34266205018239
 30
0.0
 11
15.779310062103031
 21
10.030662050182441
 31
0.0
  0
LINE
  5
450
  8
0
 10
14.967310062103021
 20
38.580662050183243
 30
0.0
 11
14.967310062103021
 21
10.84266205018244
 31
0.0
  0
LINE
  5
451
  8
0
 10
16.467310062103021
 20
9.3426620501824402
 30
0.0
 11
23.467310062103031
 21
9.3426620501824402
 31
0.0
  0
LINE
  5
452
  8
1
 10
19.967310062103049
 20
6.3426620501824473
 30
0.0
 11
19.967310062103049
 21
58.342662044583633
 31
0.0
  0
LINE
  5
454
  8
3
 10
24.967310062102971
 20
37.749087003225917
 30
0.0
 11
24.155310062103009
 21
36.34266205018244
 31
0.0
  0
LINE
  5
455
  8
3
 10
14.967310062102991
 20
37.749087003225981
 30
0.0
 11
15.779310062103031
 21
36.34266205018244
 31
0.0
  0
LINE
  5
458
  8
3
 10
61.561220281530979
 20
37.749087003225938
 30
0.0
 11
62.373220281531012
 21
36.342662050182398
 31
0.0
  0
LINE
  5
459
  8
3
 10
71.56122028153095
 20
37.749087003225867
 30
0.0
 11
70.749220281530995
 21
36.342662050182398
 31
0.0
  0
LINE
  5
45A
  8
1
 10
66.561220281531035
 20
6.3426620501824402
 30
0.0
 11
66.561220281531064
 21
58.342662044583633
 31
0.0
  0
LINE
  5
45B
  8
0
 10
63.061220281531007
 20
9.3426620501823976
 30
0.0
 11
70.061220281531007
 21
9.3426620501823976
 31
0.0
  0
LINE
  5
45C
  8
0
 10
61.561220281531007
 20
38.5806620501832
 30
0.0
 11
61.561220281531007
 21
10.842662050182399
 31
0.0
  0
LINE
  5
45D
  8
3
 10
62.373220281531012
 20
36.342662050182348
 30
0.0
 11
62.373220281531012
 21
10.0306620501824
 31
0.0
  0
LINE
  5
45E
  8
3
 10
70.749220281530995
 20
36.342662050182412
 30
0.0
 11
70.749220281530995
 21
10.0306620501824
 31
0.0
  0
LINE
  5
45F
  8
0
 10
71.561220281531007
 20
38.5806620501832
 30
0.0
 11
71.561220281531007
 21
10.842662050182399
 31
0.0
  0
LINE
  5
460
  8
0
 10
61.561220281531007
 20
10.842662050182399
 30
0.0
 11
63.061220281531007
 21
9.3426620501823976
 31
0.0
  0
LINE
  5
461
  8
0
 10
70.061220281531007
 20
9.3426620501823976
 30
0.0
 11
71.561220281531007
 21
10.842662050182399
 31
0.0
  0
LINE
  5
462
  8
0
 10
61.561220281531007
 20
10.842662050182399
 30
0.0
 11
71.561220281531007
 21
10.842662050182399
 31
0.0
  0
LINE
  5
463
  8
0
 10
61.561220281531007
 20
36.342662050182398
 30
0.0
 11
71.561220281531007
 21
36.342662050182398
 31
0.0
  0
ARC
  5
464
  8
0
 10
72.323220281530951
 20
38.580662050183193
 30
0.0
 40
0.7620000000000178
 50
89.999999999999986
 51
180.0
  0
ARC
  5
465
  8
0
 10
60.799220281530843
 20
38.580662050183193
 30
0.0
 40
0.7620000000000178
 50
0.0
 51
89.999999999999986
  0
LINE
  5
466
  8
0
 10
71.561220281530922
 20
38.5806620501832
 30
0.0
 11
61.561220281530893
 21
38.5806620501832
 31
0.0
  0
LINE
  5
467
  8
1
 10
19.967310062102939
 20
98.921728571368064
 30
0.0
 11
19.967310062102939
 21
75.92172857136805
 31
0.0
  0
LINE
  5
468
  8
1
 10
32.782264638326637
 20
87.421728571367694
 30
0.0
 11
7.15235548587924
 21
87.421728571367694
 31
0.0
  0
TEXT
  5
532
  8
0
 62
     3
 10
0.0
 20
0.0
 30
0.0
 40
5.0
  1
BUH-10030-DS
  7
STANDARD1
  0
ENDSEC
  0
EOF
