  0
SECTION
  2
HEADER
  9
$ACADVER
  1
AC1009
  9
$INSBASE
 10
0.0
 20
0.0
 30
0.0
  9
$EXTMIN
 10
0.0
 20
-1.4802182810368341
 30
0.0
  9
$EXTMAX
 10
80.954227730071608
 20
131.50523933578719
 30
0.0
  9
$LIMMIN
 10
0.0
 20
0.0
  9
$LIMMAX
 10
187.5
 20
135.0
  9
$ORTHOMODE
 70
     1
  9
$REGENMODE
 70
     1
  9
$FILLMODE
 70
     1
  9
$QTEXTMODE
 70
     0
  9
$MIRRTEXT
 70
     0
  9
$DRAGMODE
 70
     2
  9
$LTSCALE
 40
5.0
  9
$OSMODE
 70
  3071
  9
$ATTMODE
 70
     1
  9
$TEXTSIZE
 40
0.06
  9
$TRACEWID
 40
0.05
  9
$TEXTSTYLE
  7
STANDARD
  9
$CLAYER
  8
0
  9
$CELTYPE
  6
BYLAYER
  9
$CECOLOR
 62
   256
  9
$DIMSCALE
 40
0.5
  9
$DIMASZ
 40
3.0
  9
$DIMEXO
 40
2.0
  9
$DIMDLI
 40
10.0
  9
$DIMRND
 40
0.0
  9
$DIMDLE
 40
0.0
  9
$DIMEXE
 40
2.0
  9
$DIMTP
 40
0.0
  9
$DIMTM
 40
0.0
  9
$DIMTXT
 40
3.0
  9
$DIMCEN
 40
0.0
  9
$DIMTSZ
 40
0.0
  9
$DIMTOL
 70
     0
  9
$DIMLIM
 70
     0
  9
$DIMTIH
 70
     0
  9
$DIMTOH
 70
     0
  9
$DIMSE1
 70
     0
  9
$DIMSE2
 70
     0
  9
$DIMTAD
 70
     1
  9
$DIMZIN
 70
     0
  9
$DIMBLK
  1

  9
$DIMASO
 70
     0
  9
$DIMSHO
 70
     0
  9
$DIMPOST
  1

  9
$DIMAPOST
  1

  9
$DIMALT
 70
     0
  9
$DIMALTD
 70
     2
  9
$DIMALTF
 40
25.399999999999999
  9
$DIMLFAC
 40
1.0
  9
$DIMTOFL
 70
     1
  9
$DIMTVP
 40
1.6000000000000001
  9
$DIMTIX
 70
     1
  9
$DIMSOXD
 70
     0
  9
$DIMSAH
 70
     0
  9
$DIMBLK1
  1

  9
$DIMBLK2
  1

  9
$DIMSTYLE
  2
STANDARD
  9
$DIMCLRD
 70
     0
  9
$DIMCLRE
 70
     0
  9
$DIMCLRT
 70
     0
  9
$DIMTFAC
 40
1.0
  9
$DIMGAP
 40
0.09
  9
$LUNITS
 70
     2
  9
$LUPREC
 70
     4
  9
$SKETCHINC
 40
0.1
  9
$FILLETRAD
 40
0.4
  9
$AUNITS
 70
     0
  9
$AUPREC
 70
     4
  9
$MENU
  1
E:\r13\win\SUPPORT\ACAD
  9
$ELEVATION
 40
0.0
  9
$PELEVATION
 40
0.0
  9
$THICKNESS
 40
0.0
  9
$LIMCHECK
 70
     0
  9
$BLIPMODE
 70
     0
  9
$CHAMFERA
 40
0.0
  9
$CHAMFERB
 40
0.0
  9
$SKPOLY
 70
     0
  9
$TDCREATE
 40
2449840.5905787041
  9
$TDUPDATE
 40
2456598.4712096988
  9
$TDINDWG
 40
0.0454999884
  9
$TDUSRTIMER
 40
0.0454999884
  9
$USRTIMER
 70
     1
  9
$ANGBASE
 50
0.0
  9
$ANGDIR
 70
     0
  9
$PDMODE
 70
     0
  9
$PDSIZE
 40
0.0
  9
$PLINEWID
 40
0.0
  9
$COORDS
 70
     1
  9
$SPLFRAME
 70
     0
  9
$SPLINETYPE
 70
     6
  9
$SPLINESEGS
 70
     8
  9
$ATTDIA
 70
     0
  9
$ATTREQ
 70
     1
  9
$HANDLING
 70
     1
  9
$HANDSEED
  5
59E
  9
$SURFTAB1
 70
     6
  9
$SURFTAB2
 70
     6
  9
$SURFTYPE
 70
     6
  9
$SURFU
 70
     6
  9
$SURFV
 70
     6
  9
$UCSNAME
  2

  9
$UCSORG
 10
0.0
 20
0.0
 30
0.0
  9
$UCSXDIR
 10
1.0
 20
0.0
 30
0.0
  9
$UCSYDIR
 10
0.0
 20
1.0
 30
0.0
  9
$PUCSNAME
  2

  9
$PUCSORG
 10
0.0
 20
0.0
 30
0.0
  9
$PUCSXDIR
 10
1.0
 20
0.0
 30
0.0
  9
$PUCSYDIR
 10
0.0
 20
1.0
 30
0.0
  9
$USERI1
 70
     3
  9
$USERI2
 70
     1
  9
$USERI3
 70
     0
  9
$USERI4
 70
     0
  9
$USERI5
 70
     0
  9
$USERR1
 40
0.5
  9
$USERR2
 40
3.0
  9
$USERR3
 40
3.0
  9
$USERR4
 40
3.0
  9
$USERR5
 40
10.0
  9
$WORLDVIEW
 70
     1
  9
$SHADEDGE
 70
     3
  9
$SHADEDIF
 70
    70
  9
$TILEMODE
 70
     1
  9
$MAXACTVP
 70
    16
  9
$PLIMCHECK
 70
     0
  9
$PEXTMIN
 10
1.0000000000000000E+020
 20
1.0000000000000000E+020
 30
1.0000000000000000E+020
  9
$PEXTMAX
 10
-1.0000000000000000E+020
 20
-1.0000000000000000E+020
 30
-1.0000000000000000E+020
  9
$PLIMMIN
 10
0.0
 20
0.0
  9
$PLIMMAX
 10
12.0
 20
9.0
  9
$UNITMODE
 70
     0
  9
$VISRETAIN
 70
     0
  9
$PLINEGEN
 70
     0
  9
$PSLTSCALE
 70
     0
  0
ENDSEC
  0
SECTION
  2
TABLES
  0
TABLE
  2
VPORT
 70
     1
  0
VPORT
  2
*ACTIVE
 70
     0
 10
0.0
 20
0.0
 11
1.0
 21
1.0
 12
97.52905416604365
 22
66.75636307133405
 13
0.0
 23
0.0
 14
5.0
 24
5.0
 15
10.0
 25
10.0
 16
0.0
 26
0.0
 36
1.0
 17
0.0
 27
0.0
 37
0.0
 40
137.71137496815999
 41
1.831871345029239
 42
50.0
 43
0.0
 44
0.0
 50
0.0
 51
0.0
 71
     0
 72
   100
 73
     1
 74
     0
 75
     0
 76
     0
 77
     0
 78
     2
  0
ENDTAB
  0
TABLE
  2
LTYPE
 70
     3
  0
LTYPE
  2
CONTINUOUS
 70
     0
  3
Solid Line
 72
    65
 73
     0
 40
0.0
  0
LTYPE
  2
CENTER
 70
     0
  3
____ _ ____ _ ____ _ ____ _ ____ _ ____ _ ____
 72
    65
 73
     4
 40
2.0
 49
1.25
 49
-0.25
 49
0.25
 49
-0.25
  0
LTYPE
  2
PHANTOM2
 70
     0
  3
___ _ _ ___ _ _ ___ _ _ ___ _ _
 72
    65
 73
     6
 40
1.25
 49
0.625
 49
-0.125
 49
0.125
 49
-0.125
 49
0.125
 49
-0.125
  0
ENDTAB
  0
TABLE
  2
LAYER
 70
     3
  0
LAYER
  2
0
 70
     0
 62
     7
  6
CONTINUOUS
  0
LAYER
  2
1
 70
     0
 62
     1
  6
CENTER
  0
LAYER
  2
3
 70
     0
 62
     3
  6
CONTINUOUS
  0
ENDTAB
  0
TABLE
  2
STYLE
 70
     2
  0
STYLE
  2
STANDARD
 70
     0
 40
0.0
 41
1.0
 50
0.0
 71
     0
 42
0.06
  3
TXT
  4
BIGFONT
  0
STYLE
  2
STANDARD1
 70
     0
 40
0.0
 41
1.0
 50
0.0
 71
     0
 42
3.0
  3
txt
  4

  0
ENDTAB
  0
TABLE
  2
VIEW
 70
     0
  0
ENDTAB
  0
TABLE
  2
UCS
 70
     0
  0
ENDTAB
  0
TABLE
  2
APPID
 70
     3
  0
APPID
  2
ACAD
 70
     0
  0
APPID
  2
ACAD_MLEADERVER
 70
     0
  0
APPID
  2
ACAD_NAV_VCDISPLAY
 70
     0
  0
ENDTAB
  0
TABLE
  2
DIMSTYLE
 70
     1
  0
DIMSTYLE
  2
STANDARD
 70
     0
  3

  4

  5

  6

  7

 40
1.0
 41
0.18
 42
0.0625
 43
0.38
 44
0.18
 45
0.0
 46
0.0
 47
0.0
 48
0.0
140
0.18
141
0.09
142
0.0
143
25.399999999999999
144
1.0
145
0.0
146
1.0
147
0.09
 71
     0
 72
     0
 73
     1
 74
     1
 75
     0
 76
     0
 77
     0
 78
     0
170
     0
171
     2
172
     0
173
     0
174
     0
175
     0
176
     0
177
     0
178
     0
  0
ENDTAB
  0
ENDSEC
  0
SECTION
  2
BLOCKS
  0
BLOCK
  8
0
  2
$MODEL_SPACE
 70
     0
 10
0.0
 20
0.0
 30
0.0
  3
$MODEL_SPACE
  1

  0
ENDBLK
  5
11B
  8
0
  0
BLOCK
 67
     1
  8
0
  2
$PAPER_SPACE
 70
     0
 10
0.0
 20
0.0
 30
0.0
  3
$PAPER_SPACE
  1

  0
ENDBLK
  5
119
 67
     1
  8
0
  0
ENDSEC
  0
SECTION
  2
ENTITIES
  0
LINE
  5
298
  8
0
  6
CONTINUOUS
 62
     7
 10
64.596227730071433
 20
68.294757684956096
 30
0.0
 11
78.312227730071385
 21
68.294757684956096
 31
0.0
  0
LINE
  5
29A
  8
0
  6
CONTINUOUS
 62
     7
 10
78.312227730071442
 20
69.547019212759693
 30
0.0
 11
64.596227730071433
 21
69.547019212759722
 31
0.0
  0
LINE
  5
29D
  8
0
  6
CONTINUOUS
 62
     7
 10
64.469227730071424
 20
69.766989665320963
 30
0.0
 11
78.439227730071423
 21
69.766989665320949
 31
0.0
  0
LINE
  5
2C4
  8
0
  6
CONTINUOUS
 62
     7
 10
61.954227730071437
 20
67.981025592332543
 30
0.0
 11
80.954227730071423
 21
67.981025592332543
 31
0.0
  0
LINE
  5
2C5
  8
0
  6
CONTINUOUS
 62
     7
 10
61.954227730070329
 20
52.981025592331463
 30
0.0
 11
61.954227730071437
 21
67.981025592332543
 31
0.0
  0
LINE
  5
2C9
  8
0
  6
CONTINUOUS
 62
     7
 10
80.954227730071409
 20
67.981025592332486
 30
0.0
 11
80.954227730070329
 21
52.981025592332493
 31
0.0
  0
LINE
  5
2CA
  8
0
  6
CONTINUOUS
 62
     7
 10
61.954227730071352
 20
52.98102559233147
 30
0.0
 11
80.954227730071338
 21
52.981025592332493
 31
0.0
  0
ARC
  5
2CC
  8
0
  6
CONTINUOUS
 62
     7
 10
66.866082149828003
 20
37.184140010751399
 30
0.0
 40
30.79731089524206
 50
90.301117778401149
 51
99.177278861080922
  0
ARC
  5
2CE
  8
0
  6
CONTINUOUS
 62
     7
 10
66.866723073985469
 20
83.785642115069948
 30
0.0
 40
30.80504510384138
 50
260.82383763879301
 51
269.69776572172691
  0
ARC
  5
2D0
  8
0
  6
CONTINUOUS
 62
     7
 10
66.541732386156525
 20
37.176409069583848
 30
0.0
 40
30.805045103852621
 50
80.823837638793776
 51
89.697765721725233
  0
ARC
  5
2D1
  8
0
  6
CONTINUOUS
 62
     7
 10
66.542373310314943
 20
83.777911173911136
 30
0.0
 40
30.79731089523953
 50
270.30111777839949
 51
279.17727886108088
  0
ARC
  5
2D4
  8
0
  6
CONTINUOUS
 62
     7
 10
76.041766939746253
 20
37.17682586112592
 30
0.0
 40
30.804628135857431
 50
80.823777460200375
 51
89.697825900318705
  0
ARC
  5
2D5
  8
0
  6
CONTINUOUS
 62
     7
 10
76.366041051876948
 20
37.184635741542948
 30
0.0
 40
30.796814955331421
 50
90.30104616599651
 51
99.177350473484154
  0
LINE
  5
2D6
  8
0
  6
CONTINUOUS
 62
     7
 10
71.454227730071352
 20
53.374818493442632
 30
0.0
 11
71.454227730071395
 21
67.587232691222425
 31
0.0
  0
ARC
  5
2D7
  8
0
  6
CONTINUOUS
 62
     7
 10
76.366723073985753
 20
83.785642115075731
 30
0.0
 40
30.805045103847181
 50
260.8238376387938
 51
269.69776572172691
  0
ARC
  5
2D8
  8
0
  6
CONTINUOUS
 62
     7
 10
76.042373310314943
 20
83.77791117391142
 30
0.0
 40
30.797310895239839
 50
270.30111777839949
 51
279.17727886108088
  0
LINE
  5
2D9
  8
0
  6
CONTINUOUS
 62
     7
 10
62.716227730071438
 20
71.981025592332884
 30
0.0
 11
80.192227730071437
 21
71.981025592332841
 31
0.0
  0
LINE
  5
2DB
  8
0
  6
CONTINUOUS
 62
     7
 10
61.954227730071437
 20
71.219025592332912
 30
0.0
 11
80.954227730071423
 21
71.219025592332827
 31
0.0
  0
LINE
  5
32A
  8
0
  6
CONTINUOUS
 62
     7
 10
78.312227730071442
 20
68.294757684956068
 30
0.0
 11
78.312227730071442
 21
69.547019212759693
 31
0.0
  0
LINE
  5
32B
  8
0
  6
CONTINUOUS
 62
     7
 10
64.596227730071433
 20
69.547019212759722
 30
0.0
 11
64.596227730071433
 21
68.294757684956096
 31
0.0
  0
ARC
  5
32C
  8
0
  6
CONTINUOUS
 62
     7
 10
64.342227730071414
 20
68.294757684956082
 30
0.0
 40
0.2540000000000191
 50
336.52069250411267
 51
0.0
  0
ARC
  5
32D
  8
0
  6
CONTINUOUS
 62
     7
 10
78.566227730071461
 20
68.294757684956053
 30
0.0
 40
0.2540000000000115
 50
180.0
 51
203.47930749589301
  0
ARC
  5
32E
  8
0
  6
CONTINUOUS
 62
     7
 10
78.566227730071461
 20
69.547019212759679
 30
0.0
 40
0.253999999999998
 50
119.99999999999611
 51
180.0
  0
ARC
  5
32F
  8
0
  6
CONTINUOUS
 62
     7
 10
64.342227730071414
 20
69.547019212759736
 30
0.0
 40
0.2540000000000191
 50
359.99999999999352
 51
60.00000000000167
  0
LINE
  5
330
  8
0
  6
CONTINUOUS
 62
     7
 10
78.421273101218077
 20
67.981025592332855
 30
0.0
 11
78.333257908044075
 21
68.193559552440917
 31
0.0
  0
LINE
  5
331
  8
0
  6
CONTINUOUS
 62
     7
 10
64.575197552098757
 20
68.193559552440973
 30
0.0
 11
64.487182358924741
 21
67.981025592332855
 31
0.0
  0
ARC
  5
332
  8
0
  6
CONTINUOUS
 62
     7
 10
62.716227730071438
 20
71.219025592332898
 30
0.0
 40
0.7620000000000289
 50
89.999999999999986
 51
180.0
  0
ARC
  5
333
  8
0
  6
CONTINUOUS
 62
     7
 10
80.192227730071437
 20
71.219025592332841
 30
0.0
 40
0.7620000000000005
 50
359.99999999999682
 51
89.999999999999986
  0
LINE
  5
334
  8
0
  6
CONTINUOUS
 62
     7
 10
78.439227730071423
 20
69.766989665320949
 30
0.0
 11
80.954227730071423
 21
71.219025592332827
 31
0.0
  0
LINE
  5
335
  8
0
  6
CONTINUOUS
 62
     7
 10
61.954227730071437
 20
71.219025592332912
 30
0.0
 11
64.469227730071424
 21
69.766989665320963
 31
0.0
  0
LINE
  5
337
  8
0
 10
29.514056459353188
 20
51.457025592332599
 30
0.0
 11
20.11605645935316
 21
51.457025592332542
 31
0.0
  0
LINE
  5
338
  8
0
 10
17.957056459353169
 20
68.294757684956096
 30
0.0
 11
31.67305645935318
 21
68.29475768495611
 31
0.0
  0
LINE
  5
33A
  8
0
 10
31.67305645935318
 20
69.54701921275975
 30
0.0
 11
17.957056459353169
 21
69.54701921275975
 31
0.0
  0
LINE
  5
33D
  8
0
 10
17.830056459353159
 20
69.766989665320963
 30
0.0
 11
31.80005645935319
 21
69.766989665320963
 31
0.0
  0
LINE
  5
33E
  8
0
 10
15.315056459353171
 20
67.981025592332543
 30
0.0
 11
34.31505645935156
 21
67.981025592332955
 31
0.0
  0
LINE
  5
340
  8
0
 10
15.315056459353171
 20
52.981025592332543
 30
0.0
 11
34.315056459354707
 21
52.981025592332962
 31
0.0
  0
LINE
  5
346
  8
0
 10
20.11605645935316
 20
50.364825592332551
 30
0.0
 11
29.514056459353188
 21
50.3648255923326
 31
0.0
  0
LINE
  5
36E
  8
0
 10
35.784711573956059
 20
53.37481849344266
 30
0.0
 11
35.784711573956059
 21
67.587232691222454
 31
0.0
  0
ARC
  5
36F
  8
0
 10
32.932088354420223
 20
57.46739528386766
 30
0.0
 40
10.51420792946058
 50
74.257689401186028
 51
89.399417292829781
  0
ARC
  5
370
  8
0
 10
33.152044667396382
 20
57.470616659952498
 30
0.0
 40
10.51098189046999
 50
90.598245426359554
 51
105.74464787962521
  0
ARC
  5
371
  8
0
 10
32.932550923214251
 20
63.491434524712638
 30
0.0
 40
10.51098189047004
 50
270.59824542635869
 51
285.74464787962438
  0
ARC
  5
374
  8
0
 10
33.15250723618999
 20
63.494655900793788
 30
0.0
 40
10.51420792945693
 50
254.2576894011832
 51
269.39941729283231
  0
LINE
  5
375
  8
0
 10
30.29988401665463
 20
53.37481849344271
 30
0.0
 11
30.29988401665463
 21
67.587232691222482
 31
0.0
  0
ARC
  5
376
  8
0
 10
24.631521175834848
 20
27.030915962450731
 30
0.0
 40
40.950520923422118
 50
82.043582914218149
 51
89.743206384043546
  0
ARC
  5
377
  8
0
 10
25.029440263028508
 20
26.601251504350302
 30
0.0
 40
41.380329433049788
 50
90.296840123423266
 51
97.91637057831565
  0
ARC
  5
378
  8
0
 10
25.029665531939798
 20
94.363937271489505
 30
0.0
 40
41.383468149720599
 50
262.08391879873369
 51
269.70287049952969
  0
ARC
  5
379
  8
0
 10
24.632291506344469
 20
93.920405902319047
 30
0.0
 40
40.939788265130979
 50
270.25578283808289
 51
277.95742786365503
  0
LINE
  5
37A
  8
0
 10
19.330228902051712
 20
53.37481849344271
 30
0.0
 11
19.330228902051712
 21
67.587232691222482
 31
0.0
  0
ARC
  5
37B
  8
0
 10
16.477605682516121
 20
57.467395283868541
 30
0.0
 40
10.51420792945969
 50
74.257689401186028
 51
89.399417292830606
  0
ARC
  5
37C
  8
0
 10
16.69756199549224
 20
57.47061665995173
 30
0.0
 40
10.510981890470751
 50
90.598245426360393
 51
105.74464787962521
  0
LINE
  5
37D
  8
0
 10
13.845401344750259
 20
53.37481849344266
 30
0.0
 11
13.845401344750259
 21
67.587232691222454
 31
0.0
  0
ARC
  5
37E
  8
0
 10
16.698024564285639
 20
63.494655900795429
 30
0.0
 40
10.51420792945858
 50
254.2576894011861
 51
269.39941729283231
  0
ARC
  5
37F
  8
0
 10
16.478068251309882
 20
63.491434524711451
 30
0.0
 40
10.51098189046885
 50
270.59824542635869
 51
285.74464787962671
  0
LINE
  5
380
  8
0
 10
16.07705645935317
 20
71.981025592332884
 30
0.0
 11
33.553056459353172
 21
71.981025592332884
 31
0.0
  0
LINE
  5
382
  8
0
 10
15.315056459353171
 20
71.219025592332912
 30
0.0
 11
34.315056459353173
 21
71.219025592332912
 31
0.0
  0
LINE
  5
383
  8
0
 10
29.514056459353188
 20
50.364825592332551
 30
0.0
 11
29.514056459353188
 21
51.457025592332542
 31
0.0
  0
LINE
  5
384
  8
0
 10
20.11605645935316
 20
51.457025592332542
 30
0.0
 11
20.11605645935316
 21
50.364825592332551
 31
0.0
  0
LINE
  5
385
  8
0
 10
15.315056459353171
 20
67.981025592332543
 30
0.0
 11
13.845401344750259
 21
67.587232691222454
 31
0.0
  0
LINE
  5
386
  8
0
 10
35.784711573956059
 20
67.587232691222454
 30
0.0
 11
34.315056459353173
 21
67.981025592332543
 31
0.0
  0
LINE
  5
387
  8
0
 10
13.845401344750259
 20
53.37481849344266
 30
0.0
 11
15.315056459353171
 21
52.981025592332543
 31
0.0
  0
LINE
  5
388
  8
0
 10
34.315056459353173
 20
52.981025592332543
 30
0.0
 11
35.784711573956059
 21
53.37481849344266
 31
0.0
  0
LINE
  5
39F
  8
0
 10
20.11605645935316
 20
50.364825592332551
 30
0.0
 11
18.815056459353169
 21
48.111427491685419
 31
0.0
  0
LINE
  5
3A0
  8
0
 10
30.81505645935318
 20
48.111427491685419
 30
0.0
 11
29.514056459353188
 21
50.364825592332551
 31
0.0
  0
ARC
  5
3D3
  8
0
 10
31.038056459353161
 20
51.457025592332513
 30
0.0
 40
1.524
 50
89.999999999999986
 51
180.0
  0
ARC
  5
3D4
  8
0
 10
18.592056459353159
 20
51.457025592332513
 30
0.0
 40
1.524
 50
0.0
 51
89.999999999999986
  0
LINE
  5
3D5
  8
0
 10
31.67305645935318
 20
68.294757684956096
 30
0.0
 11
31.67305645935318
 21
69.54701921275975
 31
0.0
  0
LINE
  5
3D6
  8
0
 10
17.957056459353169
 20
69.54701921275975
 30
0.0
 11
17.957056459353169
 21
68.294757684956096
 31
0.0
  0
ARC
  5
3D7
  8
0
 10
17.703056459353181
 20
68.294757684956068
 30
0.0
 40
0.2540000000000002
 50
336.52069250411267
 51
0.0
  0
ARC
  5
3D8
  8
0
 10
31.927056459353171
 20
68.294757684956068
 30
0.0
 40
0.2540000000000049
 50
180.0
 51
203.4793074958875
  0
ARC
  5
3D9
  8
0
 10
31.927056459353171
 20
69.547019212759722
 30
0.0
 40
0.2540000000000049
 50
120.0000000000019
 51
180.0
  0
ARC
  5
3DA
  8
0
 10
17.703056459353181
 20
69.547019212759722
 30
0.0
 40
0.2539999999999907
 50
0.0
 51
59.999999999998749
  0
LINE
  5
3DB
  8
0
 10
31.782101830499869
 20
67.981025592332855
 30
0.0
 11
31.694086637325821
 21
68.193559552440973
 31
0.0
  0
LINE
  5
3DC
  8
0
 10
17.936026281380521
 20
68.193559552440973
 30
0.0
 11
17.848011088206469
 21
67.981025592332855
 31
0.0
  0
ARC
  5
3DD
  8
0
 10
16.077056459353201
 20
71.219025592332883
 30
0.0
 40
0.7620000000000005
 50
89.999999999999986
 51
180.0
  0
ARC
  5
3DE
  8
0
 10
33.553056459353172
 20
71.219025592332883
 30
0.0
 40
0.7620000000000005
 50
0.0
 51
89.999999999999986
  0
LINE
  5
3DF
  8
0
 10
31.80005645935319
 20
69.766989665320963
 30
0.0
 11
34.315056459353173
 21
71.219025592332912
 31
0.0
  0
LINE
  5
3E0
  8
0
 10
15.315056459353171
 20
71.219025592332912
 30
0.0
 11
17.830056459353159
 21
69.766989665320963
 31
0.0
  0
LINE
  5
3E1
  8
0
  6
CONTINUOUS
 62
     7
 10
13.845401344750281
 20
119.00523933578719
 30
0.0
 11
19.330228902051712
 21
128.50523933578719
 31
0.0
  0
LINE
  5
3E2
  8
0
  6
CONTINUOUS
 62
     7
 10
19.330228902051768
 20
109.50523933578729
 30
0.0
 11
13.845401344750281
 21
119.00523933578719
 31
0.0
  0
LINE
  5
3E4
  8
0
  6
CONTINUOUS
 62
     7
 10
30.299884016654691
 20
109.50523933578729
 30
0.0
 11
19.330228902051712
 21
109.50523933578719
 31
0.0
  0
LINE
  5
3E6
  8
0
  6
CONTINUOUS
 62
     7
 10
30.299884016654602
 20
128.50523933578719
 30
0.0
 11
35.784711573956088
 21
119.00523933578719
 31
0.0
  0
LINE
  5
3E7
  8
0
  6
CONTINUOUS
 62
     7
 10
35.784711573956088
 20
119.00523933578729
 30
0.0
 11
30.29988401665463
 21
109.50523933578719
 31
0.0
  0
LINE
  5
3E9
  8
0
  6
CONTINUOUS
 62
     7
 10
19.33022890205174
 20
128.50523933578719
 30
0.0
 11
30.299884016654602
 21
128.50523933578719
 31
0.0
  0
CIRCLE
  5
3ED
  8
0
  6
CONTINUOUS
 62
     7
 10
24.815056459353169
 20
119.00523933578719
 30
0.0
 40
9.4999999999999964
  0
LINE
  5
3FC
  8
0
 10
20.815056459353169
 20
12.981025592332591
 30
0.0
 11
28.815056459353169
 21
12.981025592332591
 31
0.0
  0
LINE
  5
3FD
  8
0
 10
30.81505645935318
 20
14.981025592332591
 30
0.0
 11
30.81505645935318
 21
48.111427491685397
 31
0.0
  0
LINE
  5
3FE
  8
3
 10
29.86805645935317
 20
14.03402559233259
 30
0.0
 11
29.868056459353198
 21
49.751679606453223
 31
0.0
  0
LINE
  5
3FF
  8
3
 10
19.762056459353168
 20
14.03402559233259
 30
0.0
 11
19.762056459353168
 21
49.751679606453187
 31
0.0
  0
LINE
  5
400
  8
0
 10
18.815056459353169
 20
14.981025592332591
 30
0.0
 11
18.815056459353169
 21
48.111427491685397
 31
0.0
  0
LINE
  5
401
  8
0
 10
18.815056459353169
 20
14.981025592332591
 30
0.0
 11
20.815056459353169
 21
12.981025592332591
 31
0.0
  0
LINE
  5
402
  8
0
 10
28.815056459353169
 20
12.981025592332591
 30
0.0
 11
30.81505645935318
 21
14.981025592332591
 31
0.0
  0
LINE
  5
403
  8
0
 10
18.815056459353169
 20
14.981025592332591
 30
0.0
 11
30.81505645935318
 21
14.981025592332591
 31
0.0
  0
LINE
  5
404
  8
0
 10
18.815056459353169
 20
48.11142749168539
 30
0.0
 11
30.81505645935318
 21
48.111427491685419
 31
0.0
  0
LINE
  5
405
  8
1
 10
24.815056459353169
 20
9.9810255923325926
 30
0.0
 11
24.815056459353169
 21
75.006425454932554
 31
0.0
  0
LINE
  5
407
  8
1
 10
71.454227730071381
 20
9.9810255923325926
 30
0.0
 11
71.454227730071381
 21
75.006425454932554
 31
0.0
  0
LINE
  5
408
  8
0
 10
65.454227730071409
 20
48.11142749168522
 30
0.0
 11
77.454227730071381
 21
48.11142749168522
 31
0.0
  0
LINE
  5
409
  8
0
 10
65.454227730071381
 20
14.98102559233241
 30
0.0
 11
77.454227730071381
 21
14.98102559233241
 31
0.0
  0
LINE
  5
40A
  8
0
 10
75.454227730071381
 20
12.98102559233241
 30
0.0
 11
77.454227730071381
 21
14.98102559233241
 31
0.0
  0
LINE
  5
40B
  8
0
 10
65.454227730071381
 20
14.98102559233241
 30
0.0
 11
67.454227730071381
 21
12.98102559233241
 31
0.0
  0
LINE
  5
40C
  8
0
 10
65.454227730071381
 20
14.98102559233241
 30
0.0
 11
65.454227730071381
 21
48.11142749168522
 31
0.0
  0
LINE
  5
40D
  8
3
 10
66.401227730071383
 20
14.03402559233241
 30
0.0
 11
66.401227730071383
 21
49.751679606453003
 31
0.0
  0
LINE
  5
40E
  8
3
 10
76.507227730071378
 20
14.03402559233241
 30
0.0
 11
76.507227730071406
 21
49.751679606453052
 31
0.0
  0
LINE
  5
40F
  8
0
 10
77.454227730071381
 20
14.98102559233241
 30
0.0
 11
77.454227730071381
 21
48.11142749168522
 31
0.0
  0
LINE
  5
410
  8
0
 10
67.454227730071381
 20
12.98102559233241
 30
0.0
 11
75.454227730071381
 21
12.98102559233241
 31
0.0
  0
ARC
  5
411
  8
0
 10
65.231227730071367
 20
51.457025592332329
 30
0.0
 40
1.524
 50
0.0
 51
89.999999999999986
  0
ARC
  5
412
  8
0
 10
77.677227730071365
 20
51.457025592332329
 30
0.0
 40
1.524
 50
89.999999999999986
 51
180.0
  0
LINE
  5
413
  8
0
 10
77.454227730071381
 20
48.11142749168522
 30
0.0
 11
76.153227730071393
 21
50.364825592332359
 31
0.0
  0
LINE
  5
414
  8
0
 10
66.755227730071368
 20
50.364825592332359
 30
0.0
 11
65.454227730071381
 21
48.11142749168522
 31
0.0
  0
LINE
  5
415
  8
0
 10
66.755227730071368
 20
51.45702559233235
 30
0.0
 11
66.755227730071368
 21
50.364825592332359
 31
0.0
  0
LINE
  5
416
  8
0
 10
76.153227730071393
 20
50.364825592332359
 30
0.0
 11
76.153227730071393
 21
51.45702559233235
 31
0.0
  0
LINE
  5
417
  8
0
 10
66.755227730071368
 20
50.364825592332359
 30
0.0
 11
76.153227730071393
 21
50.364825592332423
 31
0.0
  0
LINE
  5
418
  8
0
 10
76.153227730071393
 20
51.457025592332421
 30
0.0
 11
66.755227730071368
 21
51.45702559233235
 31
0.0
  0
LINE
  5
42A
  8
1
 10
24.815056459353169
 20
106.50523933578719
 30
0.0
 11
24.815056459353169
 21
131.50523933578719
 31
0.0
  0
LINE
  5
42B
  8
1
 10
38.784711573956088
 20
119.00523933578719
 30
0.0
 11
10.845401344750259
 21
119.00523933578719
 31
0.0
  0
TEXT
  5
50F
  8
0
 62
     3
 10
0.0
 20
0.0
 30
0.0
 40
5.0
  1
BUH-12040-DS
  7
STANDARD1
  0
ENDSEC
  0
EOF
