  0
SECTION
  2
HEADER
  9
$ACADVER
  1
AC1009
  9
$INSBASE
 10
82.638099999999994
 20
103.82319099999999
 30
0.0
  9
$EXTMIN
 10
0.0
 20
-1.4802182810368341
 30
0.0
  9
$EXTMAX
 10
124.5000000379973
 20
128.46965499999999
 30
0.0
  9
$LIMMIN
 10
0.0
 20
0.0
  9
$LIMMAX
 10
187.5
 20
135.0
  9
$ORTHOMODE
 70
     1
  9
$REGENMODE
 70
     1
  9
$FILLMODE
 70
     1
  9
$QTEXTMODE
 70
     0
  9
$MIRRTEXT
 70
     0
  9
$DRAGMODE
 70
     2
  9
$LTSCALE
 40
5.0
  9
$OSMODE
 70
  3071
  9
$ATTMODE
 70
     1
  9
$TEXTSIZE
 40
0.06
  9
$TRACEWID
 40
0.05
  9
$TEXTSTYLE
  7
STANDARD
  9
$CLAYER
  8
0
  9
$CELTYPE
  6
BYLAYER
  9
$CECOLOR
 62
   256
  9
$DIMSCALE
 40
0.5
  9
$DIMASZ
 40
3.0
  9
$DIMEXO
 40
2.0
  9
$DIMDLI
 40
10.0
  9
$DIMRND
 40
0.0
  9
$DIMDLE
 40
0.0
  9
$DIMEXE
 40
2.0
  9
$DIMTP
 40
0.0
  9
$DIMTM
 40
0.0
  9
$DIMTXT
 40
3.0
  9
$DIMCEN
 40
0.0
  9
$DIMTSZ
 40
0.0
  9
$DIMTOL
 70
     0
  9
$DIMLIM
 70
     0
  9
$DIMTIH
 70
     0
  9
$DIMTOH
 70
     0
  9
$DIMSE1
 70
     0
  9
$DIMSE2
 70
     0
  9
$DIMTAD
 70
     1
  9
$DIMZIN
 70
     0
  9
$DIMBLK
  1

  9
$DIMASO
 70
     0
  9
$DIMSHO
 70
     0
  9
$DIMPOST
  1

  9
$DIMAPOST
  1

  9
$DIMALT
 70
     0
  9
$DIMALTD
 70
     2
  9
$DIMALTF
 40
25.399999999999999
  9
$DIMLFAC
 40
1.0
  9
$DIMTOFL
 70
     1
  9
$DIMTVP
 40
1.6000000000000001
  9
$DIMTIX
 70
     1
  9
$DIMSOXD
 70
     0
  9
$DIMSAH
 70
     0
  9
$DIMBLK1
  1

  9
$DIMBLK2
  1

  9
$DIMSTYLE
  2
STANDARD
  9
$DIMCLRD
 70
     0
  9
$DIMCLRE
 70
     0
  9
$DIMCLRT
 70
     0
  9
$DIMTFAC
 40
1.0
  9
$DIMGAP
 40
0.09
  9
$LUNITS
 70
     2
  9
$LUPREC
 70
     4
  9
$SKETCHINC
 40
0.1
  9
$FILLETRAD
 40
0.4
  9
$AUNITS
 70
     0
  9
$AUPREC
 70
     4
  9
$MENU
  1
E:\r13\win\SUPPORT\ACAD
  9
$ELEVATION
 40
0.0
  9
$PELEVATION
 40
0.0
  9
$THICKNESS
 40
0.0
  9
$LIMCHECK
 70
     0
  9
$BLIPMODE
 70
     0
  9
$CHAMFERA
 40
0.0
  9
$CHAMFERB
 40
0.0
  9
$SKPOLY
 70
     0
  9
$TDCREATE
 40
2449840.5906828698
  9
$TDUPDATE
 40
2456598.4713992942
  9
$TDINDWG
 40
0.0004931944
  9
$TDUSRTIMER
 40
0.0004931944
  9
$USRTIMER
 70
     1
  9
$ANGBASE
 50
0.0
  9
$ANGDIR
 70
     0
  9
$PDMODE
 70
     0
  9
$PDSIZE
 40
0.0
  9
$PLINEWID
 40
0.0
  9
$COORDS
 70
     1
  9
$SPLFRAME
 70
     0
  9
$SPLINETYPE
 70
     6
  9
$SPLINESEGS
 70
     8
  9
$ATTDIA
 70
     0
  9
$ATTREQ
 70
     1
  9
$HANDLING
 70
     1
  9
$HANDSEED
  5
244
  9
$SURFTAB1
 70
     6
  9
$SURFTAB2
 70
     6
  9
$SURFTYPE
 70
     6
  9
$SURFU
 70
     6
  9
$SURFV
 70
     6
  9
$UCSNAME
  2

  9
$UCSORG
 10
0.0
 20
0.0
 30
0.0
  9
$UCSXDIR
 10
1.0
 20
0.0
 30
0.0
  9
$UCSYDIR
 10
0.0
 20
1.0
 30
0.0
  9
$PUCSNAME
  2

  9
$PUCSORG
 10
0.0
 20
0.0
 30
0.0
  9
$PUCSXDIR
 10
1.0
 20
0.0
 30
0.0
  9
$PUCSYDIR
 10
0.0
 20
1.0
 30
0.0
  9
$USERI1
 70
     3
  9
$USERI2
 70
     1
  9
$USERI3
 70
     0
  9
$USERI4
 70
     0
  9
$USERI5
 70
     0
  9
$USERR1
 40
0.5
  9
$USERR2
 40
3.0
  9
$USERR3
 40
3.0
  9
$USERR4
 40
3.0
  9
$USERR5
 40
10.0
  9
$WORLDVIEW
 70
     1
  9
$SHADEDGE
 70
     3
  9
$SHADEDIF
 70
    70
  9
$TILEMODE
 70
     1
  9
$MAXACTVP
 70
    16
  9
$PLIMCHECK
 70
     0
  9
$PEXTMIN
 10
1.0000000000000000E+020
 20
1.0000000000000000E+020
 30
1.0000000000000000E+020
  9
$PEXTMAX
 10
-1.0000000000000000E+020
 20
-1.0000000000000000E+020
 30
-1.0000000000000000E+020
  9
$PLIMMIN
 10
0.0
 20
0.0
  9
$PLIMMAX
 10
12.0
 20
9.0
  9
$UNITMODE
 70
     0
  9
$VISRETAIN
 70
     0
  9
$PLINEGEN
 70
     0
  9
$PSLTSCALE
 70
     0
  0
ENDSEC
  0
SECTION
  2
TABLES
  0
TABLE
  2
VPORT
 70
     1
  0
VPORT
  2
*ACTIVE
 70
     0
 10
0.0
 20
0.0
 11
1.0
 21
1.0
 12
97.52905416604365
 22
66.75636307133405
 13
0.0
 23
0.0
 14
5.0
 24
5.0
 15
10.0
 25
10.0
 16
0.0
 26
0.0
 36
1.0
 17
0.0
 27
0.0
 37
0.0
 40
137.71137496815999
 41
1.831871345029239
 42
50.0
 43
0.0
 44
0.0
 50
0.0
 51
0.0
 71
     0
 72
   100
 73
     1
 74
     0
 75
     0
 76
     0
 77
     0
 78
     2
  0
ENDTAB
  0
TABLE
  2
LTYPE
 70
     3
  0
LTYPE
  2
CONTINUOUS
 70
     0
  3
Solid Line
 72
    65
 73
     0
 40
0.0
  0
LTYPE
  2
CENTER
 70
     0
  3
____ _ ____ _ ____ _ ____ _ ____ _ ____ _ ____
 72
    65
 73
     4
 40
2.0
 49
1.25
 49
-0.25
 49
0.25
 49
-0.25
  0
LTYPE
  2
PHANTOM2
 70
     0
  3
___ _ _ ___ _ _ ___ _ _ ___ _ _
 72
    65
 73
     6
 40
1.25
 49
0.625
 49
-0.125
 49
0.125
 49
-0.125
 49
0.125
 49
-0.125
  0
ENDTAB
  0
TABLE
  2
LAYER
 70
     3
  0
LAYER
  2
0
 70
     0
 62
     7
  6
CONTINUOUS
  0
LAYER
  2
1
 70
     0
 62
     1
  6
CENTER
  0
LAYER
  2
3
 70
     0
 62
     3
  6
CONTINUOUS
  0
ENDTAB
  0
TABLE
  2
STYLE
 70
     2
  0
STYLE
  2
STANDARD
 70
     0
 40
0.0
 41
1.0
 50
0.0
 71
     0
 42
0.06
  3
TXT
  4
BIGFONT
  0
STYLE
  2
STANDARD1
 70
     0
 40
0.0
 41
1.0
 50
0.0
 71
     0
 42
3.0
  3
txt
  4

  0
ENDTAB
  0
TABLE
  2
VIEW
 70
     0
  0
ENDTAB
  0
TABLE
  2
UCS
 70
     0
  0
ENDTAB
  0
TABLE
  2
APPID
 70
     3
  0
APPID
  2
ACAD
 70
     0
  0
APPID
  2
ACAD_MLEADERVER
 70
     0
  0
APPID
  2
ACAD_NAV_VCDISPLAY
 70
     0
  0
ENDTAB
  0
TABLE
  2
DIMSTYLE
 70
     1
  0
DIMSTYLE
  2
STANDARD
 70
     0
  3

  4

  5

  6

  7

 40
1.0
 41
0.18
 42
0.0625
 43
0.38
 44
0.18
 45
0.0
 46
0.0
 47
0.0
 48
0.0
140
0.18
141
0.09
142
0.0
143
25.399999999999999
144
1.0
145
0.0
146
1.0
147
0.09
 71
     0
 72
     0
 73
     1
 74
     1
 75
     0
 76
     0
 77
     0
 78
     0
170
     0
171
     2
172
     0
173
     0
174
     0
175
     0
176
     0
177
     0
178
     0
  0
ENDTAB
  0
ENDSEC
  0
SECTION
  2
BLOCKS
  0
BLOCK
  8
0
  2
$MODEL_SPACE
 70
     0
 10
0.0
 20
0.0
 30
0.0
  3
$MODEL_SPACE
  1

  0
ENDBLK
  5
FE
  8
0
  0
BLOCK
 67
     1
  8
0
  2
$PAPER_SPACE
 70
     0
 10
0.0
 20
0.0
 30
0.0
  3
$PAPER_SPACE
  1

  0
ENDBLK
  5
FC
 67
     1
  8
0
  0
BLOCK
  8
0
  2
STDGX5
 70
     0
 10
0.0
 20
0.0
 30
0.0
  3
STDGX5
  1

  0
ENDBLK
  5
2B
  8
0
  0
ENDSEC
  0
SECTION
  2
ENTITIES
  0
INSERT
  5
37
  8
0
  2
STDGX5
 10
0.0
 20
0.0
 30
0.0
  0
INSERT
  5
41
  8
0
  2
STDGX5
 10
0.0
 20
0.0
 30
0.0
  0
INSERT
  5
42
  8
0
  2
STDGX5
 10
0.0
 20
0.0
 30
0.0
  0
LINE
  5
43
  8
1
 10
61.530344999999997
 20
115.0
 30
0.0
 11
88.469655000000003
 21
115.0
 31
0.0
  0
POLYLINE
  5
44
  8
0
 66
     1
 10
0.0
 20
0.0
 30
0.0
 70
     1
  0
VERTEX
  5
45
  8
0
 10
80.484827999999993
 20
105.5
 30
0.0
 50
90.0
  0
VERTEX
  5
46
  8
0
 10
85.969655000000003
 20
115.0
 30
0.0
 50
90.0
  0
VERTEX
  5
47
  8
0
 10
80.484827999999993
 20
124.5
 30
0.0
 50
90.0
  0
VERTEX
  5
48
  8
0
 10
69.515171999999993
 20
124.5
 30
0.0
 50
90.0
  0
VERTEX
  5
49
  8
0
 10
64.030344999999997
 20
115.0
 30
0.0
 50
90.0
  0
VERTEX
  5
4A
  8
0
 10
69.515171999999993
 20
105.5
 30
0.0
 50
90.0
  0
SEQEND
  5
4B
  8
0
  0
CIRCLE
  5
4C
  8
0
 10
75.0
 20
115.0
 30
0.0
 40
9.5
  0
LINE
  5
4D
  8
1
 10
75.0
 20
101.530345
 30
0.0
 11
75.0
 21
128.46965499999999
 31
0.0
  0
LINE
  5
4E
  8
1
 10
75.0
 20
13.0
 30
0.0
 11
75.0
 21
96.0
 31
0.0
  0
LINE
  5
4F
  8
0
 10
65.5
 20
75.0
 30
0.0
 11
84.500000000000014
 21
75.0
 31
0.0
  0
LINE
  5
50
  8
0
 10
71.0
 20
15.0
 30
0.0
 11
79.0
 21
15.0
 31
0.0
  0
LINE
  5
51
  8
0
 10
64.030344999999997
 20
89.151494
 30
0.0
 11
64.030344999999997
 21
75.848506
 31
0.0
  0
LINE
  5
52
  8
0
 10
69.515171999999993
 20
89.151494
 30
0.0
 11
69.515171999999993
 21
75.848506
 31
0.0
  0
LINE
  5
53
  8
0
 10
80.484827999999993
 20
89.151494
 30
0.0
 11
80.484827999999993
 21
75.848506
 31
0.0
  0
LINE
  5
54
  8
0
 10
65.5
 20
90.0
 30
0.0
 11
84.500000000000014
 21
90.0
 31
0.0
  0
LINE
  5
55
  8
0
 10
65.5
 20
90.0
 30
0.0
 11
64.030344999999997
 21
89.151494
 31
0.0
  0
ARC
  5
56
  8
0
 10
66.772758999999994
 20
85.143936999999994
 30
0.0
 40
4.8560629999999989
 50
55.615753000000012
 51
115.615753
  0
ARC
  5
57
  8
0
 10
75.0
 20
71.848506
 30
0.0
 40
18.151494
 50
72.412045999999989
 51
107.587954
  0
LINE
  5
58
  8
0
 10
84.500000000000014
 20
90.0
 30
0.0
 11
85.969655000000003
 21
89.151494
 31
0.0
  0
LINE
  5
59
  8
0
 10
85.969655000000003
 20
89.151494
 30
0.0
 11
85.969655000000003
 21
75.848506
 31
0.0
  0
ARC
  5
5A
  8
0
 10
83.227241000000006
 20
85.143936999999994
 30
0.0
 40
4.8560629999999989
 50
64.384247000000002
 51
124.384247
  0
LINE
  5
5B
  8
0
 10
81.0
 20
17.0
 30
0.0
 11
81.0
 21
71.5
 31
0.0
  0
LINE
  5
5C
  8
3
 10
80.052999999999997
 20
16.053000000000001
 30
0.0
 11
80.052999999999997
 21
73.140252000000004
 31
0.0
  0
LINE
  5
5D
  8
3
 10
69.947000000000003
 20
16.053000000000001
 30
0.0
 11
69.947000000000003
 21
73.140252000000004
 31
0.0
  0
LINE
  5
5E
  8
0
 10
69.0
 20
17.0
 30
0.0
 11
69.0
 21
71.5
 31
0.0
  0
LINE
  5
5F
  8
0
 10
69.0
 20
17.0
 30
0.0
 11
71.0
 21
15.0
 31
0.0
  0
LINE
  5
60
  8
0
 10
79.0
 20
15.0
 30
0.0
 11
81.0
 21
17.0
 31
0.0
  0
LINE
  5
61
  8
0
 10
69.0
 20
17.0
 30
0.0
 11
81.0
 21
17.0
 31
0.0
  0
LINE
  5
62
  8
0
 10
69.0
 20
71.5
 30
0.0
 11
81.0
 21
71.5
 31
0.0
  0
LINE
  5
63
  8
0
 10
106.969655
 20
90.0
 30
0.0
 11
105.5
 21
89.151494
 31
0.0
  0
LINE
  5
64
  8
0
 10
123.030345
 20
90.0
 30
0.0
 11
124.5
 21
89.151494
 31
0.0
  0
LINE
  5
65
  8
1
 10
115.0
 20
13.0
 30
0.0
 11
115.0
 21
96.0
 31
0.0
  0
ARC
  5
66
  8
0
 10
119.75
 20
76.280315999999985
 30
0.0
 40
13.719684000000001
 50
69.743842000000001
 51
110.256158
  0
ARC
  5
67
  8
0
 10
110.25
 20
76.280315999999985
 30
0.0
 40
13.719684000000001
 50
69.743842000000001
 51
110.256158
  0
LINE
  5
68
  8
0
 10
115.0
 20
89.151494
 30
0.0
 11
115.0
 21
75.848506
 31
0.0
  0
LINE
  5
69
  8
0
 10
106.969655
 20
90.0
 30
0.0
 11
123.030345
 21
90.0
 31
0.0
  0
LINE
  5
6A
  8
0
 10
106.969655
 20
75.0
 30
0.0
 11
123.030345
 21
75.0
 31
0.0
  0
LINE
  5
6B
  8
0
 10
124.5
 20
89.151494
 30
0.0
 11
124.5
 21
75.848506
 31
0.0
  0
LINE
  5
6C
  8
0
 10
105.5
 20
89.151494
 30
0.0
 11
105.5
 21
75.848506
 31
0.0
  0
LINE
  5
6D
  8
0
 10
81.0
 20
71.5
 30
0.0
 11
79.75
 21
73.665064000000001
 31
0.0
  0
LINE
  5
6E
  8
0
 10
79.75
 20
73.665064000000001
 30
0.0
 11
79.75
 21
74.599999999999994
 31
0.0
  0
ARC
  5
6F
  8
0
 10
80.150000000000006
 20
74.599999999999994
 30
0.0
 40
0.4
 50
90.0
 51
180.0
  0
ARC
  5
70
  8
0
 10
69.849999999999994
 20
74.599999999999994
 30
0.0
 40
0.4
 50
0.0
 51
90.0
  0
LINE
  5
71
  8
0
 10
70.25
 20
73.665064000000001
 30
0.0
 11
70.25
 21
74.599999999999994
 31
0.0
  0
LINE
  5
72
  8
0
 10
69.0
 20
71.5
 30
0.0
 11
70.25
 21
73.665064000000001
 31
0.0
  0
ARC
  5
73
  8
0
 10
66.772758999999994
 20
79.856063000000006
 30
0.0
 40
4.8560629999999989
 50
244.38424699999999
 51
304.38424700000002
  0
ARC
  5
74
  8
0
 10
75.0
 20
93.151494000000014
 30
0.0
 40
18.151494
 50
252.412046
 51
287.58795400000002
  0
ARC
  5
75
  8
0
 10
83.227241000000006
 20
79.856063000000006
 30
0.0
 40
4.8560629999999989
 50
235.61575300000001
 51
295.61575299999998
  0
LINE
  5
76
  8
0
 10
65.5
 20
75.0
 30
0.0
 11
64.030344999999997
 21
75.848506
 31
0.0
  0
LINE
  5
77
  8
0
 10
84.500000000000014
 20
75.0
 30
0.0
 11
85.969655000000003
 21
75.848506
 31
0.0
  0
ARC
  5
78
  8
0
 10
110.25
 20
88.719684000000001
 30
0.0
 40
13.719684000000001
 50
249.743842
 51
290.25615800000003
  0
LINE
  5
79
  8
0
 10
106.969655
 20
75.0
 30
0.0
 11
105.5
 21
75.848506
 31
0.0
  0
ARC
  5
7A
  8
0
 10
119.75
 20
88.719684000000001
 30
0.0
 40
13.719684000000001
 50
249.743842
 51
290.25615800000003
  0
LINE
  5
7B
  8
0
 10
123.030345
 20
75.0
 30
0.0
 11
124.5
 21
75.848506
 31
0.0
  0
ARC
  5
7C
  8
0
 10
75.0
 20
87.200000000000003
 30
0.0
 40
7.5
 50
145.94420199999999
 51
158.07866000000001
  0
LINE
  5
7D
  8
0
 10
68.786304999999984
 20
91.400000000000006
 30
0.0
 11
81.213695000000001
 21
91.400000000000006
 31
0.0
  0
LINE
  5
7E
  8
0
 10
81.0
 20
93.499999999999986
 30
0.0
 11
81.0
 21
91.400000000000006
 31
0.0
  0
LINE
  5
7F
  8
0
 10
69.0
 20
93.499999999999986
 30
0.0
 11
69.0
 21
91.400000000000006
 31
0.0
  0
ARC
  5
80
  8
0
 10
75.0
 20
87.200000000000003
 30
0.0
 40
7.5
 50
21.921340000000001
 51
34.055798000000003
  0
ARC
  5
81
  8
0
 10
115.0
 20
87.200000000000003
 30
0.0
 40
7.5
 50
21.921340000000001
 51
34.055798000000003
  0
ARC
  5
82
  8
0
 10
115.0
 20
87.200000000000003
 30
0.0
 40
7.5
 50
145.94420199999999
 51
158.07866000000001
  0
CIRCLE
  5
83
  8
0
 10
75.0
 20
115.0
 30
0.0
 40
6.0
  0
CIRCLE
  5
84
  8
0
 10
75.0
 20
115.0
 30
0.0
 40
7.5
  0
LINE
  5
85
  8
0
 10
80.5
 20
94.0
 30
0.0
 11
69.5
 21
94.0
 31
0.0
  0
LINE
  5
86
  8
0
 10
69.5
 20
94.0
 30
0.0
 11
69.0
 21
93.499999999999986
 31
0.0
  0
LINE
  5
87
  8
0
 10
81.0
 20
93.499999999999986
 30
0.0
 11
80.5
 21
94.0
 31
0.0
  0
LINE
  5
88
  8
0
 10
69.0
 20
93.499999999999986
 30
0.0
 11
81.0
 21
93.499999999999986
 31
0.0
  0
LINE
  5
89
  8
0
 10
109.0
 20
93.499999999999986
 30
0.0
 11
121.0
 21
93.499999999999986
 31
0.0
  0
LINE
  5
8A
  8
0
 10
121.0
 20
93.499999999999986
 30
0.0
 11
120.5
 21
94.0
 31
0.0
  0
LINE
  5
8B
  8
0
 10
109.5
 20
94.0
 30
0.0
 11
109.0
 21
93.499999999999986
 31
0.0
  0
LINE
  5
8C
  8
0
 10
120.5
 20
94.0
 30
0.0
 11
109.5
 21
94.0
 31
0.0
  0
LINE
  5
8D
  8
0
 10
109.0
 20
93.499999999999986
 30
0.0
 11
109.0
 21
91.400000000000006
 31
0.0
  0
LINE
  5
8E
  8
0
 10
121.0
 20
93.499999999999986
 30
0.0
 11
121.0
 21
91.400000000000006
 31
0.0
  0
LINE
  5
8F
  8
0
 10
108.786305
 20
91.400000000000006
 30
0.0
 11
121.213695
 21
91.400000000000006
 31
0.0
  0
CIRCLE
  5
90
  8
0
 10
75.0
 20
115.0
 30
0.0
 40
5.5
  0
LINE
  5
91
  8
0
 10
109.0
 20
71.5
 30
0.0
 11
110.25
 21
73.665064000000001
 31
0.0
  0
LINE
  5
92
  8
0
 10
110.25
 20
73.665064000000001
 30
0.0
 11
110.25
 21
74.599999999999994
 31
0.0
  0
ARC
  5
93
  8
0
 10
109.84999999999999
 20
74.599999999999994
 30
0.0
 40
0.4
 50
0.0
 51
90.0
  0
ARC
  5
94
  8
0
 10
120.15000000000001
 20
74.599999999999994
 30
0.0
 40
0.4
 50
90.0
 51
180.0
  0
LINE
  5
95
  8
0
 10
119.75
 20
73.665064000000001
 30
0.0
 11
119.75
 21
74.599999999999994
 31
0.0
  0
LINE
  5
96
  8
0
 10
121.0
 20
71.5
 30
0.0
 11
119.75
 21
73.665064000000001
 31
0.0
  0
LINE
  5
97
  8
0
 10
109.0
 20
71.5
 30
0.0
 11
121.0
 21
71.5
 31
0.0
  0
LINE
  5
98
  8
0
 10
109.0
 20
17.0
 30
0.0
 11
121.0
 21
17.0
 31
0.0
  0
LINE
  5
99
  8
0
 10
119.0
 20
15.0
 30
0.0
 11
121.0
 21
17.0
 31
0.0
  0
LINE
  5
9A
  8
0
 10
109.0
 20
17.0
 30
0.0
 11
111.0
 21
15.0
 31
0.0
  0
LINE
  5
9B
  8
0
 10
109.0
 20
17.0
 30
0.0
 11
109.0
 21
71.5
 31
0.0
  0
LINE
  5
9C
  8
3
 10
109.947
 20
16.053000000000001
 30
0.0
 11
109.947
 21
73.140252000000004
 31
0.0
  0
LINE
  5
9D
  8
3
 10
120.053
 20
16.053000000000001
 30
0.0
 11
120.053
 21
73.140252000000004
 31
0.0
  0
LINE
  5
9E
  8
0
 10
121.0
 20
17.0
 30
0.0
 11
121.0
 21
71.5
 31
0.0
  0
LINE
  5
9F
  8
0
 10
111.0
 20
15.0
 30
0.0
 11
119.0
 21
15.0
 31
0.0
  0
TEXT
  5
1B5
  8
0
 62
     3
 10
0.0
 20
0.0
 30
0.0
 40
5.0
  1
BUH-12060-F
  7
STANDARD1
  0
ENDSEC
  0
EOF
