  0
SECTION
  2
HEADER
  9
$ACADVER
  1
AC1009
  9
$INSBASE
 10
82.638099999999994
 20
103.82319099999999
 30
0.0
  9
$EXTMIN
 10
0.0
 20
-1.4802182810368341
 30
0.0
  9
$EXTMAX
 10
245.00000007821779
 20
229.82050799999999
 30
0.0
  9
$LIMMIN
 10
0.0
 20
0.0
  9
$LIMMAX
 10
375.0
 20
270.0
  9
$ORTHOMODE
 70
     1
  9
$REGENMODE
 70
     1
  9
$FILLMODE
 70
     1
  9
$QTEXTMODE
 70
     0
  9
$MIRRTEXT
 70
     0
  9
$DRAGMODE
 70
     2
  9
$LTSCALE
 40
10.0
  9
$OSMODE
 70
  3071
  9
$ATTMODE
 70
     1
  9
$TEXTSIZE
 40
0.06
  9
$TRACEWID
 40
0.05
  9
$TEXTSTYLE
  7
STANDARD
  9
$CLAYER
  8
0
  9
$CELTYPE
  6
BYLAYER
  9
$CECOLOR
 62
   256
  9
$DIMSCALE
 40
1.0
  9
$DIMASZ
 40
3.0
  9
$DIMEXO
 40
2.0
  9
$DIMDLI
 40
10.0
  9
$DIMRND
 40
0.0
  9
$DIMDLE
 40
0.0
  9
$DIMEXE
 40
2.0
  9
$DIMTP
 40
0.0
  9
$DIMTM
 40
0.0
  9
$DIMTXT
 40
3.0
  9
$DIMCEN
 40
0.0
  9
$DIMTSZ
 40
0.0
  9
$DIMTOL
 70
     0
  9
$DIMLIM
 70
     0
  9
$DIMTIH
 70
     0
  9
$DIMTOH
 70
     0
  9
$DIMSE1
 70
     0
  9
$DIMSE2
 70
     0
  9
$DIMTAD
 70
     1
  9
$DIMZIN
 70
     0
  9
$DIMBLK
  1

  9
$DIMASO
 70
     0
  9
$DIMSHO
 70
     0
  9
$DIMPOST
  1

  9
$DIMAPOST
  1

  9
$DIMALT
 70
     0
  9
$DIMALTD
 70
     2
  9
$DIMALTF
 40
25.399999999999999
  9
$DIMLFAC
 40
1.0
  9
$DIMTOFL
 70
     1
  9
$DIMTVP
 40
1.6000000000000001
  9
$DIMTIX
 70
     1
  9
$DIMSOXD
 70
     0
  9
$DIMSAH
 70
     0
  9
$DIMBLK1
  1

  9
$DIMBLK2
  1

  9
$DIMSTYLE
  2
STANDARD
  9
$DIMCLRD
 70
     0
  9
$DIMCLRE
 70
     0
  9
$DIMCLRT
 70
     0
  9
$DIMTFAC
 40
1.0
  9
$DIMGAP
 40
0.09
  9
$LUNITS
 70
     2
  9
$LUPREC
 70
     4
  9
$SKETCHINC
 40
0.1
  9
$FILLETRAD
 40
0.4
  9
$AUNITS
 70
     0
  9
$AUPREC
 70
     4
  9
$MENU
  1
E:\r13\win\SUPPORT\ACAD
  9
$ELEVATION
 40
0.0
  9
$PELEVATION
 40
0.0
  9
$THICKNESS
 40
0.0
  9
$LIMCHECK
 70
     0
  9
$BLIPMODE
 70
     0
  9
$CHAMFERA
 40
0.0
  9
$CHAMFERB
 40
0.0
  9
$SKPOLY
 70
     0
  9
$TDCREATE
 40
2449840.5909259259
  9
$TDUPDATE
 40
2456598.4720364702
  9
$TDINDWG
 40
0.000788044
  9
$TDUSRTIMER
 40
0.000788044
  9
$USRTIMER
 70
     1
  9
$ANGBASE
 50
0.0
  9
$ANGDIR
 70
     0
  9
$PDMODE
 70
     0
  9
$PDSIZE
 40
0.0
  9
$PLINEWID
 40
0.0
  9
$COORDS
 70
     1
  9
$SPLFRAME
 70
     0
  9
$SPLINETYPE
 70
     6
  9
$SPLINESEGS
 70
     8
  9
$ATTDIA
 70
     0
  9
$ATTREQ
 70
     1
  9
$HANDLING
 70
     1
  9
$HANDSEED
  5
242
  9
$SURFTAB1
 70
     6
  9
$SURFTAB2
 70
     6
  9
$SURFTYPE
 70
     6
  9
$SURFU
 70
     6
  9
$SURFV
 70
     6
  9
$UCSNAME
  2

  9
$UCSORG
 10
0.0
 20
0.0
 30
0.0
  9
$UCSXDIR
 10
1.0
 20
0.0
 30
0.0
  9
$UCSYDIR
 10
0.0
 20
1.0
 30
0.0
  9
$PUCSNAME
  2

  9
$PUCSORG
 10
0.0
 20
0.0
 30
0.0
  9
$PUCSXDIR
 10
1.0
 20
0.0
 30
0.0
  9
$PUCSYDIR
 10
0.0
 20
1.0
 30
0.0
  9
$USERI1
 70
     3
  9
$USERI2
 70
     1
  9
$USERI3
 70
     0
  9
$USERI4
 70
     0
  9
$USERI5
 70
     0
  9
$USERR1
 40
1.0
  9
$USERR2
 40
3.0
  9
$USERR3
 40
3.0
  9
$USERR4
 40
3.0
  9
$USERR5
 40
10.0
  9
$WORLDVIEW
 70
     1
  9
$SHADEDGE
 70
     3
  9
$SHADEDIF
 70
    70
  9
$TILEMODE
 70
     1
  9
$MAXACTVP
 70
    16
  9
$PLIMCHECK
 70
     0
  9
$PEXTMIN
 10
1.0000000000000000E+020
 20
1.0000000000000000E+020
 30
1.0000000000000000E+020
  9
$PEXTMAX
 10
-1.0000000000000000E+020
 20
-1.0000000000000000E+020
 30
-1.0000000000000000E+020
  9
$PLIMMIN
 10
0.0
 20
0.0
  9
$PLIMMAX
 10
12.0
 20
9.0
  9
$UNITMODE
 70
     0
  9
$VISRETAIN
 70
     0
  9
$PLINEGEN
 70
     0
  9
$PSLTSCALE
 70
     0
  0
ENDSEC
  0
SECTION
  2
TABLES
  0
TABLE
  2
VPORT
 70
     1
  0
VPORT
  2
*ACTIVE
 70
     0
 10
0.0
 20
0.0
 11
1.0
 21
1.0
 12
195.01701172807989
 22
134.25430329196891
 13
0.0
 23
0.0
 14
5.0
 24
5.0
 15
10.0
 25
10.0
 16
0.0
 26
0.0
 36
1.0
 17
0.0
 27
0.0
 37
0.0
 40
273.92629380544389
 41
1.831871345029239
 42
50.0
 43
0.0
 44
0.0
 50
0.0
 51
0.0
 71
     0
 72
   100
 73
     1
 74
     0
 75
     0
 76
     0
 77
     0
 78
     2
  0
ENDTAB
  0
TABLE
  2
LTYPE
 70
     3
  0
LTYPE
  2
CONTINUOUS
 70
     0
  3
Solid Line
 72
    65
 73
     0
 40
0.0
  0
LTYPE
  2
CENTER
 70
     0
  3
____ _ ____ _ ____ _ ____ _ ____ _ ____ _ ____
 72
    65
 73
     4
 40
2.0
 49
1.25
 49
-0.25
 49
0.25
 49
-0.25
  0
LTYPE
  2
PHANTOM2
 70
     0
  3
___ _ _ ___ _ _ ___ _ _ ___ _ _
 72
    65
 73
     6
 40
1.25
 49
0.625
 49
-0.125
 49
0.125
 49
-0.125
 49
0.125
 49
-0.125
  0
ENDTAB
  0
TABLE
  2
LAYER
 70
     3
  0
LAYER
  2
0
 70
     0
 62
     7
  6
CONTINUOUS
  0
LAYER
  2
1
 70
     0
 62
     1
  6
CENTER
  0
LAYER
  2
3
 70
     0
 62
     3
  6
CONTINUOUS
  0
ENDTAB
  0
TABLE
  2
STYLE
 70
     2
  0
STYLE
  2
STANDARD
 70
     0
 40
0.0
 41
1.0
 50
0.0
 71
     0
 42
0.06
  3
TXT
  4
BIGFONT
  0
STYLE
  2
STANDARD1
 70
     0
 40
0.0
 41
1.0
 50
0.0
 71
     0
 42
3.0
  3
txt
  4

  0
ENDTAB
  0
TABLE
  2
VIEW
 70
     0
  0
ENDTAB
  0
TABLE
  2
UCS
 70
     0
  0
ENDTAB
  0
TABLE
  2
APPID
 70
     3
  0
APPID
  2
ACAD
 70
     0
  0
APPID
  2
ACAD_MLEADERVER
 70
     0
  0
APPID
  2
ACAD_NAV_VCDISPLAY
 70
     0
  0
ENDTAB
  0
TABLE
  2
DIMSTYLE
 70
     1
  0
DIMSTYLE
  2
STANDARD
 70
     0
  3

  4

  5

  6

  7

 40
1.0
 41
0.18
 42
0.0625
 43
0.38
 44
0.18
 45
0.0
 46
0.0
 47
0.0
 48
0.0
140
0.18
141
0.09
142
0.0
143
25.399999999999999
144
1.0
145
0.0
146
1.0
147
0.09
 71
     0
 72
     0
 73
     1
 74
     1
 75
     0
 76
     0
 77
     0
 78
     0
170
     0
171
     2
172
     0
173
     0
174
     0
175
     0
176
     0
177
     0
178
     0
  0
ENDTAB
  0
ENDSEC
  0
SECTION
  2
BLOCKS
  0
BLOCK
  8
0
  2
$MODEL_SPACE
 70
     0
 10
0.0
 20
0.0
 30
0.0
  3
$MODEL_SPACE
  1

  0
ENDBLK
  5
FC
  8
0
  0
BLOCK
 67
     1
  8
0
  2
$PAPER_SPACE
 70
     0
 10
0.0
 20
0.0
 30
0.0
  3
$PAPER_SPACE
  1

  0
ENDBLK
  5
FA
 67
     1
  8
0
  0
BLOCK
  8
0
  2
STDGX5
 70
     0
 10
0.0
 20
0.0
 30
0.0
  3
STDGX5
  1

  0
ENDBLK
  5
2B
  8
0
  0
ENDSEC
  0
SECTION
  2
ENTITIES
  0
INSERT
  5
37
  8
0
  2
STDGX5
 10
0.0
 20
0.0
 30
0.0
  0
INSERT
  5
41
  8
0
  2
STDGX5
 10
0.0
 20
0.0
 30
0.0
  0
INSERT
  5
42
  8
0
  2
STDGX5
 10
0.0
 20
0.0
 30
0.0
  0
ARC
  5
43
  8
0
 10
155.0
 20
126.33974600000001
 30
0.0
 40
28.660253999999998
 50
72.412045999999989
 51
107.587954
  0
LINE
  5
44
  8
0
 10
172.32050799999999
 20
153.66025400000001
 30
0.0
 11
172.32050799999999
 21
136.33974599999999
 31
0.0
  0
LINE
  5
45
  8
0
 10
163.66025400000001
 20
153.66025400000001
 30
0.0
 11
163.66025400000001
 21
136.33974599999999
 31
0.0
  0
LINE
  5
46
  8
0
 10
170.0
 20
155.0
 30
0.0
 11
172.32050799999999
 21
153.66025400000001
 31
0.0
  0
ARC
  5
47
  8
0
 10
167.99038100000001
 20
147.33253199999999
 30
0.0
 40
7.6674679999999986
 50
64.384247000000002
 51
124.384247
  0
LINE
  5
48
  8
0
 10
145.0
 20
130.0
 30
0.0
 11
165.0
 21
130.0
 31
0.0
  0
LINE
  5
49
  8
0
 10
145.0
 20
37.5
 30
0.0
 11
165.0
 21
37.5
 31
0.0
  0
LINE
  5
4A
  8
0
 10
162.5
 20
35.0
 30
0.0
 11
165.0
 21
37.5
 31
0.0
  0
LINE
  5
4B
  8
0
 10
145.0
 20
37.5
 30
0.0
 11
147.5
 21
35.0
 31
0.0
  0
LINE
  5
4C
  8
0
 10
145.0
 20
37.5
 30
0.0
 11
145.0
 21
130.0
 31
0.0
  0
LINE
  5
4D
  8
3
 10
146.35299999999989
 20
36.146999999999998
 30
0.0
 11
146.35299999999989
 21
132.34346500000001
 31
0.0
  0
LINE
  5
4E
  8
3
 10
163.64699999999999
 20
36.146999999999998
 30
0.0
 11
163.64699999999999
 21
132.34346500000001
 31
0.0
  0
LINE
  5
4F
  8
0
 10
165.0
 20
37.5
 30
0.0
 11
165.0
 21
130.0
 31
0.0
  0
ARC
  5
50
  8
0
 10
142.00961899999999
 20
147.33253199999999
 30
0.0
 40
7.6674679999999986
 50
55.615753000000012
 51
115.615753
  0
LINE
  5
51
  8
0
 10
140.0
 20
155.0
 30
0.0
 11
137.67949200000001
 21
153.66025400000001
 31
0.0
  0
LINE
  5
52
  8
0
 10
140.0
 20
155.0
 30
0.0
 11
170.0
 21
155.0
 31
0.0
  0
LINE
  5
53
  8
0
 10
146.33974599999999
 20
153.66025400000001
 30
0.0
 11
146.33974599999999
 21
136.33974599999999
 31
0.0
  0
LINE
  5
54
  8
0
 10
137.67949200000001
 20
153.66025400000001
 30
0.0
 11
137.67949200000001
 21
136.33974599999999
 31
0.0
  0
LINE
  5
55
  8
0
 10
147.5
 20
35.0
 30
0.0
 11
162.5
 21
35.0
 31
0.0
  0
LINE
  5
56
  8
0
 10
140.0
 20
135.0
 30
0.0
 11
170.0
 21
135.0
 31
0.0
  0
LINE
  5
57
  8
1
 10
155.0
 20
30.0
 30
0.0
 11
155.0
 21
164.0
 31
0.0
  0
LINE
  5
58
  8
0
 10
217.32050799999999
 20
155.0
 30
0.0
 11
215.0
 21
153.66025400000001
 31
0.0
  0
LINE
  5
59
  8
0
 10
242.67949200000001
 20
155.0
 30
0.0
 11
245.0
 21
153.66025400000001
 31
0.0
  0
LINE
  5
5A
  8
1
 10
230.0
 20
30.0
 30
0.0
 11
230.0
 21
164.0
 31
0.0
  0
ARC
  5
5B
  8
0
 10
237.5
 20
133.33734100000001
 30
0.0
 40
21.662659000000001
 50
69.743842000000001
 51
110.256158
  0
ARC
  5
5C
  8
0
 10
222.5
 20
133.33734100000001
 30
0.0
 40
21.662659000000001
 50
69.743842000000001
 51
110.256158
  0
LINE
  5
5D
  8
0
 10
230.0
 20
153.66025400000001
 30
0.0
 11
230.0
 21
136.33974599999999
 31
0.0
  0
LINE
  5
5E
  8
0
 10
217.32050799999999
 20
155.0
 30
0.0
 11
242.67949200000001
 21
155.0
 31
0.0
  0
LINE
  5
5F
  8
0
 10
217.32050799999999
 20
135.0
 30
0.0
 11
242.67949200000001
 21
135.0
 31
0.0
  0
LINE
  5
60
  8
0
 10
245.0
 20
153.66025400000001
 30
0.0
 11
245.0
 21
136.33974599999999
 31
0.0
  0
LINE
  5
61
  8
0
 10
215.0
 20
153.66025400000001
 30
0.0
 11
215.0
 21
136.33974599999999
 31
0.0
  0
LINE
  5
62
  8
1
 10
135.17949200000001
 20
210.0
 30
0.0
 11
174.82050799999999
 21
210.0
 31
0.0
  0
LINE
  5
63
  8
0
 10
163.66025400000001
 20
195.0
 30
0.0
 11
172.32050799999999
 21
210.0
 31
0.0
  0
LINE
  5
64
  8
0
 10
172.32050799999999
 20
210.0
 30
0.0
 11
163.66025400000001
 21
225.0
 31
0.0
  0
LINE
  5
65
  8
0
 10
163.66025400000001
 20
225.0
 30
0.0
 11
146.33974599999999
 21
225.0
 31
0.0
  0
LINE
  5
66
  8
0
 10
146.33974599999999
 20
225.0
 30
0.0
 11
137.67949200000001
 21
210.0
 31
0.0
  0
LINE
  5
67
  8
0
 10
137.67949200000001
 20
210.0
 30
0.0
 11
146.33974599999999
 21
195.0
 31
0.0
  0
LINE
  5
68
  8
0
 10
146.33974599999999
 20
195.0
 30
0.0
 11
163.66025400000001
 21
195.0
 31
0.0
  0
CIRCLE
  5
69
  8
0
 10
155.0
 20
210.0
 30
0.0
 40
15.0
  0
LINE
  5
6A
  8
1
 10
155.0
 20
190.17949200000001
 30
0.0
 11
155.0
 21
229.82050799999999
 31
0.0
  0
LINE
  5
6B
  8
0
 10
165.0
 20
130.0
 30
0.0
 11
163.30000000000001
 21
132.94448600000001
 31
0.0
  0
LINE
  5
6C
  8
0
 10
163.30000000000001
 20
132.94448600000001
 30
0.0
 11
163.30000000000001
 21
134.59999999999999
 31
0.0
  0
ARC
  5
6D
  8
0
 10
163.69999999999999
 20
134.59999999999999
 30
0.0
 40
0.4
 50
90.0
 51
180.0
  0
ARC
  5
6E
  8
0
 10
146.30000000000001
 20
134.59999999999999
 30
0.0
 40
0.4
 50
0.0
 51
90.0
  0
LINE
  5
6F
  8
0
 10
146.69999999999999
 20
132.94448600000001
 30
0.0
 11
146.69999999999999
 21
134.59999999999999
 31
0.0
  0
LINE
  5
70
  8
0
 10
145.0
 20
130.0
 30
0.0
 11
146.69999999999999
 21
132.94448600000001
 31
0.0
  0
LINE
  5
71
  8
0
 10
220.0
 20
130.0
 30
0.0
 11
221.69999999999999
 21
132.94448600000001
 31
0.0
  0
LINE
  5
72
  8
0
 10
221.69999999999999
 20
132.94448600000001
 30
0.0
 11
221.69999999999999
 21
134.59999999999999
 31
0.0
  0
ARC
  5
73
  8
0
 10
221.30000000000001
 20
134.59999999999999
 30
0.0
 40
0.4
 50
0.0
 51
90.0
  0
ARC
  5
74
  8
0
 10
238.69999999999999
 20
134.59999999999999
 30
0.0
 40
0.4
 50
90.0
 51
180.0
  0
LINE
  5
75
  8
0
 10
238.30000000000001
 20
132.94448600000001
 30
0.0
 11
238.30000000000001
 21
134.59999999999999
 31
0.0
  0
LINE
  5
76
  8
0
 10
240.0
 20
130.0
 30
0.0
 11
238.30000000000001
 21
132.94448600000001
 31
0.0
  0
LINE
  5
77
  8
0
 10
222.5
 20
35.0
 30
0.0
 11
237.5
 21
35.0
 31
0.0
  0
LINE
  5
78
  8
0
 10
240.0
 20
37.5
 30
0.0
 11
240.0
 21
130.0
 31
0.0
  0
LINE
  5
79
  8
3
 10
238.64699999999999
 20
36.146999999999998
 30
0.0
 11
238.64699999999999
 21
132.34346500000001
 31
0.0
  0
LINE
  5
7A
  8
3
 10
221.35300000000001
 20
36.146999999999998
 30
0.0
 11
221.35300000000001
 21
132.34346500000001
 31
0.0
  0
LINE
  5
7B
  8
0
 10
220.0
 20
37.5
 30
0.0
 11
220.0
 21
130.0
 31
0.0
  0
LINE
  5
7C
  8
0
 10
220.0
 20
37.5
 30
0.0
 11
222.5
 21
35.0
 31
0.0
  0
LINE
  5
7D
  8
0
 10
237.5
 20
35.0
 30
0.0
 11
240.0
 21
37.5
 31
0.0
  0
LINE
  5
7E
  8
0
 10
220.0
 20
37.5
 30
0.0
 11
240.0
 21
37.5
 31
0.0
  0
LINE
  5
7F
  8
0
 10
220.0
 20
130.0
 30
0.0
 11
240.0
 21
130.0
 31
0.0
  0
ARC
  5
80
  8
0
 10
142.00961899999999
 20
142.66746800000001
 30
0.0
 40
7.6674679999999986
 50
244.38424699999999
 51
304.38424700000002
  0
ARC
  5
81
  8
0
 10
155.0
 20
163.66025400000001
 30
0.0
 40
28.660253999999998
 50
252.412046
 51
287.58795400000002
  0
ARC
  5
82
  8
0
 10
167.99038100000001
 20
142.66746800000001
 30
0.0
 40
7.6674679999999986
 50
235.61575300000001
 51
295.61575299999998
  0
LINE
  5
83
  8
0
 10
170.0
 20
135.0
 30
0.0
 11
172.32050799999999
 21
136.33974599999999
 31
0.0
  0
LINE
  5
84
  8
0
 10
140.0
 20
135.0
 30
0.0
 11
137.67949200000001
 21
136.33974599999999
 31
0.0
  0
ARC
  5
85
  8
0
 10
222.5
 20
156.66265899999999
 30
0.0
 40
21.662659000000001
 50
249.743842
 51
290.25615800000003
  0
ARC
  5
86
  8
0
 10
237.5
 20
156.66265899999999
 30
0.0
 40
21.662659000000001
 50
249.743842
 51
290.25615800000003
  0
LINE
  5
87
  8
0
 10
242.67949200000001
 20
135.0
 30
0.0
 11
245.0
 21
136.33974599999999
 31
0.0
  0
LINE
  5
88
  8
0
 10
217.32050799999999
 20
135.0
 30
0.0
 11
215.0
 21
136.33974599999999
 31
0.0
  0
ARC
  5
89
  8
0
 10
155.0
 20
151.19999999999999
 30
0.0
 40
11.5
 50
152.55676700000001
 51
160.70483300000001
  0
LINE
  5
8A
  8
0
 10
144.79411899999999
 20
156.5
 30
0.0
 11
165.20588100000001
 21
156.5
 31
0.0
  0
LINE
  5
8B
  8
0
 10
165.0
 20
158.5
 30
0.0
 11
165.0
 21
156.5
 31
0.0
  0
LINE
  5
8C
  8
0
 10
145.0
 20
158.5
 30
0.0
 11
145.0
 21
156.5
 31
0.0
  0
ARC
  5
8D
  8
0
 10
155.0
 20
151.19999999999999
 30
0.0
 40
11.5
 50
19.295166999999999
 51
27.443232999999999
  0
ARC
  5
8E
  8
0
 10
230.0
 20
151.19999999999999
 30
0.0
 40
11.5
 50
19.295166999999999
 51
27.443232999999999
  0
ARC
  5
8F
  8
0
 10
230.0
 20
151.19999999999999
 30
0.0
 40
11.5
 50
152.55676700000001
 51
160.70483300000001
  0
CIRCLE
  5
90
  8
0
 10
155.0
 20
210.0
 30
0.0
 40
10.0
  0
CIRCLE
  5
91
  8
0
 10
155.0
 20
210.0
 30
0.0
 40
11.5
  0
LINE
  5
92
  8
0
 10
164.5
 20
159.0
 30
0.0
 11
145.5
 21
159.0
 31
0.0
  0
LINE
  5
93
  8
0
 10
145.5
 20
159.0
 30
0.0
 11
145.0
 21
158.5
 31
0.0
  0
LINE
  5
94
  8
0
 10
164.5
 20
159.0
 30
0.0
 11
165.0
 21
158.5
 31
0.0
  0
LINE
  5
95
  8
0
 10
145.0
 20
158.5
 30
0.0
 11
165.0
 21
158.5
 31
0.0
  0
LINE
  5
96
  8
0
 10
220.0
 20
158.5
 30
0.0
 11
240.0
 21
158.5
 31
0.0
  0
LINE
  5
97
  8
0
 10
239.5
 20
159.0
 30
0.0
 11
240.0
 21
158.5
 31
0.0
  0
LINE
  5
98
  8
0
 10
220.5
 20
159.0
 30
0.0
 11
220.0
 21
158.5
 31
0.0
  0
LINE
  5
99
  8
0
 10
239.5
 20
159.0
 30
0.0
 11
220.5
 21
159.0
 31
0.0
  0
LINE
  5
9A
  8
0
 10
220.0
 20
158.5
 30
0.0
 11
220.0
 21
156.5
 31
0.0
  0
LINE
  5
9B
  8
0
 10
240.0
 20
158.5
 30
0.0
 11
240.0
 21
156.5
 31
0.0
  0
LINE
  5
9C
  8
0
 10
219.79411899999999
 20
156.5
 30
0.0
 11
240.20588100000001
 21
156.5
 31
0.0
  0
CIRCLE
  5
9D
  8
0
 10
155.0
 20
210.0
 30
0.0
 40
9.5
  0
TEXT
  5
1B3
  8
0
 62
     3
 10
0.0
 20
0.0
 30
0.0
 40
5.0
  1
BUH-20100-E
  7
STANDARD1
  0
ENDSEC
  0
EOF
