  0
SECTION
  2
HEADER
  9
$ACADVER
  1
AC1009
  9
$INSBASE
 10
0.0
 20
0.0
 30
0.0
  9
$EXTMIN
 10
0.0
 20
-2.960436562073669
 30
0.0
  9
$EXTMAX
 10
207.85791608647051
 20
201.71584438239421
 30
0.0
  9
$LIMMIN
 10
0.0
 20
0.0
  9
$LIMMAX
 10
270.0
 20
175.0
  9
$ORTHOMODE
 70
     0
  9
$REGENMODE
 70
     1
  9
$FILLMODE
 70
     1
  9
$QTEXTMODE
 70
     0
  9
$MIRRTEXT
 70
     0
  9
$DRAGMODE
 70
     2
  9
$LTSCALE
 40
10.0
  9
$OSMODE
 70
  3071
  9
$ATTMODE
 70
     1
  9
$TEXTSIZE
 40
0.2
  9
$TRACEWID
 40
0.05
  9
$TEXTSTYLE
  7
STANDARD
  9
$CLAYER
  8
0
  9
$CELTYPE
  6
BYLAYER
  9
$CECOLOR
 62
   256
  9
$DIMSCALE
 40
1.0
  9
$DIMASZ
 40
3.0
  9
$DIMEXO
 40
2.0
  9
$DIMDLI
 40
0.38
  9
$DIMRND
 40
0.0
  9
$DIMDLE
 40
0.0
  9
$DIMEXE
 40
2.0
  9
$DIMTP
 40
0.0
  9
$DIMTM
 40
0.0
  9
$DIMTXT
 40
3.2000000000000002
  9
$DIMCEN
 40
0.0
  9
$DIMTSZ
 40
0.0
  9
$DIMTOL
 70
     0
  9
$DIMLIM
 70
     0
  9
$DIMTIH
 70
     0
  9
$DIMTOH
 70
     0
  9
$DIMSE1
 70
     0
  9
$DIMSE2
 70
     0
  9
$DIMTAD
 70
     1
  9
$DIMZIN
 70
     0
  9
$DIMBLK
  1

  9
$DIMASO
 70
     0
  9
$DIMSHO
 70
     0
  9
$DIMPOST
  1

  9
$DIMAPOST
  1

  9
$DIMALT
 70
     0
  9
$DIMALTD
 70
     2
  9
$DIMALTF
 40
25.399999999999999
  9
$DIMLFAC
 40
1.0
  9
$DIMTOFL
 70
     1
  9
$DIMTVP
 40
1.6000000000000001
  9
$DIMTIX
 70
     1
  9
$DIMSOXD
 70
     0
  9
$DIMSAH
 70
     0
  9
$DIMBLK1
  1

  9
$DIMBLK2
  1

  9
$DIMSTYLE
  2
STANDARD
  9
$DIMCLRD
 70
     0
  9
$DIMCLRE
 70
     0
  9
$DIMCLRT
 70
     0
  9
$DIMTFAC
 40
1.0
  9
$DIMGAP
 40
0.09
  9
$LUNITS
 70
     2
  9
$LUPREC
 70
     4
  9
$SKETCHINC
 40
0.1
  9
$FILLETRAD
 40
2.0
  9
$AUNITS
 70
     0
  9
$AUPREC
 70
     4
  9
$MENU
  1
E:\r13\win\SUPPORT\ACAD
  9
$ELEVATION
 40
0.0
  9
$PELEVATION
 40
0.0
  9
$THICKNESS
 40
0.0
  9
$LIMCHECK
 70
     0
  9
$BLIPMODE
 70
     0
  9
$CHAMFERA
 40
0.0
  9
$CHAMFERB
 40
0.0
  9
$SKPOLY
 70
     0
  9
$TDCREATE
 40
2449840.6565972222
  9
$TDUPDATE
 40
2456598.4724017829
  9
$TDINDWG
 40
0.0270001505
  9
$TDUSRTIMER
 40
0.0270001505
  9
$USRTIMER
 70
     1
  9
$ANGBASE
 50
0.0
  9
$ANGDIR
 70
     0
  9
$PDMODE
 70
     0
  9
$PDSIZE
 40
0.0
  9
$PLINEWID
 40
0.0
  9
$COORDS
 70
     1
  9
$SPLFRAME
 70
     0
  9
$SPLINETYPE
 70
     6
  9
$SPLINESEGS
 70
     8
  9
$ATTDIA
 70
     0
  9
$ATTREQ
 70
     1
  9
$HANDLING
 70
     1
  9
$HANDSEED
  5
25A
  9
$SURFTAB1
 70
     6
  9
$SURFTAB2
 70
     6
  9
$SURFTYPE
 70
     6
  9
$SURFU
 70
     6
  9
$SURFV
 70
     6
  9
$UCSNAME
  2

  9
$UCSORG
 10
0.0
 20
0.0
 30
0.0
  9
$UCSXDIR
 10
1.0
 20
0.0
 30
0.0
  9
$UCSYDIR
 10
0.0
 20
1.0
 30
0.0
  9
$PUCSNAME
  2

  9
$PUCSORG
 10
0.0
 20
0.0
 30
0.0
  9
$PUCSXDIR
 10
1.0
 20
0.0
 30
0.0
  9
$PUCSYDIR
 10
0.0
 20
1.0
 30
0.0
  9
$USERI1
 70
     0
  9
$USERI2
 70
     1
  9
$USERI3
 70
     0
  9
$USERI4
 70
     0
  9
$USERI5
 70
     0
  9
$USERR1
 40
0.0
  9
$USERR2
 40
0.0
  9
$USERR3
 40
0.0
  9
$USERR4
 40
0.0
  9
$USERR5
 40
0.0
  9
$WORLDVIEW
 70
     1
  9
$SHADEDGE
 70
     3
  9
$SHADEDIF
 70
    70
  9
$TILEMODE
 70
     1
  9
$MAXACTVP
 70
    16
  9
$PLIMCHECK
 70
     0
  9
$PEXTMIN
 10
1.0000000000000000E+020
 20
1.0000000000000000E+020
 30
1.0000000000000000E+020
  9
$PEXTMAX
 10
-1.0000000000000000E+020
 20
-1.0000000000000000E+020
 30
-1.0000000000000000E+020
  9
$PLIMMIN
 10
0.0
 20
0.0
  9
$PLIMMAX
 10
12.0
 20
9.0
  9
$UNITMODE
 70
     0
  9
$VISRETAIN
 70
     0
  9
$PLINEGEN
 70
     0
  9
$PSLTSCALE
 70
     0
  0
ENDSEC
  0
SECTION
  2
TABLES
  0
TABLE
  2
VPORT
 70
     1
  0
VPORT
  2
*ACTIVE
 70
     0
 10
0.0
 20
0.0
 11
1.0
 21
1.0
 12
140.6674247339102
 22
99.380511689535851
 13
0.0
 23
0.0
 14
10.0
 24
10.0
 15
10.0
 25
10.0
 16
0.0
 26
0.0
 36
1.0
 17
0.0
 27
0.0
 37
0.0
 40
206.51869985965379
 41
1.831871345029239
 42
50.0
 43
0.0
 44
0.0
 50
0.0
 51
0.0
 71
     0
 72
   100
 73
     1
 74
     0
 75
     0
 76
     0
 77
     0
 78
     2
  0
ENDTAB
  0
TABLE
  2
LTYPE
 70
     3
  0
LTYPE
  2
CONTINUOUS
 70
     0
  3
Solid Line
 72
    65
 73
     0
 40
0.0
  0
LTYPE
  2
CENTER
 70
     0
  3
____ _ ____ _ ____ _ ____ _ ____ _ ____ _ ____
 72
    65
 73
     4
 40
2.0
 49
1.25
 49
-0.25
 49
0.25
 49
-0.25
  0
LTYPE
  2
PHANTOM2
 70
     0
  3
___ _ _ ___ _ _ ___ _ _ ___ _ _
 72
    65
 73
     6
 40
1.25
 49
0.625
 49
-0.125
 49
0.125
 49
-0.125
 49
0.125
 49
-0.125
  0
ENDTAB
  0
TABLE
  2
LAYER
 70
     2
  0
LAYER
  2
0
 70
     0
 62
     7
  6
CONTINUOUS
  0
LAYER
  2
1
 70
     0
 62
     1
  6
CENTER
  0
ENDTAB
  0
TABLE
  2
STYLE
 70
     2
  0
STYLE
  2
STANDARD
 70
     0
 40
0.0
 41
1.0
 50
0.0
 71
     0
 42
0.2
  3
ROMANS
  4
BIGFONT
  0
STYLE
  2
STANDARD1
 70
     0
 40
0.0
 41
1.0
 50
0.0
 71
     0
 42
3.0
  3
txt
  4

  0
ENDTAB
  0
TABLE
  2
VIEW
 70
     0
  0
ENDTAB
  0
TABLE
  2
UCS
 70
     0
  0
ENDTAB
  0
TABLE
  2
APPID
 70
     3
  0
APPID
  2
ACAD
 70
     0
  0
APPID
  2
ACAD_MLEADERVER
 70
     0
  0
APPID
  2
ACAD_NAV_VCDISPLAY
 70
     0
  0
ENDTAB
  0
TABLE
  2
DIMSTYLE
 70
     1
  0
DIMSTYLE
  2
STANDARD
 70
     0
  3

  4

  5

  6

  7

 40
1.0
 41
0.18
 42
0.0625
 43
0.38
 44
0.18
 45
0.0
 46
0.0
 47
0.0
 48
0.0
140
0.18
141
0.09
142
0.0
143
25.399999999999999
144
1.0
145
0.0
146
1.0
147
0.09
 71
     0
 72
     0
 73
     1
 74
     1
 75
     0
 76
     0
 77
     0
 78
     0
170
     0
171
     2
172
     0
173
     0
174
     0
175
     0
176
     0
177
     0
178
     0
  0
ENDTAB
  0
ENDSEC
  0
SECTION
  2
BLOCKS
  0
BLOCK
  8
0
  2
$MODEL_SPACE
 70
     0
 10
0.0
 20
0.0
 30
0.0
  3
$MODEL_SPACE
  1

  0
ENDBLK
  5
BD
  8
0
  0
BLOCK
 67
     1
  8
0
  2
$PAPER_SPACE
 70
     0
 10
0.0
 20
0.0
 30
0.0
  3
$PAPER_SPACE
  1

  0
ENDBLK
  5
BB
 67
     1
  8
0
  0
ENDSEC
  0
SECTION
  2
ENTITIES
  0
ARC
  5
34
  8
0
 10
110.79186608647061
 20
98.497870382394197
 30
0.0
 40
2.5
 50
315.0
 51
45.0
  0
LINE
  5
35
  8
0
 10
111.4989730864706
 20
101.3262973823942
 30
0.0
 11
112.5596330864705
 21
100.2656373823942
 31
0.0
  0
ARC
  5
36
  8
0
 10
169.85791608647051
 20
99.326297382394202
 30
0.0
 40
2.0
 50
90.0
 51
180.0
  0
ARC
  5
37
  8
0
 10
205.85791608647051
 20
99.326297382394202
 30
0.0
 40
2.0
 50
0.0
 51
90.0
  0
ARC
  5
38
  8
0
 10
205.85791608647051
 20
62.00736638239421
 30
0.0
 40
2.0
 50
270.0
 51
0.0
  0
ARC
  5
39
  8
0
 10
169.85791608647051
 20
62.00736638239421
 30
0.0
 40
2.0
 50
180.0
 51
270.0
  0
LINE
  5
3A
  8
0
 10
207.85791608647051
 20
62.00736638239421
 30
0.0
 11
207.85791608647051
 21
99.326297382394202
 31
0.0
  0
LINE
  5
3B
  8
0
 10
205.85791608647051
 20
101.3262973823942
 30
0.0
 11
169.85791608647051
 21
101.3262973823942
 31
0.0
  0
LINE
  5
3C
  8
0
 10
167.85791608647051
 20
99.326297382394202
 30
0.0
 11
167.85791608647051
 21
62.00736638239421
 31
0.0
  0
LINE
  5
3D
  8
0
 10
169.85791608647051
 20
60.00736638239421
 30
0.0
 11
205.85791608647051
 21
60.00736638239421
 31
0.0
  0
LINE
  5
3E
  8
0
 10
167.85791608647051
 20
62.457366382394213
 30
0.0
 11
167.85791608647051
 21
97.126297382394213
 31
0.0
  0
LINE
  5
3F
  8
0
 10
71.971963086470566
 20
61.799287382394212
 30
0.0
 11
73.032623086470579
 21
60.738627382394213
 31
0.0
  0
LINE
  5
40
  8
0
 10
76.568157086470563
 20
60.738627382394213
 30
0.0
 11
112.5596330864705
 21
96.730103382394205
 31
0.0
  0
ARC
  5
41
  8
0
 10
74.800390086470571
 20
62.50639438239422
 30
0.0
 40
2.5
 50
225.0
 51
315.0
  0
LINE
  5
42
  8
0
 10
111.4989730864706
 20
101.3262973823942
 30
0.0
 11
71.971963086470566
 21
61.799287382394212
 31
0.0
  0
LINE
  5
43
  8
1
 10
187.85791608647051
 20
55.00736638239421
 30
0.0
 11
187.85791608647051
 21
110.7172022519528
 31
0.0
  0
LINE
  5
4A
  8
0
 10
67.581039832135573
 20
97.630903802500853
 30
0.0
 11
68.667319896811392
 21
98.71718386717663
 31
0.0
  0
LINE
  5
4B
  8
0
 10
67.581039832135573
 20
97.630903802500853
 30
0.0
 11
71.235468086470547
 21
93.701707024847835
 31
0.0
  0
LINE
  5
4C
  8
0
 10
68.667319896811392
 20
98.71718386717663
 30
0.0
 11
71.235468086470547
 21
96.328627232034407
 31
0.0
  0
LINE
  5
4D
  8
0
 10
75.667338281587661
 20
105.7172022519529
 30
0.0
 11
79.596517080490599
 21
102.06279238239409
 31
0.0
  0
LINE
  5
4E
  8
0
 10
74.581058216911913
 20
104.63092218727709
 30
0.0
 11
76.969598840059263
 21
102.06279238239421
 31
0.0
  0
LINE
  5
4F
  8
0
 10
75.667338281587661
 20
105.7172022519529
 30
0.0
 11
74.581058216911913
 21
104.63092218727709
 31
0.0
  0
LINE
  5
50
  8
1
 10
79.572224464925711
 20
100.726036003939
 30
0.0
 11
74.554404533901845
 21
105.74385593496289
 31
0.0
  0
LINE
  5
51
  8
0
 10
105.1063352815876
 20
105.7172022519528
 30
0.0
 11
104.0200552169119
 21
104.63092218727709
 31
0.0
  0
LINE
  5
52
  8
0
 10
104.0200552169119
 20
104.63092218727709
 30
0.0
 11
106.40859584005911
 21
102.06279238239421
 31
0.0
  0
LINE
  5
53
  8
0
 10
105.1063352815876
 20
105.7172022519528
 30
0.0
 11
109.0355140804907
 21
102.06279238239421
 31
0.0
  0
LINE
  5
54
  8
0
 10
111.2354680864706
 20
101.56279238239421
 30
0.0
 11
111.2354680864706
 21
101.06279238239421
 31
0.0
  0
ARC
  5
55
  8
0
 10
110.7354680864705
 20
101.56279238239421
 30
0.0
 40
0.5
 50
0.0
 51
90.0
  0
LINE
  5
56
  8
1
 10
108.9613852860944
 20
100.7758721827703
 30
0.0
 11
103.8154340707856
 21
105.9218233980791
 31
0.0
  0
LINE
  5
57
  8
0
 10
71.235468086470576
 20
100.06279238239421
 30
0.0
 11
71.235468086470576
 21
62.562792382394207
 31
0.0
  0
ARC
  5
58
  8
0
 10
73.235468086470576
 20
100.06279238239421
 30
0.0
 40
2.0
 50
90.0
 51
180.0
  0
ARC
  5
59
  8
0
 10
71.735468086470576
 20
62.562792382394207
 30
0.0
 40
0.5
 50
180.0
 51
270.0
  0
LINE
  5
5A
  8
0
 10
71.235468086470576
 20
66.153372382394224
 30
0.0
 11
71.235468086470576
 21
62.562792382394207
 31
0.0
  0
LINE
  5
5B
  8
1
 10
67.157477920457382
 20
99.140782548407444
 30
0.0
 11
72.625809016804055
 21
93.672451452060756
 31
0.0
  0
LINE
  5
5D
  8
0
 10
110.7354680864705
 20
102.06279238239421
 30
0.0
 11
73.235468086470576
 21
102.06279238239421
 31
0.0
  0
LINE
  5
5E
  8
0
 10
71.735468086470576
 20
62.062792382394207
 30
0.0
 11
72.235468086470576
 21
62.062792382394207
 31
0.0
  0
LINE
  5
5F
  8
0
 10
204.35791608647051
 20
102.06279238239421
 30
0.0
 11
171.35791608647051
 21
102.06279238239421
 31
0.0
  0
LINE
  5
60
  8
0
 10
167.85791608647051
 20
64.062792382394207
 30
0.0
 11
167.85791608647051
 21
98.562792382394207
 31
0.0
  0
LINE
  5
61
  8
0
 10
207.85791608647051
 20
64.062792382394207
 30
0.0
 11
207.85791608647051
 21
98.562792382394207
 31
0.0
  0
LINE
  5
62
  8
1
 10
74.749176086470584
 20
82.062792382394207
 30
0.0
 11
68.835365086470574
 21
82.062792382394207
 31
0.0
  0
LINE
  5
63
  8
1
 10
91.235468086470576
 20
98.158315382394221
 30
0.0
 11
91.235468086470576
 21
104.5475363823942
 31
0.0
  0
ARC
  5
64
  8
0
 10
171.35791608647051
 20
98.562792382394207
 30
0.0
 40
3.5
 50
90.0
 51
133.18848700000001
  0
ARC
  5
65
  8
0
 10
204.35791608647051
 20
98.562792382394207
 30
0.0
 40
3.5
 50
46.811512999999998
 51
90.0
  0
LINE
  5
66
  8
0
 10
71.235468086470576
 20
165.71584438239421
 30
0.0
 11
85.235468086470576
 21
167.00413038239421
 31
0.0
  0
LINE
  5
67
  8
0
 10
71.235468086470576
 20
197.71584438239421
 30
0.0
 11
85.235468086470576
 21
196.42755838239421
 31
0.0
  0
LINE
  5
6B
  8
1
 10
62.581039832135588
 20
181.71584438239421
 30
0.0
 11
118.29186608647051
 21
181.71584438239421
 31
0.0
  0
ARC
  5
6C
  8
0
 10
108.6744650864706
 20
198.21584438239421
 30
0.0
 40
3.5
 50
44.415309000000001
 51
90.0
  0
ARC
  5
6D
  8
0
 10
108.6744650864706
 20
165.21584438239421
 30
0.0
 40
3.5
 50
270.0
 51
315.58469100000002
  0
ARC
  5
6E
  8
0
 10
74.735468086470576
 20
165.21584438239421
 30
0.0
 40
3.5
 50
180.0
 51
270.0
  0
ARC
  5
6F
  8
0
 10
74.735468086470576
 20
198.21584438239421
 30
0.0
 40
3.5
 50
90.0
 51
180.0
  0
LINE
  5
70
  8
0
 10
71.235468086470576
 20
198.21584438239421
 30
0.0
 11
71.235468086470576
 21
165.21584438239421
 31
0.0
  0
LINE
  5
71
  8
0
 10
111.17446508647051
 20
200.66533438239421
 30
0.0
 11
111.17446508647051
 21
162.76635438239421
 31
0.0
  0
LINE
  5
72
  8
0
 10
74.735468086470576
 20
201.71584438239421
 30
0.0
 11
108.6744650864706
 21
201.71584438239421
 31
0.0
  0
LINE
  5
73
  8
0
 10
74.735468086470576
 20
161.71584438239421
 30
0.0
 11
108.6744650864706
 21
161.71584438239421
 31
0.0
  0
CIRCLE
  5
74
  8
0
 10
91.235468086470576
 20
181.71584438239421
 30
0.0
 40
4.25
  0
LINE
  5
75
  8
1
 10
91.235468086470576
 20
188.46584438239421
 30
0.0
 11
91.235468086470576
 21
174.96584438239421
 31
0.0
  0
LINE
  5
76
  8
1
 10
78.235468086470561
 20
174.34575988239411
 30
0.0
 11
78.235468086470576
 21
189.34575988239419
 31
0.0
  0
LINE
  5
77
  8
1
 10
107.6744650864706
 20
174.21584438239421
 30
0.0
 11
107.6744650864706
 21
189.21584438239421
 31
0.0
  0
LINE
  5
78
  8
0
 10
105.6744650864706
 20
186.71584438239421
 30
0.0
 11
105.6744650864706
 21
185.71584438239421
 31
0.0
  0
LINE
  5
79
  8
0
 10
109.6744650864706
 20
186.71584438239421
 30
0.0
 11
105.6744650864706
 21
186.71584438239421
 31
0.0
  0
LINE
  5
7A
  8
0
 10
109.6744650864706
 20
186.71584438239421
 30
0.0
 11
109.6744650864706
 21
176.71584438239421
 31
0.0
  0
LINE
  5
7B
  8
0
 10
109.6744650864706
 20
176.71584438239421
 30
0.0
 11
105.6744650864706
 21
176.71584438239421
 31
0.0
  0
LINE
  5
7C
  8
0
 10
76.235468086470576
 20
186.84575988239419
 30
0.0
 11
76.235468086470547
 21
185.84575988239419
 31
0.0
  0
LINE
  5
7D
  8
0
 10
80.235468086470576
 20
186.84575988239419
 30
0.0
 11
80.235468086470576
 21
176.84575988239419
 31
0.0
  0
LINE
  5
7E
  8
0
 10
80.235468086470576
 20
186.84575988239419
 30
0.0
 11
76.235468086470576
 21
186.84575988239419
 31
0.0
  0
LINE
  5
7F
  8
0
 10
80.235468086470576
 20
176.84575988239419
 30
0.0
 11
76.235468086470576
 21
176.84575988239419
 31
0.0
  0
LINE
  5
80
  8
0
 10
85.235468086470576
 20
196.42755838239421
 30
0.0
 11
85.235468086470576
 21
167.00413038239421
 31
0.0
  0
LINE
  5
83
  8
0
 10
113.29186608647051
 20
163.71584438239421
 30
0.0
 11
113.29186608647051
 21
199.71584438239421
 31
0.0
  0
LINE
  5
84
  8
0
 10
108.6744650864706
 20
201.71584438239421
 30
0.0
 11
111.29186608647051
 21
201.71584438239421
 31
0.0
  0
LINE
  5
85
  8
0
 10
108.6744650864706
 20
161.71584438239421
 30
0.0
 11
111.29186608647051
 21
161.71584438239421
 31
0.0
  0
ARC
  5
86
  8
0
 10
111.29186608647051
 20
163.71584438239421
 30
0.0
 40
2.0
 50
270.0
 51
0.0
  0
ARC
  5
87
  8
0
 10
111.29186608647051
 20
199.71584438239421
 30
0.0
 40
2.0
 50
0.0
 51
90.0
  0
LINE
  5
DD
  8
0
 10
183.8579160864706
 20
105.7172022519528
 30
0.0
 11
191.85791608647051
 21
105.7172022519528
 31
0.0
  0
LINE
  5
107
  8
1
 10
67.157477920457382
 20
69.701785548407443
 30
0.0
 11
72.625809016804055
 21
64.233454452060741
 31
0.0
  0
LINE
  5
108
  8
0
 10
68.667319896811392
 20
69.278186867176629
 30
0.0
 11
71.235468086470547
 21
66.889630232034406
 31
0.0
  0
LINE
  5
109
  8
0
 10
67.581039832135573
 20
68.191906802500853
 30
0.0
 11
71.235468086470547
 21
64.26271002484782
 31
0.0
  0
LINE
  5
10A
  8
0
 10
67.581039832135573
 20
68.191906802500853
 30
0.0
 11
68.667319896811392
 21
69.278186867176629
 31
0.0
  0
LINE
  5
10B
  8
0
 10
109.0355140804907
 20
177.71584438239421
 30
0.0
 11
109.0355140804907
 21
185.71584438239421
 31
0.0
  0
LINE
  5
10C
  8
0
 10
105.1063352815877
 20
177.71584438239421
 30
0.0
 11
105.1063352815876
 21
185.71584438239421
 31
0.0
  0
LINE
  5
10D
  8
0
 10
104.0200552169119
 20
177.71584438239421
 30
0.0
 11
104.0200552169119
 21
185.71584438239421
 31
0.0
  0
LINE
  5
10E
  8
0
 10
104.0200552169119
 20
177.71584438239421
 30
0.0
 11
109.0355140804907
 21
177.71584438239421
 31
0.0
  0
LINE
  5
10F
  8
0
 10
104.0200552169119
 20
185.71584438239421
 30
0.0
 11
109.0355140804907
 21
185.71584438239421
 31
0.0
  0
LINE
  5
110
  8
0
 10
105.6744650864706
 20
177.71584438239421
 30
0.0
 11
105.6744650864706
 21
176.71584438239421
 31
0.0
  0
LINE
  5
111
  8
0
 10
74.581058216911885
 20
185.84575988239419
 30
0.0
 11
79.596517080490685
 21
185.84575988239419
 31
0.0
  0
LINE
  5
112
  8
0
 10
74.581058216911941
 20
177.84575988239419
 30
0.0
 11
79.596517080490713
 21
177.84575988239411
 31
0.0
  0
LINE
  5
113
  8
0
 10
74.581058216911913
 20
177.84575988239419
 30
0.0
 11
74.581058216911885
 21
185.84575988239419
 31
0.0
  0
LINE
  5
114
  8
0
 10
75.667338281587689
 20
177.84575988239419
 30
0.0
 11
75.667338281587632
 21
185.84575988239419
 31
0.0
  0
LINE
  5
115
  8
0
 10
79.596517080490713
 20
177.84575988239419
 30
0.0
 11
79.596517080490685
 21
185.84575988239411
 31
0.0
  0
LINE
  5
116
  8
0
 10
76.235468086470576
 20
177.84575988239419
 30
0.0
 11
76.235468086470576
 21
176.84575988239419
 31
0.0
  0
LINE
  5
119
  8
0
 10
68.667319896811392
 20
177.71584438239421
 30
0.0
 11
68.667319896811392
 21
185.71584438239421
 31
0.0
  0
LINE
  5
11A
  8
0
 10
67.581039832135573
 20
177.71584438239421
 30
0.0
 11
67.581039832135616
 21
185.71584438239429
 31
0.0
  0
LINE
  5
11B
  8
0
 10
67.581039832135573
 20
185.71584438239429
 30
0.0
 11
71.235468086470576
 21
185.71584438239421
 31
0.0
  0
LINE
  5
11C
  8
0
 10
67.581039832135573
 20
177.71584438239421
 30
0.0
 11
71.235468086470576
 21
177.71584438239421
 31
0.0
  0
LINE
  5
11D
  8
0
 10
191.8579160864706
 20
102.06279238239421
 30
0.0
 11
191.8579160864706
 21
105.7172022519528
 31
0.0
  0
LINE
  5
11E
  8
0
 10
183.85791608647051
 20
102.06279238239421
 30
0.0
 11
183.85791608647051
 21
105.7172022519528
 31
0.0
  0
TEXT
  5
1CB
  8
0
 62
     3
 10
0.0
 20
0.0
 30
0.0
 40
10.0
  1
BZN40
  7
STANDARD1
  0
ENDSEC
  0
EOF
